  0
SECTION
  2
HEADER
  9
$ACADVER
  1
AC1009
  9
$INSBASE
 10
7097.426037505622844
 20
267.4059384928387999
 30
0.0
  9
$EXTMIN
 10
7089.6635439661549754
 20
245.8624841076743905
 30
-0.0000000000112498
  9
$EXTMAX
 10
7105.3838912598694151
 20
267.4279365575210932
 30
0.0000000000002956
  9
$LIMMIN
 10
0.0
 20
0.0
  9
$LIMMAX
 10
11.6929133858000007
 20
8.2677165353999982
  9
$ORTHOMODE
 70
     0
  9
$REGENMODE
 70
     1
  9
$FILLMODE
 70
     1
  9
$QTEXTMODE
 70
     0
  9
$MIRRTEXT
 70
     0
  9
$DRAGMODE
 70
     2
  9
$LTSCALE
 40
0.6431102362
  9
$OSMODE
 70
  4095
  9
$ATTMODE
 70
     1
  9
$TEXTSIZE
 40
0.2
  9
$TRACEWID
 40
0.05
  9
$TEXTSTYLE
  7
STANDARD
  9
$CLAYER
  8
0
  9
$CELTYPE
  6
BYLAYER
  9
$CECOLOR
 62
   256
  9
$DIMSCALE
 40
1.0
  9
$DIMASZ
 40
0.1875
  9
$DIMEXO
 40
0.0625
  9
$DIMDLI
 40
0.4443307087
  9
$DIMRND
 40
0.0
  9
$DIMDLE
 40
0.0
  9
$DIMEXE
 40
0.125
  9
$DIMTP
 40
0.01
  9
$DIMTM
 40
0.01
  9
$DIMTXT
 40
2.0
  9
$DIMCEN
 40
0.1052362205
  9
$DIMTSZ
 40
0.0
  9
$DIMTOL
 70
     1
  9
$DIMLIM
 70
     0
  9
$DIMTIH
 70
     1
  9
$DIMTOH
 70
     1
  9
$DIMSE1
 70
     0
  9
$DIMSE2
 70
     0
  9
$DIMTAD
 70
     0
  9
$DIMZIN
 70
     0
  9
$DIMBLK
  1

  9
$DIMASO
 70
     1
  9
$DIMSHO
 70
     1
  9
$DIMPOST
  1
\X
  9
$DIMAPOST
  1

  9
$DIMALT
 70
     1
  9
$DIMALTD
 70
     2
  9
$DIMALTF
 40
25.3999999999999986
  9
$DIMLFAC
 40
1.0
  9
$DIMTOFL
 70
     0
  9
$DIMTVP
 40
0.0
  9
$DIMTIX
 70
     0
  9
$DIMSOXD
 70
     0
  9
$DIMSAH
 70
     0
  9
$DIMBLK1
  1

  9
$DIMBLK2
  1

  9
$DIMSTYLE
  2
STANDARD
  9
$DIMCLRD
 70
     0
  9
$DIMCLRE
 70
     0
  9
$DIMCLRT
 70
     0
  9
$DIMTFAC
 40
1.0
  9
$DIMGAP
 40
0.09
  9
$LUNITS
 70
     2
  9
$LUPREC
 70
     4
  9
$SKETCHINC
 40
0.1
  9
$FILLETRAD
 40
0.0
  9
$AUNITS
 70
     0
  9
$AUPREC
 70
     0
  9
$MENU
  1
.
  9
$ELEVATION
 40
0.0
  9
$PELEVATION
 40
0.0
  9
$THICKNESS
 40
0.0
  9
$LIMCHECK
 70
     0
  9
$BLIPMODE
 70
     0
  9
$CHAMFERA
 40
0.0
  9
$CHAMFERB
 40
0.0
  9
$SKPOLY
 70
     0
  9
$TDCREATE
 40
2458060.468368056230247
  9
$TDUPDATE
 40
2460504.6848611109890044
  9
$TDINDWG
 40
0.8931436343
  9
$TDUSRTIMER
 40
0.8931436343
  9
$USRTIMER
 70
     1
  9
$ANGBASE
 50
0.0
  9
$ANGDIR
 70
     0
  9
$PDMODE
 70
     0
  9
$PDSIZE
 40
0.3125
  9
$PLINEWID
 40
0.0
  9
$COORDS
 70
     1
  9
$SPLFRAME
 70
     0
  9
$SPLINETYPE
 70
     6
  9
$SPLINESEGS
 70
     8
  9
$ATTDIA
 70
     1
  9
$ATTREQ
 70
     1
  9
$HANDLING
 70
     1
  9
$HANDSEED
  5
325EC
  9
$SURFTAB1
 70
     6
  9
$SURFTAB2
 70
     6
  9
$SURFTYPE
 70
     6
  9
$SURFU
 70
     6
  9
$SURFV
 70
     6
  9
$UCSNAME
  2

  9
$UCSORG
 10
0.0
 20
0.0
 30
0.0
  9
$UCSXDIR
 10
1.0
 20
0.0
 30
0.0
  9
$UCSYDIR
 10
0.0
 20
1.0
 30
0.0
  9
$PUCSNAME
  2

  9
$PUCSORG
 10
0.0
 20
0.0
 30
0.0
  9
$PUCSXDIR
 10
1.0
 20
0.0
 30
0.0
  9
$PUCSYDIR
 10
0.0
 20
1.0
 30
0.0
  9
$USERI1
 70
     0
  9
$USERI2
 70
     0
  9
$USERI3
 70
     0
  9
$USERI4
 70
     0
  9
$USERI5
 70
     0
  9
$USERR1
 40
0.0
  9
$USERR2
 40
0.0
  9
$USERR3
 40
0.0
  9
$USERR4
 40
0.0
  9
$USERR5
 40
0.0
  9
$WORLDVIEW
 70
     1
  9
$SHADEDGE
 70
     3
  9
$SHADEDIF
 70
    70
  9
$TILEMODE
 70
     1
  9
$MAXACTVP
 70
    64
  9
$PLIMCHECK
 70
     0
  9
$PEXTMIN
 10
1.0000000000000000E+20
 20
1.0000000000000000E+20
 30
1.0000000000000000E+20
  9
$PEXTMAX
 10
-1.0000000000000000E+20
 20
-1.0000000000000000E+20
 30
-1.0000000000000000E+20
  9
$PLIMMIN
 10
0.0
 20
0.0
  9
$PLIMMAX
 10
12.0
 20
9.0
  9
$UNITMODE
 70
     0
  9
$VISRETAIN
 70
     1
  9
$PLINEGEN
 70
     0
  9
$PSLTSCALE
 70
     1
  0
ENDSEC
  0
SECTION
  2
TABLES
  0
TABLE
  2
VPORT
 70
     1
  0
VPORT
  2
*ACTIVE
 70
     0
 10
0.0
 20
0.0
 11
1.0
 21
1.0
 12
3186.15836116770015
 22
124.0656052300585941
 13
0.0
 23
0.0
 14
1.0
 24
1.0
 15
0.0
 25
0.0
 16
0.0
 26
0.0
 36
60.4960186965801583
 17
3911.3653564453120453
 27
132.5796051025390057
 37
0.0
 40
21.7513615226902211
 41
2.7266187050359711
 42
50.0
 43
0.0
 44
0.0
 50
0.0
 51
0.0
 71
     0
 72
   100
 73
     1
 74
     1
 75
     0
 76
     0
 77
     0
 78
     0
  0
ENDTAB
  0
TABLE
  2
LTYPE
 70
     2
  0
LTYPE
  2
CONTINUOUS
 70
     0
  3
Solid line
 72
    65
 73
     0
 40
0.0
  0
LTYPE
  2
PHANTOM2
 70
     0
  3
___ _ _ ___ _ _ ___ _ _ ___ _ _
 72
    65
 73
     6
 40
1.25
 49
0.625
 49
-0.125
 49
0.125
 49
-0.125
 49
0.125
 49
-0.125
  0
ENDTAB
  0
TABLE
  2
LAYER
 70
     2
  0
LAYER
  2
0
 70
     0
 62
   255
  6
CONTINUOUS
  0
LAYER
  2
DEFPOINTS
 70
     0
 62
     7
  6
CONTINUOUS
  0
ENDTAB
  0
TABLE
  2
STYLE
 70
     1
  0
STYLE
  2
STANDARD
 70
     0
 40
0.0
 41
0.8
 50
0.0
 71
     0
 42
0.2
  3
txt
  4

  0
ENDTAB
  0
TABLE
  2
VIEW
 70
     0
  0
ENDTAB
  0
TABLE
  2
UCS
 70
     0
  0
ENDTAB
  0
TABLE
  2
APPID
 70
    11
  0
APPID
  2
ACAD
 70
     0
  0
APPID
  2
ACAD_MLEADERVER
 70
     0
  0
APPID
  2
ACAD_EXEMPT_FROM_CAD_STANDARDS
 70
     0
  0
APPID
  2
ACAD_NAV_VCDISPLAY
 70
     0
  0
APPID
  2
ACAECLAYERSTANDARD
 70
     0
  0
APPID
  2
ACCMTRANSPARENCY
 70
     0
  0
APPID
  2
ACAD_DSTYLE_DIMJAG
 70
     0
  0
APPID
  2
ACAD_DSTYLE_DIMTALN
 70
     0
  0
APPID
  2
ACDBATTR
 70
     0
  0
APPID
  2
ACADANNOTATIVE
 70
     0
  0
APPID
  2
DCO15
 70
     0
  0
ENDTAB
  0
TABLE
  2
DIMSTYLE
 70
     1
  0
DIMSTYLE
  2
STANDARD
 70
     0
  3

  4

  5

  6

  7

 40
1.0
 41
0.1875
 42
0.0625
 43
0.38
 44
0.125
 45
0.0
 46
0.0
 47
0.01
 48
0.01
140
0.15625
141
0.09
142
0.0
143
25.3999999999999986
144
1.0
145
0.0
146
1.0
147
0.09
 71
     1
 72
     0
 73
     1
 74
     1
 75
     0
 76
     0
 77
     0
 78
     4
170
     0
171
     2
172
     0
173
     0
174
     0
175
     0
176
     0
177
     0
178
     0
  0
ENDTAB
  0
ENDSEC
  0
SECTION
  2
BLOCKS
  0
BLOCK
  8
0
  2
$MODEL_SPACE
 70
     0
 10
0.0
 20
0.0
 30
0.0
  3
$MODEL_SPACE
  1

  0
ENDBLK
  5
21
  8
0
  0
BLOCK
 67
     1
  8
0
  2
$PAPER_SPACE
 70
     0
 10
0.0
 20
0.0
 30
0.0
  3
$PAPER_SPACE
  1

  0
ENDBLK
  5
1D
 67
     1
  8
0
  0
BLOCK
  8
0
  2
_FILLED
 70
     0
 10
0.0
 20
0.0
 30
0.0
  3
_FILLED
  1

  0
SOLID
  5
257AF
  8
0
  6
BYBLOCK
 62
     0
 10
0.0
 20
0.0
 30
0.0
 11
-1.0
 21
0.1666666667
 31
0.0
 12
-1.0
 22
-0.1666666667
 32
0.0
 13
-1.0
 23
-0.1666666667
 33
0.0
  0
ENDBLK
  5
257B0
  8
0
  6
BYBLOCK
 62
     0
  0
ENDSEC
  0
SECTION
  2
ENTITIES
  0
ATTDEF
  5
256E4
  8
DEFPOINTS
 10
7097.4166914019642718
 20
267.4101881989469121
 30
0.0
 40
0.001
  1
K-6088IN
  3

  2
MODELNUMBER
 70
     0
1001
ACDBATTR
1070
     0
1070
     1
  0
ATTDEF
  5
256E5
  8
DEFPOINTS
 10
7097.4165655923079612
 20
267.408521358567782
 30
0.0
 40
0.001
  1
REPLAY
  3

  2
TRADENAME
 70
     0
1001
ACDBATTR
1070
     0
1070
     1
  0
ATTDEF
  5
256E6
  8
DEFPOINTS
 10
7097.4166914019642718
 20
267.4068548656135818
 30
0.0
 40
0.001
  1
TOILET BOWL
  3

  2
PRODUCT
 70
     0
1001
ACDBATTR
1070
     0
1070
     1
  0
LINE
  5
322BD
  8
0
 10
7092.6078770739386528
 20
267.4059384928387999
 30
0.0
 11
7102.2441979373061258
 21
267.4059384928387999
 31
0.0
  0
LINE
  5
322BE
  8
0
 10
7092.4109070565527873
 20
267.2055015972671868
 30
0.0
 11
7092.454072166197875
 21
264.7316899203669891
 31
0.0
  0
ARC
  5
322BF
  8
0
 10
7092.6078770739386528
 20
267.2089384928387972
 30
0.0
 40
0.197
 50
90.0
 51
180.9996426477725038
  0
ARC
  5
322C0
  8
0
 10
7091.861662342335876
 20
264.7213530643966806
 30
0.0
 40
0.5925000000000001
 50
299.8266396230296778
 51
0.9996426477741929
  0
ARC
  5
322C1
  8
0
 10
7093.5975650443642735
 20
264.9256235321387862
 30
0.0
 40
1.240157480299968
 50
158.6141426773004923
 51
198.6180318909933078
  0
LINE
  5
322C2
  8
0
 10
7089.948574014303631
 20
252.0574681096381084
 30
0.0
 11
7089.948574014303631
 21
260.9341781348124982
 31
0.0
  0
LINE
  5
322C3
  8
0
 10
7091.8589379403911153
 20
263.7744491618262828
 30
0.0
 11
7091.9990919597494212
 21
263.7744491618262828
 31
0.0
  0
ARC
  5
322C4
  8
0
 10
7091.9213050716953148
 20
262.2689139163550749
 30
0.0
 40
1.506826477874267
 50
92.3721340891061544
 51
131.1834154713816929
  0
ARC
  5
322C5
  8
0
 10
7092.2347068976350783
 20
261.9107087415122805
 30
0.0
 40
1.9827798913363111
 50
131.1834154713816929
 51
150.1965563479853074
  0
ARC
  5
322C6
  8
0
 10
7093.9141178866302653
 20
260.8819701432767033
 30
0.0
 40
3.951799606569856
 50
149.3561556566592969
 51
165.2397992739252004
  0
ARC
  5
322C7
  8
0
 10
7094.3682553669668778
 20
260.7549689549597929
 30
0.0
 40
4.4233131461874242
 50
165.1477315674127055
 51
177.6780434878666881
  0
ARC
  5
322C8
  8
0
 10
7094.0917430310018972
 20
260.8364800392859024
 30
0.0
 40
3.8869530017073362
 50
119.8623637232956014
 51
132.4004755909056996
  0
LINE
  5
322C9
  8
0
 10
7092.168630632915665
 20
263.4939787087387799
 30
0.0
 11
7102.683444378328204
 21
263.4939787087387799
 31
0.0
  0
LINE
  5
322CA
  8
0
 10
7092.0377584435427707
 20
263.5000918229366107
 30
0.0
 11
7092.0205428647650479
 21
263.7544012892303726
 31
0.0
  0
ARC
  5
322CB
  8
0
 10
7092.0438660596610134
 20
263.5021995291626808
 30
0.0
 40
0.0064610680382257
 50
199.0392852923772864
 51
244.1739748135834134
  0
ARC
  5
322CC
  8
0
 10
7092.055149672585685
 20
263.5232581850019073
 30
0.0
 40
0.0303479114252511
 50
242.3184914366983094
 51
259.1180228263664276
  0
ARC
  5
322CD
  8
0
 10
7092.0672177709393509
 20
263.580704828669127
 30
0.0
 40
0.0890455347388592
 50
258.4707447922231722
 51
267.8208802489810978
  0
ARC
  5
322CE
  8
0
 10
7092.0698463681274006
 20
263.6131596715654837
 30
0.0
 40
0.1215848324384474
 50
267.1645943085476915
 51
271.1196831810977983
  0
ARC
  5
322CF
  8
0
 10
7092.0484227740971619
 20
264.2491899196140253
 30
0.0
 40
0.7579655985539638
 50
271.7993343158663038
 51
272.9185043493728244
  0
ARC
  5
322D0
  8
0
 10
7092.1689605620686052
 20
261.5975790487933068
 30
0.0
 40
1.8963996886453871
 50
90.0099681244608831
 51
92.4765913454770754
  0
ARC
  5
322D1
  8
0
 10
7091.9990919597494212
 20
263.7529491618262227
 30
0.0
 40
0.0215
 50
3.872751571469832
 51
90.0
  0
LINE
  5
322D2
  8
0
 10
7092.0995994644836173
 20
263.7690396272888051
 30
0.0
 11
7092.3983457293779793
 21
263.7690396272888051
 31
0.0
  0
ARC
  5
322D3
  8
0
 10
7097.5835899273288305
 20
263.4704263929107242
 30
0.0
 40
5.5310378846689661
 50
177.3104788452617981
 51
179.7675305947076083
  0
ARC
  5
322D4
  8
0
 10
7092.0995994644836173
 20
263.7280396272888083
 30
0.0
 40
0.041
 50
90.0
 51
177.3104788452828871
  0
LINE
  5
322D5
  8
0
 10
7092.649533944752875
 20
263.5919361729431785
 30
0.0
 11
7102.2025410664928131
 21
263.5919361729431785
 31
0.0
  0
ARC
  5
322D6
  8
0
 10
7093.2268839364560336
 20
264.1142502837209918
 30
0.0
 40
0.8926687259772601
 50
202.7607926837779928
 51
208.8362414004369896
  0
ARC
  5
322D7
  8
0
 10
7092.9509701595061415
 20
263.9623380514337896
 30
0.0
 40
0.5776993010649393
 50
208.8362414004369896
 51
213.1015139404692889
  0
ARC
  5
322D8
  8
0
 10
7092.0652574421001191
 20
262.9398040879431733
 30
0.0
 40
0.8132181406616901
 50
56.9743841203431884
 51
60.3927839568215177
  0
ARC
  5
322D9
  8
0
 10
7092.5982053844800248
 20
263.7804007204910022
 30
0.0
 40
0.1823751615243698
 50
240.5263836997997942
 51
258.1458249735596269
  0
ARC
  5
322DA
  8
0
 10
7092.6552841356588033
 20
264.0431331362581204
 30
0.0
 40
0.451233602915471
 50
257.9057666596772265
 51
269.2698447417287753
  0
LINE
  5
322DB
  8
0
 10
7092.5009388125763508
 20
263.626466659896721
 30
0.0
 11
7092.4949970950729039
 21
263.6821524110628729
 31
0.0
  0
ARC
  5
322DC
  8
0
 10
7092.3983457293779793
 20
263.6718396272888185
 30
0.0
 40
0.0972
 50
6.0904652025124708
 51
90.0
  0
LINE
  5
322DD
  8
0
 10
7092.5480998524726601
 20
263.6909630570388003
 30
0.0
 11
7092.6543841044722285
 21
263.6909630570388003
 31
0.0
  0
LINE
  5
322DE
  8
0
 10
7092.5283998524728304
 20
263.6119136668572764
 30
0.0
 11
7092.5283998524728304
 21
263.6712630570388001
 31
0.0
  0
ARC
  5
322DF
  8
0
 10
7092.5480998524726601
 20
263.6712630570388001
 30
0.0
 40
0.0197
 50
90.0
 51
179.9999999999593001
  0
LINE
  5
322E0
  8
0
 10
7092.6673344183427616
 20
263.6880863812388043
 30
0.0
 11
7092.733055477072412
 21
263.6880863812388043
 31
0.0
  0
LINE
  5
322E1
  8
0
 10
7092.6543841044722285
 20
263.6909630570388003
 30
0.0
 11
7092.6543841044722285
 21
263.6885462940803109
 31
0.0
  0
ARC
  5
322E2
  8
0
 10
7092.6952655599925492
 20
264.6571354824155833
 30
0.0
 40
0.9694515507056449
 50
267.5831390048695084
 51
268.3490066945611829
  0
LINE
  5
322E3
  8
0
 10
7092.6575994467102646
 20
263.685887317938807
 30
0.0
 11
7092.733055477072412
 21
263.685887317938807
 31
0.0
  0
LINE
  5
322E4
  8
0
 10
7092.6425730807723085
 20
263.685395842090827
 30
0.0
 11
7092.6425730807723085
 21
263.6837415387034866
 31
0.0
  0
LINE
  5
322E5
  8
0
 10
7092.6570373407730585
 20
263.6832759302387785
 30
0.0
 11
7102.19503767047172
 21
263.6832759302387785
 31
0.0
  0
ARC
  5
322E6
  8
0
 10
7092.6615409444775651
 20
263.3354265589802026
 30
0.0
 40
0.3504829225147648
 50
90.6443564948476705
 51
93.1023187621366333
  0
ARC
  5
322E7
  8
0
 10
7092.6653117279120124
 20
264.1652231201857717
 30
0.0
 40
0.4820182147806182
 50
267.2961349381270111
 51
269.016404913120482
  0
LINE
  5
322E8
  8
0
 10
7092.733055477072412
 20
263.6880863812388043
 30
0.0
 11
7092.7378823104727417
 21
263.6832759302387785
 31
0.0
  0
LINE
  5
322E9
  8
0
 10
7092.733055477072412
 20
263.685887317938807
 30
0.0
 11
7092.7356751992729187
 21
263.6832759302387785
 31
0.0
  0
LINE
  5
322EA
  8
0
 10
7092.733055477072412
 20
263.6880863812388043
 30
0.0
 11
7092.733055477072412
 21
263.685887317938807
 31
0.0
  0
LINE
  5
322EB
  8
0
 10
7093.9599828924274334
 20
263.6756235322387738
 30
0.0
 11
7100.8920921188182547
 21
263.6756235322387738
 31
0.0
  0
ARC
  5
322EC
  8
0
 10
7096.4012566686878927
 20
263.5950689620453886
 30
0.0
 40
2.461732131109553
 50
178.5720617839122042
 51
180.072914367833107
  0
LINE
  5
322ED
  8
0
 10
7093.9599346168943157
 20
263.6736550283388283
 30
0.0
 11
7100.8921403943495534
 21
263.6736550283388283
 31
0.0
  0
LINE
  5
322EE
  8
0
 10
7100.9314860799713642
 20
263.6736550283388283
 30
0.0
 11
7102.3039751587721184
 21
263.6736550283388283
 31
0.0
  0
ARC
  5
322EF
  8
0
 10
7093.9599828924274334
 20
263.6559235322387735
 30
0.0
 40
0.0197
 50
89.9999999999478888
 51
178.572061783973993
  0
ARC
  5
322F0
  8
0
 10
7093.9599346168943157
 20
263.653955028338828
 30
0.0
 40
0.0197
 50
90.0
 51
178.6182613725416104
  0
LINE
  5
322F1
  8
0
 10
7093.9221006398720419
 20
263.6812143083387809
 30
0.0
 11
7100.9299743713718271
 21
263.6812143083387809
 31
0.0
  0
LINE
  5
322F2
  8
0
 10
7093.9205889312734143
 20
263.6736550283388283
 30
0.0
 11
7092.5480998524726601
 21
263.6736550283388283
 31
0.0
  0
LINE
  5
322F3
  8
0
 10
7093.9205889312734143
 20
263.6736550283388283
 30
0.0
 11
7093.9221006398720419
 21
263.6812143083387809
 31
0.0
  0
LINE
  5
322F4
  8
0
 10
7093.9221006398720419
 20
263.6812143083387809
 30
0.0
 11
7093.9221006398720419
 21
263.6160940331373013
 31
0.0
  0
ARC
  5
322F5
  8
0
 10
7094.393735668665613
 20
263.5939310854246855
 30
0.0
 40
0.4735979681397658
 50
177.4986956136856975
 51
180.2413447932401027
  0
LINE
  5
322F6
  8
0
 10
7093.9205889312734143
 20
263.6145999102387805
 30
0.0
 11
7093.9221006398720419
 21
263.6160940331373013
 31
0.0
  0
LINE
  5
322F7
  8
0
 10
7093.9205889312734143
 20
263.6145999102387805
 30
0.0
 11
7093.9396020163449066
 21
263.6145999102387805
 31
0.0
  0
LINE
  5
322F8
  8
0
 10
7093.9221006398720419
 20
263.6160940331373013
 30
0.0
 11
7093.9396143242911421
 21
263.6160940331373013
 31
0.0
  0
ARC
  5
322F9
  8
0
 10
7097.87769433046833
 20
263.5893280227186892
 30
0.0
 40
3.958003813062891
 50
178.779195940549414
 51
179.9622446015551134
  0
ARC
  5
322FA
  8
0
 10
7092.5480998524726601
 20
263.653955028338828
 30
0.0
 40
0.0197
 50
90.0
 51
180.0
  0
LINE
  5
322FB
  8
0
 10
7091.9445805059513077
 20
263.434421044638782
 30
0.0
 11
7102.9074945052943804
 21
263.434421044638782
 31
0.0
  0
LINE
  5
322FC
  8
0
 10
7092.0906330356519902
 20
263.3965760959388263
 30
0.0
 11
7102.7614419755936979
 21
263.3965760959388263
 31
0.0
  0
LINE
  5
322FD
  8
0
 10
7090.0738981253716702
 20
260.7917652645386966
 30
0.0
 11
7090.0738981253716702
 21
252.5796910132368112
 31
0.0
  0
LINE
  5
322FE
  8
0
 10
7090.388091527072902
 20
261.0546054738330213
 30
0.0
 11
7090.388091527072902
 21
251.4229842755873108
 31
0.0
  0
ARC
  5
322FF
  8
0
 10
7093.8051223686488811
 20
260.819812024865314
 30
0.0
 40
3.4250879895212791
 50
151.9069307973693128
 51
176.0692302469213075
  0
ARC
  5
32300
  8
0
 10
7092.8849604504903255
 20
261.2926170456804016
 30
0.0
 40
2.3907446318603558
 50
134.0401181377193893
 51
151.5184909526394108
  0
ARC
  5
32301
  8
0
 10
7092.1574616946872993
 20
262.0449092046721944
 30
0.0
 40
1.3442275836589801
 50
110.3888532688833948
 51
134.0401181377193893
  0
ARC
  5
32302
  8
0
 10
7092.2366223160306618
 20
261.8319258918454011
 30
0.0
 40
1.571446190983131
 50
95.3305347442383351
 51
110.3888532688833948
  0
ARC
  5
32303
  8
0
 10
7094.197691190972364
 20
260.7917652645386966
 30
0.0
 40
4.1237930656001751
 50
160.8097363407264879
 51
180.0
  0
ARC
  5
32304
  8
0
 10
7092.1259272708475692
 20
261.5128350660511956
 30
0.0
 40
1.9301323353640909
 50
128.2419215357232076
 51
160.8097363407264879
  0
ARC
  5
32305
  8
0
 10
7092.1845313128706039
 20
261.366395488520709
 30
0.0
 40
2.0818996350686692
 50
96.6183738458331334
 51
127.0139605349367997
  0
ARC
  5
32306
  8
0
 10
7099.9662541573843555
 20
251.8344807958424099
 30
0.0
 40
9.5869979012656543
 50
182.4600255033288079
 51
196.3223515178964078
  0
ARC
  5
32307
  8
0
 10
7094.3674908033535758
 20
250.4907361965790074
 30
0.0
 40
3.846731531413587
 50
200.5547466160737997
 51
223.4057879926729981
  0
ARC
  5
32308
  8
0
 10
7094.4630315441718267
 20
250.564838198638796
 30
0.0
 40
3.9670799789999971
 50
223.2351261931491138
 51
259.0161354974828214
  0
ARC
  5
32309
  8
0
 10
7097.7038092899174444
 20
268.7201679698933958
 30
0.0
 40
22.4090153388540401
 50
259.7263652522623261
 51
269.2897698424566215
  0
ARC
  5
3230A
  8
0
 10
7110.3000533957547304
 20
252.5796910132368112
 30
0.0
 40
20.2261552703818204
 50
180.0
 51
187.5575189221904111
  0
ARC
  5
3230B
  8
0
 10
7094.298539057637754
 20
250.4567072618945076
 30
0.0
 40
4.0844229865962509
 50
187.5575189221904111
 51
213.3193569875776063
  0
ARC
  5
3230C
  8
0
 10
7094.4630315427220921
 20
250.5648381978442956
 30
0.0
 40
4.2812733789205186
 50
213.3193569875776063
 51
259.0161355148932785
  0
ARC
  5
3230D
  8
0
 10
7097.7343186768603118
 20
269.0374883557735188
 30
0.0
 40
23.0408699502767789
 50
259.7827613932946065
 51
269.2333736920259071
  0
ARC
  5
3230E
  8
0
 10
7112.607248853360943
 20
252.8332913743909955
 30
0.0
 40
22.6719528757516109
 50
181.9610167145692117
 51
187.4259843008987048
  0
ARC
  5
3230F
  8
0
 10
7094.2985390565454509
 20
250.456707261334202
 30
0.0
 40
4.2096533584057578
 50
187.5575189165977008
 51
213.3193569881902931
  0
ARC
  5
32310
  8
0
 10
7094.4630315445556334
 20
250.5648381992108114
 30
0.0
 40
4.40650375423452
 50
213.3193569881902931
 51
259.0161354937657165
  0
ARC
  5
32311
  8
0
 10
7097.803293568141271
 20
269.748757387824412
 30
0.0
 40
23.878380970326031
 50
259.9185935087376151
 51
269.0947426655473009
  0
LINE
  5
32312
  8
0
 10
7102.4411679546910818
 20
267.2055015972671868
 30
0.0
 11
7102.398002845045994
 21
264.7316899203669891
 31
0.0
  0
ARC
  5
32313
  8
0
 10
7102.2441979373061258
 20
267.2089384928387972
 30
0.0
 40
0.197
 50
359.000357352227411
 51
90.0
  0
ARC
  5
32314
  8
0
 10
7102.9904126689079931
 20
264.7213530643966806
 30
0.0
 40
0.5925000000000001
 50
179.0003573522257909
 51
240.1733603769702938
  0
ARC
  5
32315
  8
0
 10
7101.2545099668823241
 20
264.9256235321387862
 30
0.0
 40
1.240157480299968
 50
341.3819681090067206
 51
21.3858573226995183
  0
LINE
  5
32316
  8
0
 10
7104.9035009969411476
 20
252.0574681096381084
 30
0.0
 11
7104.9035009969411476
 21
260.9341781348124982
 31
0.0
  0
LINE
  5
32317
  8
0
 10
7102.9931370708527538
 20
263.7744491618262828
 30
0.0
 11
7102.8529830514953574
 21
263.7744491618262828
 31
0.0
  0
ARC
  5
32318
  8
0
 10
7102.9307699395503732
 20
262.2689139163550749
 30
0.0
 40
1.506826477874267
 50
48.8165845286193374
 51
87.6278659108938456
  0
ARC
  5
32319
  8
0
 10
7102.6173681136106097
 20
261.9107087415122805
 30
0.0
 40
1.9827798913363111
 50
29.8034436520147317
 51
48.8165845286182574
  0
ARC
  5
3231A
  8
0
 10
7100.9379571246163323
 20
260.8819701432767033
 30
0.0
 40
3.951799606569856
 50
14.7602007260747907
 51
30.6438443433406711
  0
ARC
  5
3231B
  8
0
 10
7100.4838196442779008
 20
260.7549689549597929
 30
0.0
 40
4.4233131461874242
 50
2.3219565121332368
 51
14.85226843258725
  0
ARC
  5
3231C
  8
0
 10
7100.7603319802437909
 20
260.8364800392859024
 30
0.0
 40
3.8869530017073362
 50
47.5995244090943217
 51
60.1376362767043986
  0
LINE
  5
3231D
  8
0
 10
7102.8143165677020079
 20
263.5000918229366107
 30
0.0
 11
7102.8315321464797307
 21
263.7544012892303726
 31
0.0
  0
ARC
  5
3231E
  8
0
 10
7102.8082089515828557
 20
263.5021995291626808
 30
0.0
 40
0.0064610680382257
 50
295.8260251864165866
 51
340.9607147076226852
  0
ARC
  5
3231F
  8
0
 10
7102.796925338658184
 20
263.5232581850019073
 30
0.0
 40
0.0303479114252511
 50
280.8819771736335724
 51
297.6815085633016906
  0
ARC
  5
32320
  8
0
 10
7102.7848572403063372
 20
263.580704828669127
 30
0.0
 40
0.0890455347388592
 50
272.1791197510189022
 51
281.5292552077768278
  0
ARC
  5
32321
  8
0
 10
7102.7822286431182874
 20
263.6131596715654837
 30
0.0
 40
0.1215848324384474
 50
268.8803168189022017
 51
272.8354056914523085
  0
ARC
  5
32322
  8
0
 10
7102.8036522371476167
 20
264.2491899196140253
 30
0.0
 40
0.7579655985539638
 50
267.0814956506271756
 51
268.2006656841336962
  0
ARC
  5
32323
  8
0
 10
7102.6831144491698069
 20
261.5975790485837251
 30
0.0
 40
1.896399688855124
 50
87.5234126558427761
 51
89.9900118103990394
  0
ARC
  5
32324
  8
0
 10
7102.8529830514953574
 20
263.7529491618262227
 30
0.0
 40
0.0215
 50
90.0
 51
176.1272484285302085
  0
LINE
  5
32325
  8
0
 10
7102.7524755467611612
 20
263.7690396272888051
 30
0.0
 11
7102.4537292818658898
 21
263.7690396272888051
 31
0.0
  0
ARC
  5
32326
  8
0
 10
7097.2684850839150386
 20
263.4704263929107242
 30
0.0
 40
5.5310378846689661
 50
0.2324694052923477
 51
2.6895211547382178
  0
ARC
  5
32327
  8
0
 10
7102.7524755467611612
 20
263.7280396272888083
 30
0.0
 40
0.041
 50
2.6895211547170721
 51
90.0
  0
ARC
  5
32328
  8
0
 10
7101.6251910747878355
 20
264.1142502837209918
 30
0.0
 40
0.8926687259772601
 50
331.163758599562982
 51
337.2392073162221209
  0
ARC
  5
32329
  8
0
 10
7101.9011048517377276
 20
263.9623380514337896
 30
0.0
 40
0.5776993010649393
 50
326.8984860595307964
 51
331.163758599562982
  0
ARC
  5
3232A
  8
0
 10
7102.7868175691446595
 20
262.9398040879431733
 30
0.0
 40
0.8132181406616901
 50
119.6072160431784965
 51
123.0256158796567973
  0
ARC
  5
3232B
  8
0
 10
7102.2538696267638443
 20
263.7804007204910022
 30
0.0
 40
0.1823751615243698
 50
281.8541750264404868
 51
299.4736163002002058
  0
ARC
  5
3232C
  8
0
 10
7102.1967908755850658
 20
264.0431331362581204
 30
0.0
 40
0.451233602915471
 50
270.7301552582712247
 51
282.0942333403227735
  0
LINE
  5
3232D
  8
0
 10
7102.3511361986693373
 20
263.626466659896721
 30
0.0
 11
7102.3570779161709652
 21
263.6821524110628729
 31
0.0
  0
ARC
  5
3232E
  8
0
 10
7102.4537292818658898
 20
263.6718396272888185
 30
0.0
 40
0.0972
 50
90.0
 51
173.9095347974875096
  0
LINE
  5
3232F
  8
0
 10
7102.3039751587721184
 20
263.6909630570388003
 30
0.0
 11
7102.1976909067725501
 21
263.6909630570388003
 31
0.0
  0
LINE
  5
32330
  8
0
 10
7102.3236751587728577
 20
263.6119136668572764
 30
0.0
 11
7102.3236751587728577
 21
263.6712630570388001
 31
0.0
  0
ARC
  5
32331
  8
0
 10
7102.3039751587721184
 20
263.6712630570388001
 30
0.0
 40
0.0197
 50
0.0000000000407111
 51
90.0
  0
LINE
  5
32332
  8
0
 10
7102.1847405929020169
 20
263.6880863812388043
 30
0.0
 11
7102.119019534173276
 21
263.6880863812388043
 31
0.0
  0
LINE
  5
32333
  8
0
 10
7102.1976909067725501
 20
263.6909630570388003
 30
0.0
 11
7102.1976909067725501
 21
263.6885462940803109
 31
0.0
  0
ARC
  5
32334
  8
0
 10
7102.1568094512513198
 20
264.6571354824155833
 30
0.0
 40
0.9694515507056449
 50
271.6509933054388171
 51
272.4168609951304916
  0
LINE
  5
32335
  8
0
 10
7102.1944755645354235
 20
263.685887317938807
 30
0.0
 11
7102.119019534173276
 21
263.685887317938807
 31
0.0
  0
LINE
  5
32336
  8
0
 10
7102.2095019304733796
 20
263.685395842090827
 30
0.0
 11
7102.2095019304733796
 21
263.6837415387034866
 31
0.0
  0
ARC
  5
32337
  8
0
 10
7102.1905340667672135
 20
263.3354265589802026
 30
0.0
 40
0.3504829225147648
 50
86.8976812378633383
 51
89.3556435051523437
  0
ARC
  5
32338
  8
0
 10
7102.1867632833327662
 20
264.1652231201857717
 30
0.0
 40
0.4820182147806182
 50
270.983595086879518
 51
272.7038650618729889
  0
LINE
  5
32339
  8
0
 10
7102.119019534173276
 20
263.6880863812388043
 30
0.0
 11
7102.1141927007720369
 21
263.6832759302387785
 31
0.0
  0
LINE
  5
3233A
  8
0
 10
7102.119019534173276
 20
263.685887317938807
 30
0.0
 11
7102.1163998119727694
 21
263.6832759302387785
 31
0.0
  0
LINE
  5
3233B
  8
0
 10
7102.119019534173276
 20
263.6880863812388043
 30
0.0
 11
7102.119019534173276
 21
263.685887317938807
 31
0.0
  0
ARC
  5
3233C
  8
0
 10
7098.4508183425568859
 20
263.5950689620453886
 30
0.0
 40
2.461732131109553
 50
359.9270856321667793
 51
1.4279382160878431
  0
ARC
  5
3233D
  8
0
 10
7100.8920921188182547
 20
263.6559235322387735
 30
0.0
 40
0.0197
 50
1.4279382160259819
 51
90.0000000000521254
  0
ARC
  5
3233E
  8
0
 10
7100.8921403943495534
 20
263.653955028338828
 30
0.0
 40
0.0197
 50
1.381738627458392
 51
90.0
  0
LINE
  5
3233F
  8
0
 10
7100.9314860799713642
 20
263.6736550283388283
 30
0.0
 11
7100.9299743713718271
 21
263.6812143083387809
 31
0.0
  0
LINE
  5
32340
  8
0
 10
7100.9299743713718271
 20
263.6812143083387809
 30
0.0
 11
7100.9299743713718271
 21
263.6160940331373013
 31
0.0
  0
ARC
  5
32341
  8
0
 10
7100.4583393425791655
 20
263.5939310854246855
 30
0.0
 40
0.4735979681397658
 50
359.7586552067598973
 51
2.5013043863142528
  0
LINE
  5
32342
  8
0
 10
7100.9314860799713642
 20
263.6145999102387805
 30
0.0
 11
7100.9299743713718271
 21
263.6160940331373013
 31
0.0
  0
LINE
  5
32343
  8
0
 10
7100.9314860799713642
 20
263.6145999102387805
 30
0.0
 11
7100.9124729948989625
 21
263.6145999102387805
 31
0.0
  0
LINE
  5
32344
  8
0
 10
7100.9299743713718271
 20
263.6160940331373013
 30
0.0
 11
7100.912460686952727
 21
263.6160940331373013
 31
0.0
  0
ARC
  5
32345
  8
0
 10
7096.9743806807773581
 20
263.5893280227186892
 30
0.0
 40
3.958003813062891
 50
0.0377553984448929
 51
1.22080405945059
  0
ARC
  5
32346
  8
0
 10
7102.3039751587721184
 20
263.653955028338828
 30
0.0
 40
0.0197
 50
0.0
 51
90.0
  0
LINE
  5
32347
  8
0
 10
7104.7781768858721989
 20
260.7917652645386966
 30
0.0
 11
7104.7781768858721989
 21
252.5796910132368112
 31
0.0
  0
LINE
  5
32348
  8
0
 10
7104.4639834841727861
 20
261.0546054738330213
 30
0.0
 11
7104.4639834841727861
 21
251.4229842755873108
 31
0.0
  0
ARC
  5
32349
  8
0
 10
7101.0469526425958975
 20
260.819812024865314
 30
0.0
 40
3.4250879895212791
 50
3.9307697530787191
 51
28.0930692026306801
  0
ARC
  5
3234A
  8
0
 10
7101.9671145607544531
 20
261.2926170456804016
 30
0.0
 40
2.3907446318603558
 50
28.4815090473605501
 51
45.9598818622805609
  0
ARC
  5
3234B
  8
0
 10
7102.6946133165583888
 20
262.0449092046721944
 30
0.0
 40
1.3442275836589801
 50
45.9598818622805609
 51
69.6111467311165484
  0
ARC
  5
3234C
  8
0
 10
7102.6154526952141168
 20
261.8319258918454011
 30
0.0
 40
1.571446190983131
 50
69.6111467311165484
 51
84.6694652557616649
  0
ARC
  5
3234D
  8
0
 10
7100.6543838202733241
 20
260.7917652645386966
 30
0.0
 40
4.1237930656001751
 50
0.0
 51
19.1902636592735192
  0
ARC
  5
3234E
  8
0
 10
7102.7261477403972094
 20
261.5128350660511956
 30
0.0
 40
1.9301323353640909
 50
19.1902636592735192
 51
51.7580784642767284
  0
ARC
  5
3234F
  8
0
 10
7102.6675436983732652
 20
261.366395488520709
 30
0.0
 40
2.0818996350686692
 50
52.9860394650632003
 51
83.3816261541668524
  0
ARC
  5
32350
  8
0
 10
7094.8858208538604231
 20
251.8344807958424099
 30
0.0
 40
9.5869979012656543
 50
343.6776484821036206
 51
357.5399744966712205
  0
ARC
  5
32351
  8
0
 10
7100.4845842078902933
 20
250.4907361965790074
 30
0.0
 40
3.846731531413587
 50
316.5942120073269734
 51
339.4452533839261719
  0
ARC
  5
32352
  8
0
 10
7100.3890434670720424
 20
250.564838198638796
 30
0.0
 40
3.9670799789999971
 50
280.9838645025171786
 51
316.7648738068510283
  0
ARC
  5
32353
  8
0
 10
7097.1482657213273342
 20
268.7201679698933958
 30
0.0
 40
22.4090153388540401
 50
270.7102301575433785
 51
280.2736347477376739
  0
ARC
  5
32354
  8
0
 10
7084.5520216154909576
 20
252.5796910132368112
 30
0.0
 40
20.2261552703818204
 50
352.4424810778095889
 51
0.0
  0
ARC
  5
32355
  8
0
 10
7100.5535359536070246
 20
250.4567072618945076
 30
0.0
 40
4.0844229865962509
 50
326.6806430124224221
 51
352.4424810778095889
  0
ARC
  5
32356
  8
0
 10
7100.3890434685226865
 20
250.5648381978442956
 30
0.0
 40
4.2812733789205186
 50
280.9838644851067215
 51
326.6806430124224221
  0
ARC
  5
32357
  8
0
 10
7097.1177563343835573
 20
269.0374883557735188
 30
0.0
 40
23.0408699502767789
 50
270.7666263079740929
 51
280.2172386067053935
  0
ARC
  5
32358
  8
0
 10
7082.2448261578838355
 20
252.8332913743909955
 30
0.0
 40
22.6719528757516109
 50
352.5740156990996752
 51
358.0389832854307883
  0
ARC
  5
32359
  8
0
 10
7100.5535359546993277
 20
250.456707261334202
 30
0.0
 40
4.2096533584057578
 50
326.6806430118098206
 51
352.4424810834021855
  0
ARC
  5
3235A
  8
0
 10
7100.3890434666900546
 20
250.5648381992108114
 30
0.0
 40
4.40650375423452
 50
280.9838645062342835
 51
326.6806430118098206
  0
ARC
  5
3235B
  8
0
 10
7097.0487814431053266
 20
269.7487573878239004
 30
0.0
 40
23.8783809703255692
 50
270.9052573344526991
 51
280.0814064912623849
  0
ENDSEC
  0
EOF
