  0
SECTION
  2
HEADER
  9
$ACADVER
  1
AC1009
  9
$INSBASE
 10
3485.3772112848828328
 20
185.0565984758954983
 30
0.0
  9
$EXTMIN
 10
3477.7660566611862123
 20
167.1502625419090009
 30
-0.0015258207003583
  9
$EXTMAX
 10
3492.9555967359438
 20
185.0673878834514881
 30
0.0000000349246037
  9
$LIMMIN
 10
0.0
 20
0.0
  9
$LIMMAX
 10
11.6929133858000007
 20
8.2677165353999982
  9
$ORTHOMODE
 70
     0
  9
$REGENMODE
 70
     1
  9
$FILLMODE
 70
     1
  9
$QTEXTMODE
 70
     0
  9
$MIRRTEXT
 70
     0
  9
$DRAGMODE
 70
     2
  9
$LTSCALE
 40
0.6431102362
  9
$OSMODE
 70
  4095
  9
$ATTMODE
 70
     1
  9
$TEXTSIZE
 40
0.2
  9
$TRACEWID
 40
0.05
  9
$TEXTSTYLE
  7
STANDARD
  9
$CLAYER
  8
0
  9
$CELTYPE
  6
BYLAYER
  9
$CECOLOR
 62
   256
  9
$DIMSCALE
 40
1.0
  9
$DIMASZ
 40
0.1875
  9
$DIMEXO
 40
0.0625
  9
$DIMDLI
 40
0.4443307087
  9
$DIMRND
 40
0.0
  9
$DIMDLE
 40
0.0
  9
$DIMEXE
 40
0.125
  9
$DIMTP
 40
0.01
  9
$DIMTM
 40
0.01
  9
$DIMTXT
 40
2.0
  9
$DIMCEN
 40
0.1052362205
  9
$DIMTSZ
 40
0.0
  9
$DIMTOL
 70
     1
  9
$DIMLIM
 70
     0
  9
$DIMTIH
 70
     1
  9
$DIMTOH
 70
     1
  9
$DIMSE1
 70
     0
  9
$DIMSE2
 70
     0
  9
$DIMTAD
 70
     0
  9
$DIMZIN
 70
     0
  9
$DIMBLK
  1

  9
$DIMASO
 70
     1
  9
$DIMSHO
 70
     1
  9
$DIMPOST
  1
\X
  9
$DIMAPOST
  1

  9
$DIMALT
 70
     1
  9
$DIMALTD
 70
     2
  9
$DIMALTF
 40
25.3999999999999986
  9
$DIMLFAC
 40
1.0
  9
$DIMTOFL
 70
     0
  9
$DIMTVP
 40
0.0
  9
$DIMTIX
 70
     0
  9
$DIMSOXD
 70
     0
  9
$DIMSAH
 70
     0
  9
$DIMBLK1
  1

  9
$DIMBLK2
  1

  9
$DIMSTYLE
  2
STANDARD
  9
$DIMCLRD
 70
     0
  9
$DIMCLRE
 70
     0
  9
$DIMCLRT
 70
     0
  9
$DIMTFAC
 40
1.0
  9
$DIMGAP
 40
0.09
  9
$LUNITS
 70
     2
  9
$LUPREC
 70
     4
  9
$SKETCHINC
 40
0.1
  9
$FILLETRAD
 40
0.0
  9
$AUNITS
 70
     0
  9
$AUPREC
 70
     0
  9
$MENU
  1
.
  9
$ELEVATION
 40
0.0
  9
$PELEVATION
 40
0.0
  9
$THICKNESS
 40
0.0
  9
$LIMCHECK
 70
     0
  9
$BLIPMODE
 70
     0
  9
$CHAMFERA
 40
0.0
  9
$CHAMFERB
 40
0.0
  9
$SKPOLY
 70
     0
  9
$TDCREATE
 40
2458060.468368056230247
  9
$TDUPDATE
 40
2459094.5280324080958962
  9
$TDINDWG
 40
0.564358912
  9
$TDUSRTIMER
 40
0.564358912
  9
$USRTIMER
 70
     1
  9
$ANGBASE
 50
0.0
  9
$ANGDIR
 70
     0
  9
$PDMODE
 70
     0
  9
$PDSIZE
 40
0.3125
  9
$PLINEWID
 40
0.0
  9
$COORDS
 70
     1
  9
$SPLFRAME
 70
     0
  9
$SPLINETYPE
 70
     6
  9
$SPLINESEGS
 70
     8
  9
$ATTDIA
 70
     1
  9
$ATTREQ
 70
     1
  9
$HANDLING
 70
     1
  9
$HANDSEED
  5
11A9E
  9
$SURFTAB1
 70
     6
  9
$SURFTAB2
 70
     6
  9
$SURFTYPE
 70
     6
  9
$SURFU
 70
     6
  9
$SURFV
 70
     6
  9
$UCSNAME
  2

  9
$UCSORG
 10
0.0
 20
0.0
 30
0.0
  9
$UCSXDIR
 10
1.0
 20
0.0
 30
0.0
  9
$UCSYDIR
 10
0.0
 20
1.0
 30
0.0
  9
$PUCSNAME
  2

  9
$PUCSORG
 10
0.0
 20
0.0
 30
0.0
  9
$PUCSXDIR
 10
1.0
 20
0.0
 30
0.0
  9
$PUCSYDIR
 10
0.0
 20
1.0
 30
0.0
  9
$USERI1
 70
     0
  9
$USERI2
 70
     0
  9
$USERI3
 70
     0
  9
$USERI4
 70
     0
  9
$USERI5
 70
     0
  9
$USERR1
 40
0.0
  9
$USERR2
 40
0.0
  9
$USERR3
 40
0.0
  9
$USERR4
 40
0.0
  9
$USERR5
 40
0.0
  9
$WORLDVIEW
 70
     1
  9
$SHADEDGE
 70
     3
  9
$SHADEDIF
 70
    70
  9
$TILEMODE
 70
     1
  9
$MAXACTVP
 70
    64
  9
$PLIMCHECK
 70
     0
  9
$PEXTMIN
 10
1.0000000000000000E+20
 20
1.0000000000000000E+20
 30
1.0000000000000000E+20
  9
$PEXTMAX
 10
-1.0000000000000000E+20
 20
-1.0000000000000000E+20
 30
-1.0000000000000000E+20
  9
$PLIMMIN
 10
0.0
 20
0.0
  9
$PLIMMAX
 10
12.0
 20
9.0
  9
$UNITMODE
 70
     0
  9
$VISRETAIN
 70
     1
  9
$PLINEGEN
 70
     0
  9
$PSLTSCALE
 70
     1
  0
ENDSEC
  0
SECTION
  2
TABLES
  0
TABLE
  2
VPORT
 70
     1
  0
VPORT
  2
*ACTIVE
 70
     0
 10
0.0
 20
0.0
 11
1.0
 21
1.0
 12
181.6677114641898072
 22
-19.1526863632074615
 13
0.0
 23
0.0
 14
1.0
 24
1.0
 15
0.0
 25
0.0
 16
0.0
 26
0.0
 36
96.5995694866707311
 17
3303.693115234375
 27
195.2615115758877096
 37
0.0
 40
18.0778170486415206
 41
2.8398203592814371
 42
50.0
 43
0.0
 44
0.0
 50
0.0
 51
0.0
 71
     0
 72
   100
 73
     1
 74
     1
 75
     0
 76
     0
 77
     0
 78
     0
  0
ENDTAB
  0
TABLE
  2
LTYPE
 70
     2
  0
LTYPE
  2
CONTINUOUS
 70
     0
  3
Solid line
 72
    65
 73
     0
 40
0.0
  0
LTYPE
  2
PHANTOM2
 70
     0
  3
___ _ _ ___ _ _ ___ _ _ ___ _ _
 72
    65
 73
     6
 40
1.25
 49
0.625
 49
-0.125
 49
0.125
 49
-0.125
 49
0.125
 49
-0.125
  0
ENDTAB
  0
TABLE
  2
LAYER
 70
     2
  0
LAYER
  2
0
 70
     0
 62
   255
  6
CONTINUOUS
  0
LAYER
  2
DEFPOINTS
 70
     0
 62
     7
  6
CONTINUOUS
  0
ENDTAB
  0
TABLE
  2
STYLE
 70
     1
  0
STYLE
  2
STANDARD
 70
     0
 40
0.0
 41
0.8
 50
0.0
 71
     0
 42
0.2
  3
txt
  4

  0
ENDTAB
  0
TABLE
  2
VIEW
 70
     0
  0
ENDTAB
  0
TABLE
  2
UCS
 70
     0
  0
ENDTAB
  0
TABLE
  2
APPID
 70
     9
  0
APPID
  2
ACAD
 70
     0
  0
APPID
  2
ACAD_MLEADERVER
 70
     0
  0
APPID
  2
ACAD_EXEMPT_FROM_CAD_STANDARDS
 70
     0
  0
APPID
  2
ACAD_NAV_VCDISPLAY
 70
     0
  0
APPID
  2
ACAECLAYERSTANDARD
 70
     0
  0
APPID
  2
ACCMTRANSPARENCY
 70
     0
  0
APPID
  2
ACAD_DSTYLE_DIMJAG
 70
     0
  0
APPID
  2
ACAD_DSTYLE_DIMTALN
 70
     0
  0
APPID
  2
ACDBATTR
 70
     0
  0
ENDTAB
  0
TABLE
  2
DIMSTYLE
 70
     1
  0
DIMSTYLE
  2
STANDARD
 70
     0
  3

  4

  5

  6

  7

 40
1.0
 41
0.1875
 42
0.0625
 43
0.38
 44
0.125
 45
0.0
 46
0.0
 47
0.01
 48
0.01
140
0.15625
141
0.09
142
0.0
143
25.3999999999999986
144
1.0
145
0.0
146
1.0
147
0.09
 71
     1
 72
     0
 73
     1
 74
     1
 75
     0
 76
     0
 77
     0
 78
     4
170
     0
171
     2
172
     0
173
     0
174
     0
175
     0
176
     0
177
     0
178
     0
  0
ENDTAB
  0
ENDSEC
  0
SECTION
  2
BLOCKS
  0
BLOCK
  8
0
  2
$MODEL_SPACE
 70
     0
 10
0.0
 20
0.0
 30
0.0
  3
$MODEL_SPACE
  1

  0
ENDBLK
  5
21
  8
0
  0
BLOCK
 67
     1
  8
0
  2
$PAPER_SPACE
 70
     0
 10
0.0
 20
0.0
 30
0.0
  3
$PAPER_SPACE
  1

  0
ENDBLK
  5
1D
 67
     1
  8
0
  0
BLOCK
  8
0
  2
_FILLED
 70
     0
 10
0.0
 20
0.0
 30
0.0
  3
_FILLED
  1

  0
SOLID
  5
9E2C
  8
0
  6
BYBLOCK
 62
     0
 10
0.0
 20
0.0
 30
0.0
 11
-1.0
 21
0.1666666667
 31
0.0
 12
-1.0
 22
-0.1666666667
 32
0.0
 13
-1.0
 23
-0.1666666667
 33
0.0
  0
ENDBLK
  5
9E2D
  8
0
  6
BYBLOCK
 62
     0
  0
BLOCK
  8
0
  2
A$C6B0F1CD5
 70
     2
 10
0.0
 20
0.0
 30
0.0
  3
A$C6B0F1CD5
  1

  0
ATTDEF
  5
B779
  8
DEFPOINTS
 10
0.0005209962714616
 20
0.000347009907216
 30
0.0
 40
0.001
  1
BATH FAUCET
  3

  2
PRODUCT
 70
     0
1001
ACDBATTR
1070
     0
1070
     1
  0
ATTDEF
  5
B77A
  8
DEFPOINTS
 10
0.0005209962714616
 20
0.0020136765738812
 30
0.0
 40
0.001
  1
SINGULIER
  3

  2
TRADENAME
 70
     0
1001
ACDBATTR
1070
     0
1070
     1
  0
ATTDEF
  5
B77B
  8
DEFPOINTS
 10
0.0005209962714616
 20
0.0036803432405463
 30
0.0
 40
0.001
  1
K-10873W
  3

  2
MODELNUMBER
 70
     0
1001
ACDBATTR
1070
     0
1070
     1
  0
ENDBLK
  5
B77F
  8
0
  0
ENDSEC
  0
SECTION
  2
ENTITIES
  0
ATTDEF
  5
10FC7
  8
DEFPOINTS
 10
3485.3747790309348602
 20
185.0607398164617052
 30
0.0
 40
0.001
  1
K-6091IN
  3

  2
MODELNUMBER
 70
     0
1001
ACDBATTR
1070
     0
1070
     1
  0
ATTDEF
  5
10FC8
  8
DEFPOINTS
 10
3485.3747790309348602
 20
185.0590731497950117
 30
0.0
 40
0.001
  1
REPLAY
  3

  2
TRADENAME
 70
     0
1001
ACDBATTR
1070
     0
1070
     1
  0
ATTDEF
  5
10FC9
  8
DEFPOINTS
 10
3485.3747790309348602
 20
185.0574064831284034
 30
0.0
 40
0.001
  1
TOILET SEAT
  3

  2
PRODUCT
 70
     0
1001
ACDBATTR
1070
     0
1070
     1
  0
ARC
  5
1161A
  8
0
 10
3485.3793598466841104
 20
187.1356305688989892
 30
0.0
 40
19.9801266029282409
 50
259.0222965382769189
 51
269.9938387015372996
  0
ARC
  5
1161B
  8
0
 10
3482.4135260588118399
 20
171.8459745115463875
 30
0.0
 40
4.4054756466652538
 50
213.3131976474622036
 51
259.0222965382769189
  0
ARC
  5
1161C
  8
0
 10
3482.2508089116458905
 20
171.7390356626578978
 30
0.0
 40
4.2107635839077613
 50
187.5579703394080013
 51
213.3131976474622036
  0
ARC
  5
1161D
  8
0
 10
3498.2597473378082213
 20
173.8631327471291002
 30
0.0
 40
20.3600018927849504
 50
180.0036365330728074
 51
187.5579703394080013
  0
LINE
  5
1161E
  8
0
 10
3477.8997454860318612
 20
173.8618405084887968
 30
0.0
 11
3477.8992242699869166
 21
182.0739147432481957
 31
0.0
  0
ARC
  5
1161F
  8
0
 10
3482.1012941231110744
 20
182.0741814464180948
 30
0.0
 40
4.2020698615876206
 50
151.5876588820586903
 51
180.0036365330728074
  0
ARC
  5
11620
  8
0
 10
3480.1673080135401506
 20
183.193116315093306
 30
0.0
 40
1.96967342401115
 50
130.3795147050288961
 51
153.4478701555725877
  0
ARC
  5
11621
  8
0
 10
3479.8674607758412094
 20
183.5625631561098032
 30
0.0
 40
1.494024587406851
 50
90.2149973587194154
 51
130.7987071438612077
  0
LINE
  5
11622
  8
0
 10
3479.861854593517819
 20
185.0565772251520116
 30
0.0
 11
3479.9496510529320403
 21
185.0565985947887953
 31
0.0
  0
ARC
  5
11623
  8
0
 10
3479.9496562904860184
 20
185.0350802753939092
 30
0.0
 40
0.0215183200323454
 50
45.0737178635662374
 51
90.0139457784783161
  0
ARC
  5
11624
  8
0
 10
3479.9476252912418204
 20
185.0338227740263903
 30
0.0
 40
0.0238492767798123
 50
10.9786232309889105
 51
43.7524258551975009
  0
LINE
  5
11625
  8
0
 10
3479.9720211300318624
 20
185.0317813535887979
 30
0.0
 11
3479.9889635380318396
 21
184.7827066757888019
 31
0.0
  0
ARC
  5
11626
  8
0
 10
3479.9944980811260393
 20
184.7837276704129863
 30
0.0
 40
0.0056279301057228
 50
190.4522285441869087
 51
244.8037451294088953
  0
ARC
  5
11627
  8
0
 10
3480.0075755863508675
 20
184.8077817006002874
 30
0.0
 40
0.0329991648399164
 50
242.0368471611614041
 51
263.2256533570815122
  0
ARC
  5
11628
  8
0
 10
3480.0232731602282001
 20
184.9235437624872986
 30
0.0
 40
0.1498171684097537
 50
262.4864719304396772
 51
274.8045418465716239
  0
ARC
  5
11629
  8
0
 10
3480.1201433276319221
 20
182.8793393530905007
 30
0.0
 40
1.8967888628983609
 50
90.0006319977863996
 51
92.5479298170019575
  0
LINE
  5
1162A
  8
0
 10
3480.1201224052119869
 20
184.7761282158733991
 30
0.0
 11
3490.6344845405851629
 21
184.7761282048786029
 31
0.0
  0
LINE
  5
1162B
  8
0
 10
3480.0036576022489498
 20
184.77501595200971
 30
0.0
 11
3480.0077216492318257
 21
184.9706921446887975
 31
0.0
  0
ARC
  5
1162C
  8
0
 10
3480.3940003373350009
 20
184.9626694275885086
 30
0.0
 40
0.3863619920124934
 50
171.4005961430293894
 51
178.8101809212157036
  0
ARC
  5
1162D
  8
0
 10
3480.0509044040168192
 20
185.0109420442423982
 30
0.0
 40
0.0400647048131985
 50
89.8663051630041849
 51
166.2862642481304079
  0
LINE
  5
1162E
  8
0
 10
3480.0509978915188185
 20
185.0510066399828872
 30
0.0
 11
3480.3478320520321176
 21
185.0512221026887971
 31
0.0
  0
ARC
  5
1162F
  8
0
 10
3480.3482669280001573
 20
184.9528516729155001
 30
0.0
 40
0.098371391018463
 50
30.5398270002957197
 51
90.2532915156475042
  0
ARC
  5
11630
  8
0
 10
3480.1755496499049514
 20
184.9008120773779922
 30
0.0
 40
0.2769219152686845
 50
1.546981476081309
 51
21.6186935434069589
  0
ARC
  5
11631
  8
0
 10
3480.648981629130958
 20
185.2499784454500116
 30
0.0
 40
0.3942184896667876
 50
240.0835832476880967
 51
244.5494724244240103
  0
ARC
  5
11632
  8
0
 10
3480.5493779095459104
 20
185.0666302902577911
 30
0.0
 40
0.1861941764376642
 50
247.9817935281942027
 51
254.3846396076403096
  0
ARC
  5
11633
  8
0
 10
3480.60679082516981
 20
185.3149411506269075
 30
0.0
 40
0.4409454766180931
 50
255.8850802381903122
 51
270.7501122768643995
  0
LINE
  5
11634
  8
0
 10
3480.6125634871318653
 20
184.8740334621888053
 30
0.0
 11
3490.1844751798930702
 21
184.8755376064613074
 31
0.0
  0
LINE
  5
11635
  8
0
 10
3480.4795734895319583
 20
184.8940162285888107
 30
0.0
 11
3480.4795734895319583
 21
184.9534332093888054
 31
0.0
  0
ARC
  5
11636
  8
0
 10
3480.4992528336370015
 20
184.9534332093888054
 30
0.0
 40
0.0196793441049956
 50
89.9807994654025123
 51
180.0
  0
LINE
  5
11637
  8
0
 10
3480.4992594284321967
 20
184.9731125523888124
 30
0.0
 11
3480.6055577355641617
 21
184.9730769304910041
 31
0.0
  0
LINE
  5
11638
  8
0
 10
3480.6055577355641617
 20
184.9730769304910041
 30
0.0
 11
3480.6055577416318556
 21
184.9707856389887866
 31
0.0
  0
ARC
  5
11639
  8
0
 10
3480.6055786506271943
 20
184.9707899044857129
 30
0.0
 40
0.0000213396467086
 50
191.530293518832508
 51
244.4718881640093002
  0
ARC
  5
1163A
  8
0
 10
3480.6059941463040559
 20
184.9720501544074125
 30
0.0
 40
0.0013481467427068
 50
251.6380283763951979
 51
265.5310574465535183
  0
ARC
  5
1163B
  8
0
 10
3480.6126626124560062
 20
185.0642341343057922
 30
0.0
 40
0.0937729836692862
 50
265.8577415698294999
 51
269.0463160307662065
  0
ARC
  5
1163C
  8
0
 10
3480.6343829687589277
 20
186.1130954644251005
 30
0.0
 40
1.1428584781377871
 50
268.8327490173875276
 51
270.0278035751840093
  0
LINE
  5
1163D
  8
0
 10
3480.6349375567351672
 20
184.9702371208481111
 30
0.0
 11
3480.6842291141319947
 21
184.9702358764888004
 31
0.0
  0
LINE
  5
1163E
  8
0
 10
3480.6842291141319947
 20
184.9702358764888004
 30
0.0
 11
3480.6890559475318696
 21
184.9654254254888031
 31
0.0
  0
LINE
  5
1163F
  8
0
 10
3480.625243980632149
 20
184.9654254254888031
 30
0.0
 11
3490.1291893768120644
 21
184.9654254254888031
 31
0.0
  0
LINE
  5
11640
  8
0
 10
3479.9889635380318396
 20
184.7827066757888019
 30
0.0
 11
3479.9491625835689774
 21
185.0565984758954983
 31
0.0
  0
ARC
  5
11641
  8
0
 10
3479.8893722831389823
 20
185.0228050488298095
 30
0.0
 40
0.0831348659697871
 50
6.1984698689320732
 51
10.7871791708235598
  0
LINE
  5
11642
  8
0
 10
3480.6842291141319947
 20
184.9702358764888004
 30
0.0
 11
3480.6842291141319947
 21
184.9680368131888031
 31
0.0
  0
LINE
  5
11643
  8
0
 10
3480.6842291141319947
 20
184.9680368131888031
 30
0.0
 11
3480.6252367844890614
 21
184.9680368132096078
 31
0.0
  0
ARC
  5
11644
  8
0
 10
3480.625236784173012
 20
184.0658669475475051
 30
0.0
 40
0.9021698656620849
 50
89.9999999798594104
 51
92.0003045192342768
  0
ARC
  5
11645
  8
0
 10
3480.5937731213712141
 20
184.9667310879696913
 30
0.0
 40
0.0007564413248028
 50
92.0003045192342768
 51
267.9996954807656948
  0
ARC
  5
11646
  8
0
 10
3480.6252331929517823
 20
185.8674924049853985
 30
0.0
 40
0.9020669795611208
 50
267.9996954807656948
 51
270.0006851913655055
  0
ARC
  5
11647
  8
0
 10
3481.893023454852937
 20
184.9527556833436961
 30
0.0
 40
0.021478378023511
 50
171.8393417217521062
 51
181.8113957605181099
  0
LINE
  5
11648
  8
0
 10
3481.87155580972194
 20
184.9520767613967962
 30
0.0
 11
3481.8708349283829193
 21
184.8742311888125016
 31
0.0
  0
LINE
  5
11649
  8
0
 10
3481.8717625683320875
 20
184.955804523588796
 30
0.0
 11
3481.8732742769320794
 21
184.963363803688793
 31
0.0
  0
LINE
  5
1164A
  8
0
 10
3481.8732742769320794
 20
184.963363803688793
 30
0.0
 11
3490.2721597296899745
 21
184.963363803688793
 31
0.0
  0
ARC
  5
1164B
  8
0
 10
3488.1934524399730435
 20
184.8395703977643052
 30
0.0
 40
6.3028988744290846
 50
179.1504314446609101
 51
179.6848901609828033
  0
ARC
  5
1164C
  8
0
 10
3481.9205466401222111
 20
184.9325904101735034
 30
0.0
 40
0.029303422335851
 50
143.271839616319113
 51
179.1504314446625017
  0
ARC
  5
1164D
  8
0
 10
3481.9123354575490339
 20
184.9387171172604099
 30
0.0
 40
0.0190584206782234
 50
89.0700165258466257
 51
143.271839616319113
  0
LINE
  5
1164E
  8
0
 10
3481.8908266623561758
 20
184.8982434630945022
 30
0.0
 11
3481.8732742769320794
 21
184.8982456934888887
 31
0.0
  0
LINE
  5
1164F
  8
0
 10
3481.8732742769320794
 20
184.8982456934888887
 30
0.0
 11
3481.8732742769320794
 21
184.963363803688793
 31
0.0
  0
LINE
  5
11650
  8
0
 10
3481.9126447864350666
 20
184.9577730274887983
 30
0.0
 11
3488.8417777833578839
 21
184.9577730274828866
 31
0.0
  0
ARC
  5
11651
  8
0
 10
3485.3750627230801911
 20
187.1356305688989892
 30
0.0
 40
19.9801266029282409
 50
270.0061612984625867
 51
280.9777034617230811
  0
ARC
  5
11652
  8
0
 10
3488.3408965109529163
 20
171.8459745115463875
 30
0.0
 40
4.4054756466652538
 50
280.9777034617230811
 51
326.6868023525377112
  0
ARC
  5
11653
  8
0
 10
3488.5036136581179562
 20
171.7390356626578978
 30
0.0
 40
4.2107635839077613
 50
326.6868023525377112
 51
352.4420296605919134
  0
ARC
  5
11654
  8
0
 10
3472.4946752319560801
 20
173.8631327471291002
 30
0.0
 40
20.3600018927849504
 50
352.4420296605919134
 51
359.9963634669255725
  0
LINE
  5
11655
  8
0
 10
3492.8546770837319855
 20
173.8618405084887968
 30
0.0
 11
3492.8551982997769301
 21
182.0739147432481957
 31
0.0
  0
ARC
  5
11656
  8
0
 10
3488.653128446653227
 20
182.0741814464180948
 30
0.0
 40
4.2020698615876206
 50
359.9963634669255725
 51
28.412341117941299
  0
ARC
  5
11657
  8
0
 10
3490.5871145562250604
 20
183.193116315093306
 30
0.0
 40
1.96967342401115
 50
26.5521298444274088
 51
49.6204852949709903
  0
ARC
  5
11658
  8
0
 10
3490.8869617939221826
 20
183.5625631561098032
 30
0.0
 40
1.494024587406851
 50
49.2012928561388208
 51
89.7850026412805988
  0
LINE
  5
11659
  8
0
 10
3490.8925679762469372
 20
185.0565772251520116
 30
0.0
 11
3490.8047715168308969
 21
185.0565985947887953
 31
0.0
  0
ARC
  5
1165A
  8
0
 10
3490.8047662792778283
 20
185.0350802753939092
 30
0.0
 40
0.0215183200323454
 50
89.9860542215216981
 51
134.9262821364337128
  0
ARC
  5
1165B
  8
0
 10
3490.8067972785229358
 20
185.0338227740263903
 30
0.0
 40
0.0238492767798123
 50
136.2475741448025133
 51
169.0213767690111126
  0
LINE
  5
1165C
  8
0
 10
3490.7824014397319843
 20
185.0317813535887979
 30
0.0
 11
3490.7654590317320071
 21
184.7827066757888019
 31
0.0
  0
ARC
  5
1165D
  8
0
 10
3490.7599244886391716
 20
184.7837276704129863
 30
0.0
 40
0.0056279301057228
 50
295.1962548705910763
 51
349.547771455813006
  0
ARC
  5
1165E
  8
0
 10
3490.7468469834129792
 20
184.8077817006002874
 30
0.0
 40
0.0329991648399164
 50
276.7743466429184878
 51
297.9631528388387096
  0
ARC
  5
1165F
  8
0
 10
3490.7311494095361013
 20
184.9235437624872986
 30
0.0
 40
0.1498171684097537
 50
265.1954581534283761
 51
277.5135280695603228
  0
ARC
  5
11660
  8
0
 10
3490.6342792421319245
 20
182.8793393530953892
 30
0.0
 40
1.896788862893394
 50
87.4520701829720224
 51
89.9937986060932786
  0
LINE
  5
11661
  8
0
 10
3490.7507649675148969
 20
184.77501595200971
 30
0.0
 11
3490.746700920532021
 21
184.9706921446887975
 31
0.0
  0
ARC
  5
11662
  8
0
 10
3490.36042223243021
 20
184.9626694275885086
 30
0.0
 40
0.3863619920124934
 50
1.1898190787842911
 51
8.5994038569705982
  0
ARC
  5
11663
  8
0
 10
3490.7035181657470275
 20
185.0109420442423982
 30
0.0
 40
0.0400647048131985
 50
13.7137357518695797
 51
90.1336948369958009
  0
LINE
  5
11664
  8
0
 10
3490.7034246782450282
 20
185.0510066399828872
 30
0.0
 11
3490.4065905177321838
 21
185.0512221026887971
 31
0.0
  0
ARC
  5
11665
  8
0
 10
3490.4061556417641441
 20
184.9528516729155001
 30
0.0
 40
0.098371391018463
 50
89.7467084843524958
 51
149.460172999704298
  0
ARC
  5
11666
  8
0
 10
3490.5788729198598048
 20
184.9008120773779922
 30
0.0
 40
0.2769219152686845
 50
158.3813064565929949
 51
178.4530185239187006
  0
ARC
  5
11667
  8
0
 10
3490.1054409406328887
 20
185.2499784454500116
 30
0.0
 40
0.3942184896667876
 50
295.4505275755760181
 51
299.9164167523119886
  0
ARC
  5
11668
  8
0
 10
3490.2050446602179363
 20
185.0666302902577911
 30
0.0
 40
0.1861941764376642
 50
285.6153603923597757
 51
292.0182064718056836
  0
ARC
  5
11669
  8
0
 10
3490.1476317445931272
 20
185.3149411506269075
 30
0.0
 40
0.4409454766180931
 50
274.7929676336250964
 51
284.1149197618096878
  0
LINE
  5
1166A
  8
0
 10
3490.2748490802318884
 20
184.8940162285888107
 30
0.0
 11
3490.2748490802318884
 21
184.9534332093888054
 31
0.0
  0
ARC
  5
1166B
  8
0
 10
3490.2551697361268452
 20
184.9534332093888054
 30
0.0
 40
0.0196793441049956
 50
0.0
 51
90.0192005345974735
  0
LINE
  5
1166C
  8
0
 10
3490.2551631413330142
 20
184.9731125523888124
 30
0.0
 11
3490.1488648342010492
 21
184.9730769304910041
 31
0.0
  0
LINE
  5
1166D
  8
0
 10
3490.1488648342010492
 20
184.9730769304910041
 30
0.0
 11
3490.1488648281319911
 21
184.9707856389887866
 31
0.0
  0
ARC
  5
1166E
  8
0
 10
3490.1488439191380166
 20
184.9707899044857129
 30
0.0
 40
0.0000213396467086
 50
295.5281118359907282
 51
348.469706481165872
  0
ARC
  5
1166F
  8
0
 10
3490.148428423461155
 20
184.9720501544074125
 30
0.0
 40
0.0013481467427068
 50
274.4689425534464817
 51
288.3619716236048021
  0
ARC
  5
11670
  8
0
 10
3490.1417599573078405
 20
185.0642341343057922
 30
0.0
 40
0.0937729836692862
 50
270.9536839692337935
 51
274.1422584301703864
  0
ARC
  5
11671
  8
0
 10
3490.1200396010058284
 20
186.1130954644251005
 30
0.0
 40
1.1428584781377871
 50
269.9721964248159907
 51
271.1672509826124724
  0
LINE
  5
11672
  8
0
 10
3490.1194850130300438
 20
184.9702371208481111
 30
0.0
 11
3490.070193455631852
 21
184.9702358764888004
 31
0.0
  0
LINE
  5
11673
  8
0
 10
3490.070193455631852
 20
184.9702358764888004
 30
0.0
 11
3490.0653666222319771
 21
184.9654254254888031
 31
0.0
  0
LINE
  5
11674
  8
0
 10
3490.7654590317320071
 20
184.7827066757888019
 30
0.0
 11
3490.8052599861948693
 21
185.0565984758954983
 31
0.0
  0
ARC
  5
11675
  8
0
 10
3490.8650502866239549
 20
185.0228050488298095
 30
0.0
 40
0.0831348659697871
 50
169.212820829176394
 51
173.8015301310678922
  0
LINE
  5
11676
  8
0
 10
3490.070193455631852
 20
184.9702358764888004
 30
0.0
 11
3490.070193455631852
 21
184.9680368131888031
 31
0.0
  0
LINE
  5
11677
  8
0
 10
3490.070193455631852
 20
184.9680368131888031
 30
0.0
 11
3490.1291857852747853
 21
184.9680368132096078
 31
0.0
  0
ARC
  5
11678
  8
0
 10
3490.129185785592199
 20
184.0658669475475051
 30
0.0
 40
0.9021698656620849
 50
87.9996954807657232
 51
90.0000000201406039
  0
ARC
  5
11679
  8
0
 10
3490.1606494483930874
 20
184.9667310879696913
 30
0.0
 40
0.0007564413248028
 50
272.0003045192341915
 51
87.9996954807657232
  0
ARC
  5
1167A
  8
0
 10
3490.1291893823558894
 20
185.8674921932718007
 30
0.0
 40
0.9020667677829621
 50
269.9999996478651951
 51
272.0003046367100978
  0
ARC
  5
1167B
  8
0
 10
3488.8613991149109097
 20
184.9527556833436961
 30
0.0
 40
0.021478378023511
 50
358.1886042394818901
 51
8.1606582782478725
  0
LINE
  5
1167C
  8
0
 10
3488.8828667600419067
 20
184.9520767613967962
 30
0.0
 11
3488.8835774364852114
 21
184.8753331814777994
 31
0.0
  0
LINE
  5
1167D
  8
0
 10
3488.8826600014322139
 20
184.955804523588796
 30
0.0
 11
3488.8811482928322221
 21
184.963363803688793
 31
0.0
  0
ARC
  5
1167E
  8
0
 10
3482.5609701297908032
 20
184.8395703977643052
 30
0.0
 40
6.3028988744290846
 50
0.3250709307264852
 51
0.8495685553390787
  0
ARC
  5
1167F
  8
0
 10
3488.8338759296429998
 20
184.9325904101735034
 30
0.0
 40
0.029303422335851
 50
0.8495685553374505
 51
36.7281603836809225
  0
ARC
  5
11680
  8
0
 10
3488.8420871122148128
 20
184.9387171172604099
 30
0.0
 40
0.0190584206782234
 50
36.7281603836809225
 51
90.9299834741533743
  0
LINE
  5
11681
  8
0
 10
3488.8635959074081256
 20
184.8982434630945022
 30
0.0
 11
3488.8811482928322221
 21
184.8982456934888887
 31
0.0
  0
LINE
  5
11682
  8
0
 10
3488.8811482928322221
 20
184.8982456934888887
 30
0.0
 11
3488.8811482928322221
 21
184.963363803688793
 31
0.0
  0
LINE
  5
11684
  8
0
 10
3480.1128183497321515
 20
184.716570524788807
 30
0.0
 11
3490.6416042199321055
 21
184.716570524788807
 31
0.0
  0
ARC
  5
11685
  8
0
 10
3480.1113526253570853
 20
182.5620241854163908
 30
0.0
 40
2.1545468379339621
 50
89.9610220462126335
 51
163.3261532919925116
  0
ARC
  5
11686
  8
0
 10
3490.6253980720061918
 20
182.5275585672702903
 30
0.0
 40
2.189071947056529
 50
21.1255356119151614
 51
89.5758237359018779
  0
ENDSEC
  0
EOF
