  0
SECTION
  2
HEADER
  9
$ACADVER
  1
AC1009
  9
$INSBASE
 10
3515.3718208750160557
 20
159.8493045695103945
 30
0.0
  9
$EXTMIN
 10
3497.2519815079749606
 20
159.8383327330940062
 30
-0.0015258207003583
  9
$EXTMAX
 10
3515.4897403979830415
 20
162.1265788327064001
 30
0.0000000349246037
  9
$LIMMIN
 10
0.0
 20
0.0
  9
$LIMMAX
 10
11.6929133858000007
 20
8.2677165353999982
  9
$ORTHOMODE
 70
     0
  9
$REGENMODE
 70
     1
  9
$FILLMODE
 70
     1
  9
$QTEXTMODE
 70
     0
  9
$MIRRTEXT
 70
     0
  9
$DRAGMODE
 70
     2
  9
$LTSCALE
 40
0.6431102362
  9
$OSMODE
 70
  4095
  9
$ATTMODE
 70
     1
  9
$TEXTSIZE
 40
0.2
  9
$TRACEWID
 40
0.05
  9
$TEXTSTYLE
  7
STANDARD
  9
$CLAYER
  8
0
  9
$CELTYPE
  6
BYLAYER
  9
$CECOLOR
 62
   256
  9
$DIMSCALE
 40
1.0
  9
$DIMASZ
 40
0.1875
  9
$DIMEXO
 40
0.0625
  9
$DIMDLI
 40
0.4443307087
  9
$DIMRND
 40
0.0
  9
$DIMDLE
 40
0.0
  9
$DIMEXE
 40
0.125
  9
$DIMTP
 40
0.01
  9
$DIMTM
 40
0.01
  9
$DIMTXT
 40
2.0
  9
$DIMCEN
 40
0.1052362205
  9
$DIMTSZ
 40
0.0
  9
$DIMTOL
 70
     1
  9
$DIMLIM
 70
     0
  9
$DIMTIH
 70
     1
  9
$DIMTOH
 70
     1
  9
$DIMSE1
 70
     0
  9
$DIMSE2
 70
     0
  9
$DIMTAD
 70
     0
  9
$DIMZIN
 70
     0
  9
$DIMBLK
  1

  9
$DIMASO
 70
     1
  9
$DIMSHO
 70
     1
  9
$DIMPOST
  1
\X
  9
$DIMAPOST
  1

  9
$DIMALT
 70
     1
  9
$DIMALTD
 70
     2
  9
$DIMALTF
 40
25.3999999999999986
  9
$DIMLFAC
 40
1.0
  9
$DIMTOFL
 70
     0
  9
$DIMTVP
 40
0.0
  9
$DIMTIX
 70
     0
  9
$DIMSOXD
 70
     0
  9
$DIMSAH
 70
     0
  9
$DIMBLK1
  1

  9
$DIMBLK2
  1

  9
$DIMSTYLE
  2
STANDARD
  9
$DIMCLRD
 70
     0
  9
$DIMCLRE
 70
     0
  9
$DIMCLRT
 70
     0
  9
$DIMTFAC
 40
1.0
  9
$DIMGAP
 40
0.09
  9
$LUNITS
 70
     2
  9
$LUPREC
 70
     4
  9
$SKETCHINC
 40
0.1
  9
$FILLETRAD
 40
0.0
  9
$AUNITS
 70
     0
  9
$AUPREC
 70
     0
  9
$MENU
  1
.
  9
$ELEVATION
 40
0.0
  9
$PELEVATION
 40
0.0
  9
$THICKNESS
 40
0.0
  9
$LIMCHECK
 70
     0
  9
$BLIPMODE
 70
     0
  9
$CHAMFERA
 40
0.0
  9
$CHAMFERB
 40
0.0
  9
$SKPOLY
 70
     0
  9
$TDCREATE
 40
2458060.468368056230247
  9
$TDUPDATE
 40
2459094.5265624998137355
  9
$TDINDWG
 40
0.5625996528
  9
$TDUSRTIMER
 40
0.5625996528
  9
$USRTIMER
 70
     1
  9
$ANGBASE
 50
0.0
  9
$ANGDIR
 70
     0
  9
$PDMODE
 70
     0
  9
$PDSIZE
 40
0.3125
  9
$PLINEWID
 40
0.0
  9
$COORDS
 70
     1
  9
$SPLFRAME
 70
     0
  9
$SPLINETYPE
 70
     6
  9
$SPLINESEGS
 70
     8
  9
$ATTDIA
 70
     1
  9
$ATTREQ
 70
     1
  9
$HANDLING
 70
     1
  9
$HANDSEED
  5
118F2
  9
$SURFTAB1
 70
     6
  9
$SURFTAB2
 70
     6
  9
$SURFTYPE
 70
     6
  9
$SURFU
 70
     6
  9
$SURFV
 70
     6
  9
$UCSNAME
  2

  9
$UCSORG
 10
0.0
 20
0.0
 30
0.0
  9
$UCSXDIR
 10
1.0
 20
0.0
 30
0.0
  9
$UCSYDIR
 10
0.0
 20
1.0
 30
0.0
  9
$PUCSNAME
  2

  9
$PUCSORG
 10
0.0
 20
0.0
 30
0.0
  9
$PUCSXDIR
 10
1.0
 20
0.0
 30
0.0
  9
$PUCSYDIR
 10
0.0
 20
1.0
 30
0.0
  9
$USERI1
 70
     0
  9
$USERI2
 70
     0
  9
$USERI3
 70
     0
  9
$USERI4
 70
     0
  9
$USERI5
 70
     0
  9
$USERR1
 40
0.0
  9
$USERR2
 40
0.0
  9
$USERR3
 40
0.0
  9
$USERR4
 40
0.0
  9
$USERR5
 40
0.0
  9
$WORLDVIEW
 70
     1
  9
$SHADEDGE
 70
     3
  9
$SHADEDIF
 70
    70
  9
$TILEMODE
 70
     1
  9
$MAXACTVP
 70
    64
  9
$PLIMCHECK
 70
     0
  9
$PEXTMIN
 10
1.0000000000000000E+20
 20
1.0000000000000000E+20
 30
1.0000000000000000E+20
  9
$PEXTMAX
 10
-1.0000000000000000E+20
 20
-1.0000000000000000E+20
 30
-1.0000000000000000E+20
  9
$PLIMMIN
 10
0.0
 20
0.0
  9
$PLIMMAX
 10
12.0
 20
9.0
  9
$UNITMODE
 70
     0
  9
$VISRETAIN
 70
     1
  9
$PLINEGEN
 70
     0
  9
$PSLTSCALE
 70
     1
  0
ENDSEC
  0
SECTION
  2
TABLES
  0
TABLE
  2
VPORT
 70
     1
  0
VPORT
  2
*ACTIVE
 70
     0
 10
0.0
 20
0.0
 11
1.0
 21
1.0
 12
202.6777457186034894
 22
-34.279055792987549
 13
0.0
 23
0.0
 14
1.0
 24
1.0
 15
0.0
 25
0.0
 16
0.0
 26
0.0
 36
96.5995694866707311
 17
3303.693115234375
 27
195.2615115758877096
 37
0.0
 40
6.907416775706837
 41
2.6486111111111108
 42
50.0
 43
0.0
 44
0.0
 50
0.0
 51
0.0
 71
     0
 72
   100
 73
     1
 74
     1
 75
     0
 76
     0
 77
     0
 78
     0
  0
ENDTAB
  0
TABLE
  2
LTYPE
 70
     2
  0
LTYPE
  2
CONTINUOUS
 70
     0
  3
Solid line
 72
    65
 73
     0
 40
0.0
  0
LTYPE
  2
PHANTOM2
 70
     0
  3
___ _ _ ___ _ _ ___ _ _ ___ _ _
 72
    65
 73
     6
 40
1.25
 49
0.625
 49
-0.125
 49
0.125
 49
-0.125
 49
0.125
 49
-0.125
  0
ENDTAB
  0
TABLE
  2
LAYER
 70
     2
  0
LAYER
  2
0
 70
     0
 62
   255
  6
CONTINUOUS
  0
LAYER
  2
DEFPOINTS
 70
     0
 62
     7
  6
CONTINUOUS
  0
ENDTAB
  0
TABLE
  2
STYLE
 70
     1
  0
STYLE
  2
STANDARD
 70
     0
 40
0.0
 41
0.8
 50
0.0
 71
     0
 42
0.2
  3
txt
  4

  0
ENDTAB
  0
TABLE
  2
VIEW
 70
     0
  0
ENDTAB
  0
TABLE
  2
UCS
 70
     0
  0
ENDTAB
  0
TABLE
  2
APPID
 70
     9
  0
APPID
  2
ACAD
 70
     0
  0
APPID
  2
ACAD_MLEADERVER
 70
     0
  0
APPID
  2
ACAD_EXEMPT_FROM_CAD_STANDARDS
 70
     0
  0
APPID
  2
ACAD_NAV_VCDISPLAY
 70
     0
  0
APPID
  2
ACAECLAYERSTANDARD
 70
     0
  0
APPID
  2
ACCMTRANSPARENCY
 70
     0
  0
APPID
  2
ACAD_DSTYLE_DIMJAG
 70
     0
  0
APPID
  2
ACAD_DSTYLE_DIMTALN
 70
     0
  0
APPID
  2
ACDBATTR
 70
     0
  0
ENDTAB
  0
TABLE
  2
DIMSTYLE
 70
     1
  0
DIMSTYLE
  2
STANDARD
 70
     0
  3

  4

  5

  6

  7

 40
1.0
 41
0.1875
 42
0.0625
 43
0.38
 44
0.125
 45
0.0
 46
0.0
 47
0.01
 48
0.01
140
0.15625
141
0.09
142
0.0
143
25.3999999999999986
144
1.0
145
0.0
146
1.0
147
0.09
 71
     1
 72
     0
 73
     1
 74
     1
 75
     0
 76
     0
 77
     0
 78
     4
170
     0
171
     2
172
     0
173
     0
174
     0
175
     0
176
     0
177
     0
178
     0
  0
ENDTAB
  0
ENDSEC
  0
SECTION
  2
BLOCKS
  0
BLOCK
  8
0
  2
$MODEL_SPACE
 70
     0
 10
0.0
 20
0.0
 30
0.0
  3
$MODEL_SPACE
  1

  0
ENDBLK
  5
21
  8
0
  0
BLOCK
 67
     1
  8
0
  2
$PAPER_SPACE
 70
     0
 10
0.0
 20
0.0
 30
0.0
  3
$PAPER_SPACE
  1

  0
ENDBLK
  5
1D
 67
     1
  8
0
  0
BLOCK
  8
0
  2
_FILLED
 70
     0
 10
0.0
 20
0.0
 30
0.0
  3
_FILLED
  1

  0
SOLID
  5
9E2C
  8
0
  6
BYBLOCK
 62
     0
 10
0.0
 20
0.0
 30
0.0
 11
-1.0
 21
0.1666666667
 31
0.0
 12
-1.0
 22
-0.1666666667
 32
0.0
 13
-1.0
 23
-0.1666666667
 33
0.0
  0
ENDBLK
  5
9E2D
  8
0
  6
BYBLOCK
 62
     0
  0
BLOCK
  8
0
  2
A$C6B0F1CD5
 70
     2
 10
0.0
 20
0.0
 30
0.0
  3
A$C6B0F1CD5
  1

  0
ATTDEF
  5
B779
  8
DEFPOINTS
 10
0.0005209962714616
 20
0.000347009907216
 30
0.0
 40
0.001
  1
BATH FAUCET
  3

  2
PRODUCT
 70
     0
1001
ACDBATTR
1070
     0
1070
     1
  0
ATTDEF
  5
B77A
  8
DEFPOINTS
 10
0.0005209962714616
 20
0.0020136765738812
 30
0.0
 40
0.001
  1
SINGULIER
  3

  2
TRADENAME
 70
     0
1001
ACDBATTR
1070
     0
1070
     1
  0
ATTDEF
  5
B77B
  8
DEFPOINTS
 10
0.0005209962714616
 20
0.0036803432405463
 30
0.0
 40
0.001
  1
K-10873W
  3

  2
MODELNUMBER
 70
     0
1001
ACDBATTR
1070
     0
1070
     1
  0
ENDBLK
  5
B77F
  8
0
  0
ENDSEC
  0
SECTION
  2
ENTITIES
  0
ATTDEF
  5
1067D
  8
DEFPOINTS
 10
3515.3717845877049513
 20
159.8538352178939874
 30
0.0
 40
0.001
  1
K-6091IN
  3

  2
MODELNUMBER
 70
     0
1001
ACDBATTR
1070
     0
1070
     1
  0
ATTDEF
  5
1067E
  8
DEFPOINTS
 10
3515.3717845877049513
 20
159.8521685512272938
 30
0.0
 40
0.001
  1
REPLAY
  3

  2
TRADENAME
 70
     0
1001
ACDBATTR
1070
     0
1070
     1
  0
ATTDEF
  5
1067F
  8
DEFPOINTS
 10
3515.3717845877049513
 20
159.850501884560714
 30
0.0
 40
0.001
  1
TOILET SEAT
  3

  2
PRODUCT
 70
     0
1001
ACDBATTR
1070
     0
1070
     1
  0
LINE
  5
115C6
  8
0
 10
3514.9941208210771038
 20
162.1209581081677129
 30
0.0
 11
3497.9102189153168183
 21
162.1209581088604068
 31
0.0
  0
LINE
  5
115C7
  8
0
 10
3497.5100693131748812
 20
159.9949738573604066
 30
0.0
 11
3513.7559989030119141
 21
159.9949738573604066
 31
0.0
  0
LINE
  5
115C8
  8
0
 10
3509.4126315229850661
 20
159.9260762153637074
 30
0.0
 11
3510.1057457951387732
 21
159.9260762153637074
 31
0.0
  0
ARC
  5
115C9
  8
0
 10
3497.910218915112182
 20
161.8059974789603928
 30
0.0
 40
0.3149606298999954
 50
89.9999999626109286
 51
175.9999999106549922
  0
LINE
  5
115CA
  8
0
 10
3497.5960255135109946
 20
161.8279680223604089
 30
0.0
 11
3497.4707951377968129
 21
160.0370902542130978
 31
0.0
  0
ARC
  5
115CB
  8
0
 10
3497.5100693131748812
 20
160.0343439362756897
 30
0.0
 40
0.0393700789153407
 50
175.9999999106451867
 51
270.0
  0
ARC
  5
115CC
  8
0
 10
3509.412631718143075
 20
160.5363078066106937
 30
0.0
 40
0.61023159124695
 50
242.5105586737853969
 51
269.9999816762792193
  0
ARC
  5
115CD
  8
0
 10
3510.10574559808083
 20
160.5363078066106084
 30
0.0
 40
0.6102315912469102
 50
270.0000185021202128
 51
297.48944132621682
  0
ARC
  5
115CE
  8
0
 10
3499.592849676249898
 20
160.4703128272628874
 30
0.0
 40
0.6214091836174056
 50
229.9014009255047029
 51
267.9417301231399051
  0
ARC
  5
115CF
  8
0
 10
3500.0287622386999828
 20
160.4994202184562937
 30
0.0
 40
0.6553098013511648
 50
277.2186963967524775
 51
309.665591328745279
  0
ARC
  5
115D0
  8
0
 10
3514.9938811383958637
 20
162.0809666374269966
 30
0.0
 40
0.0399921889846305
 50
48.159414731248873
 51
89.6566107383718958
  0
ARC
  5
115D1
  8
0
 10
3514.9948326635580997
 20
162.0820293444747904
 30
0.0
 40
0.0385657436112981
 50
15.4710715853482093
 51
48.1594147312477787
  0
LINE
  5
115D2
  8
0
 10
3515.032000987399897
 20
162.0923168263406922
 30
0.0
 11
3515.364145671012011
 21
160.8853857365604085
 31
0.0
  0
ARC
  5
115D3
  8
0
 10
3514.9562686294389096
 20
160.8058873861936888
 30
0.0
 40
0.4155522455775766
 50
353.1930282245216972
 51
11.0291107723488206
  0
ARC
  5
115D4
  8
0
 10
3514.8665425464077998
 20
160.791696149141103
 30
0.0
 40
0.5035712485356716
 50
306.6149702813469275
 51
356.007453367683695
  0
ARC
  5
115D5
  8
0
 10
3513.9355237395848235
 20
162.346908597152094
 30
0.0
 40
2.3142059662369179
 50
290.8549457270884773
 51
302.1467849029788226
  0
ARC
  5
115D6
  8
0
 10
3513.7572656732040741
 20
162.7426343832624127
 30
0.0
 40
2.7475863122067219
 50
274.5160547765386241
 51
291.3908739832868946
  0
ARC
  5
115D7
  8
0
 10
3513.7559989030119141
 20
162.750879369161197
 30
0.0
 40
2.7559055118008451
 50
270.0
 51
274.5288124635226836
  0
LINE
  5
115D8
  8
0
 10
3499.5705312309119108
 20
159.8493045660603968
 30
0.0
 11
3500.1111064811020697
 21
159.8493045660603968
 31
0.0
  0
ARC
  5
115D9
  8
0
 10
-10807.4222405421296571
 20
-89.6829440776900668
 30
0.0
 40
14324.8853096433995233
 50
0.9983501901232443
 51
1.0007233739324051
  0
ARC
  5
115DA
  8
0
 10
3515.2575559024089671
 20
159.9078202262629986
 30
0.0
 40
0.0309613051130413
 50
269.0016498098850093
 51
0.9983501901281288
  0
LINE
  5
115DB
  8
0
 10
3515.257016444511919
 20
159.8768636211603962
 30
0.0
 11
3513.966260707895799
 21
159.8768636211603962
 31
0.0
  0
ARC
  5
115DC
  8
0
 10
3513.9660657705658195
 20
159.9083601150705931
 30
0.0
 40
0.0314970971551019
 50
180.2007772987759893
 51
270.3546091092982238
  0
LINE
  5
115DD
  8
0
 10
3513.9345688667967806
 20
159.9082497423835036
 30
0.0
 11
3513.9342447439189527
 21
160.0007442475724133
 31
0.0
  0
ENDSEC
  0
EOF
