  0
SECTION
  2
HEADER
  9
$ACADVER
  1
AC1009
  9
$INSBASE
 10
4212.5007525221008109
 20
231.3909765356962112
 30
0.0
  9
$EXTMIN
 10
4205.2972082756014061
 20
210.0956765356961
 30
0.0
  9
$EXTMAX
 10
4219.7042967686020347
 20
231.3956967181530047
 30
0.0
  9
$LIMMIN
 10
0.0
 20
0.0
  9
$LIMMAX
 10
11.6929133858000007
 20
8.2677165353999982
  9
$ORTHOMODE
 70
     0
  9
$REGENMODE
 70
     1
  9
$FILLMODE
 70
     1
  9
$QTEXTMODE
 70
     0
  9
$MIRRTEXT
 70
     0
  9
$DRAGMODE
 70
     2
  9
$LTSCALE
 40
0.6431102362
  9
$OSMODE
 70
  3839
  9
$ATTMODE
 70
     1
  9
$TEXTSIZE
 40
0.2
  9
$TRACEWID
 40
0.05
  9
$TEXTSTYLE
  7
STANDARD
  9
$CLAYER
  8
0
  9
$CELTYPE
  6
BYLAYER
  9
$CECOLOR
 62
     1
  9
$DIMSCALE
 40
1.0
  9
$DIMASZ
 40
0.1875
  9
$DIMEXO
 40
0.0625
  9
$DIMDLI
 40
0.4443307087
  9
$DIMRND
 40
0.0
  9
$DIMDLE
 40
0.0
  9
$DIMEXE
 40
0.125
  9
$DIMTP
 40
0.01
  9
$DIMTM
 40
0.01
  9
$DIMTXT
 40
2.0
  9
$DIMCEN
 40
0.1052362205
  9
$DIMTSZ
 40
0.0
  9
$DIMTOL
 70
     1
  9
$DIMLIM
 70
     0
  9
$DIMTIH
 70
     1
  9
$DIMTOH
 70
     1
  9
$DIMSE1
 70
     0
  9
$DIMSE2
 70
     0
  9
$DIMTAD
 70
     0
  9
$DIMZIN
 70
     0
  9
$DIMBLK
  1

  9
$DIMASO
 70
     1
  9
$DIMSHO
 70
     1
  9
$DIMPOST
  1
\X
  9
$DIMAPOST
  1

  9
$DIMALT
 70
     1
  9
$DIMALTD
 70
     2
  9
$DIMALTF
 40
25.3999999999999986
  9
$DIMLFAC
 40
1.0
  9
$DIMTOFL
 70
     0
  9
$DIMTVP
 40
0.0
  9
$DIMTIX
 70
     0
  9
$DIMSOXD
 70
     0
  9
$DIMSAH
 70
     0
  9
$DIMBLK1
  1

  9
$DIMBLK2
  1

  9
$DIMSTYLE
  2
STANDARD
  9
$DIMCLRD
 70
     0
  9
$DIMCLRE
 70
     0
  9
$DIMCLRT
 70
     0
  9
$DIMTFAC
 40
1.0
  9
$DIMGAP
 40
0.09
  9
$LUNITS
 70
     2
  9
$LUPREC
 70
     4
  9
$SKETCHINC
 40
0.1
  9
$FILLETRAD
 40
0.0
  9
$AUNITS
 70
     0
  9
$AUPREC
 70
     0
  9
$MENU
  1
.
  9
$ELEVATION
 40
0.0
  9
$PELEVATION
 40
0.0
  9
$THICKNESS
 40
0.0
  9
$LIMCHECK
 70
     0
  9
$BLIPMODE
 70
     0
  9
$CHAMFERA
 40
0.0
  9
$CHAMFERB
 40
0.0
  9
$SKPOLY
 70
     0
  9
$TDCREATE
 40
2458060.468368056230247
  9
$TDUPDATE
 40
2459116.4797222227789462
  9
$TDINDWG
 40
0.5607478009
  9
$TDUSRTIMER
 40
0.5607478009
  9
$USRTIMER
 70
     1
  9
$ANGBASE
 50
0.0
  9
$ANGDIR
 70
     0
  9
$PDMODE
 70
     0
  9
$PDSIZE
 40
0.3125
  9
$PLINEWID
 40
0.0
  9
$COORDS
 70
     1
  9
$SPLFRAME
 70
     0
  9
$SPLINETYPE
 70
     6
  9
$SPLINESEGS
 70
     8
  9
$ATTDIA
 70
     1
  9
$ATTREQ
 70
     1
  9
$HANDLING
 70
     1
  9
$HANDSEED
  5
971E
  9
$SURFTAB1
 70
     6
  9
$SURFTAB2
 70
     6
  9
$SURFTYPE
 70
     6
  9
$SURFU
 70
     6
  9
$SURFV
 70
     6
  9
$UCSNAME
  2

  9
$UCSORG
 10
0.0
 20
0.0
 30
0.0
  9
$UCSXDIR
 10
1.0
 20
0.0
 30
0.0
  9
$UCSYDIR
 10
0.0
 20
1.0
 30
0.0
  9
$PUCSNAME
  2

  9
$PUCSORG
 10
0.0
 20
0.0
 30
0.0
  9
$PUCSXDIR
 10
1.0
 20
0.0
 30
0.0
  9
$PUCSYDIR
 10
0.0
 20
1.0
 30
0.0
  9
$USERI1
 70
     0
  9
$USERI2
 70
     0
  9
$USERI3
 70
     0
  9
$USERI4
 70
     0
  9
$USERI5
 70
     0
  9
$USERR1
 40
0.0
  9
$USERR2
 40
0.0
  9
$USERR3
 40
0.0
  9
$USERR4
 40
0.0
  9
$USERR5
 40
0.0
  9
$WORLDVIEW
 70
     1
  9
$SHADEDGE
 70
     3
  9
$SHADEDIF
 70
    70
  9
$TILEMODE
 70
     1
  9
$MAXACTVP
 70
    64
  9
$PLIMCHECK
 70
     0
  9
$PEXTMIN
 10
1.0000000000000000E+20
 20
1.0000000000000000E+20
 30
1.0000000000000000E+20
  9
$PEXTMAX
 10
-1.0000000000000000E+20
 20
-1.0000000000000000E+20
 30
-1.0000000000000000E+20
  9
$PLIMMIN
 10
0.0
 20
0.0
  9
$PLIMMAX
 10
12.0
 20
9.0
  9
$UNITMODE
 70
     0
  9
$VISRETAIN
 70
     1
  9
$PLINEGEN
 70
     0
  9
$PSLTSCALE
 70
     1
  0
ENDSEC
  0
SECTION
  2
TABLES
  0
TABLE
  2
VPORT
 70
     1
  0
VPORT
  2
*ACTIVE
 70
     0
 10
0.0
 20
0.0
 11
1.0
 21
1.0
 12
0.0
 22
0.0
 13
0.0
 23
0.0
 14
1.0
 24
1.0
 15
0.0
 25
0.0
 16
0.0
 26
0.0
 36
106.6239779758229957
 17
4212.500732421875
 27
220.7648497018498972
 37
0.0
 40
25.6829465023113812
 41
3.3143418467583499
 42
50.0
 43
0.0
 44
0.0
 50
0.0
 51
0.0
 71
     0
 72
   100
 73
     1
 74
     1
 75
     0
 76
     0
 77
     0
 78
     0
  0
ENDTAB
  0
TABLE
  2
LTYPE
 70
     2
  0
LTYPE
  2
CONTINUOUS
 70
     0
  3
Solid line
 72
    65
 73
     0
 40
0.0
  0
LTYPE
  2
PHANTOM2
 70
     0
  3
___ _ _ ___ _ _ ___ _ _ ___ _ _
 72
    65
 73
     6
 40
1.25
 49
0.625
 49
-0.125
 49
0.125
 49
-0.125
 49
0.125
 49
-0.125
  0
ENDTAB
  0
TABLE
  2
LAYER
 70
     2
  0
LAYER
  2
0
 70
     0
 62
   255
  6
CONTINUOUS
  0
LAYER
  2
DEFPOINTS
 70
     0
 62
     7
  6
CONTINUOUS
  0
ENDTAB
  0
TABLE
  2
STYLE
 70
     1
  0
STYLE
  2
STANDARD
 70
     0
 40
0.0
 41
0.8
 50
0.0
 71
     0
 42
0.2
  3
txt
  4

  0
ENDTAB
  0
TABLE
  2
VIEW
 70
     0
  0
ENDTAB
  0
TABLE
  2
UCS
 70
     0
  0
ENDTAB
  0
TABLE
  2
APPID
 70
     9
  0
APPID
  2
ACAD
 70
     0
  0
APPID
  2
ACAD_MLEADERVER
 70
     0
  0
APPID
  2
ACAD_EXEMPT_FROM_CAD_STANDARDS
 70
     0
  0
APPID
  2
ACAD_NAV_VCDISPLAY
 70
     0
  0
APPID
  2
ACAECLAYERSTANDARD
 70
     0
  0
APPID
  2
ACCMTRANSPARENCY
 70
     0
  0
APPID
  2
ACAD_DSTYLE_DIMJAG
 70
     0
  0
APPID
  2
ACAD_DSTYLE_DIMTALN
 70
     0
  0
APPID
  2
ACDBATTR
 70
     0
  0
ENDTAB
  0
TABLE
  2
DIMSTYLE
 70
     1
  0
DIMSTYLE
  2
STANDARD
 70
     0
  3

  4

  5

  6

  7

 40
1.0
 41
0.1875
 42
0.0625
 43
0.38
 44
0.125
 45
0.0
 46
0.0
 47
0.01
 48
0.01
140
0.15625
141
0.09
142
0.0
143
25.3999999999999986
144
1.0
145
0.0
146
1.0
147
0.09
 71
     1
 72
     0
 73
     1
 74
     1
 75
     0
 76
     0
 77
     0
 78
     4
170
     0
171
     2
172
     0
173
     0
174
     0
175
     0
176
     0
177
     0
178
     0
  0
ENDTAB
  0
ENDSEC
  0
SECTION
  2
BLOCKS
  0
BLOCK
  8
0
  2
$MODEL_SPACE
 70
     0
 10
0.0
 20
0.0
 30
0.0
  3
$MODEL_SPACE
  1

  0
ENDBLK
  5
21
  8
0
  0
BLOCK
 67
     1
  8
0
  2
$PAPER_SPACE
 70
     0
 10
0.0
 20
0.0
 30
0.0
  3
$PAPER_SPACE
  1

  0
ENDBLK
  5
1D
 67
     1
  8
0
  0
BLOCK
  8
0
  2
_FILLED
 70
     0
 10
0.0
 20
0.0
 30
0.0
  3
_FILLED
  1

  0
SOLID
  5
6F59
  8
0
  6
BYBLOCK
 62
     0
 10
0.0
 20
0.0
 30
0.0
 11
-1.0
 21
0.1666666667
 31
0.0
 12
-1.0
 22
-0.1666666667
 32
0.0
 13
-1.0
 23
-0.1666666667
 33
0.0
  0
ENDBLK
  5
6F5A
  8
0
  6
BYBLOCK
 62
     0
  0
ENDSEC
  0
SECTION
  2
ENTITIES
  0
ATTDEF
  5
3930
  8
DEFPOINTS
 10
4212.501028276172292
 20
231.3946967181528862
 30
0.0
 40
0.001
  1
K-6098IN-SR
  3

  2
MODELNUMBER
 70
     0
1001
ACDBATTR
1070
     0
1070
     1
  0
ATTDEF
  5
3931
  8
DEFPOINTS
 10
4212.501028276172292
 20
231.3930300514861926
 30
0.0
 40
0.001
  1
REPLAY
  3

  2
TRADENAME
 70
     0
1001
ACDBATTR
1070
     0
1070
     1
  0
ATTDEF
  5
3932
  8
DEFPOINTS
 10
4212.501028276172292
 20
231.3913633848196127
 30
0.0
 40
0.001
  1
TOILET
  3

  2
PRODUCT
 70
     0
1001
ACDBATTR
1070
     0
1070
     1
  0
LINE
  5
9584
  8
0
 10
4219.7042967685010808
 20
216.5253589772960936
 30
0.0
 11
4219.7042967686002157
 21
225.0051915194437981
 31
0.0
  0
ARC
  5
9585
  8
0
 10
4215.8328874606449972
 20
224.8482294230377079
 30
0.0
 40
3.8745899304879479
 50
2.3217237108010038
 51
24.8893407128217987
  0
ARC
  5
9586
  8
0
 10
4217.5229065491457732
 20
225.5341569396298098
 30
0.0
 40
2.0547822502226869
 50
27.3732881637108783
 51
76.1675780370783286
  0
ARC
  5
9587
  8
0
 10
4218.0073451969728922
 20
227.4943742898873893
 30
0.0
 40
0.0356341155196934
 50
78.9583022965987169
 51
175.1521262629555054
  0
LINE
  5
9588
  8
0
 10
4217.9718385591513652
 20
227.4973857445961016
 30
0.0
 11
4217.9574063032514459
 21
227.2191060584962088
 31
0.0
  0
LINE
  5
9589
  8
0
 10
4217.3823553570082368
 20
227.532877200483199
 30
0.0
 11
4207.6228002661464416
 21
227.5327088190960865
 31
0.0
  0
LINE
  5
958A
  8
0
 10
4217.4515382035506263
 20
227.5579828474961062
 30
0.0
 11
4217.9257919933506855
 21
227.5331306006960972
 31
0.0
  0
LINE
  5
958B
  8
0
 10
4217.9331133127516296
 20
227.2366410986961114
 30
0.0
 11
4217.9257919933506855
 21
227.5331306006960972
 31
0.0
  0
ARC
  5
958C
  8
0
 10
4217.3669498740082417
 20
227.3902274984650944
 30
0.0
 40
0.1341217108372017
 50
269.0339012363954794
 51
304.3690520031069013
  0
LINE
  5
958D
  8
0
 10
4217.442664428597709
 20
227.2795209514976023
 30
0.0
 11
4217.4515382035506263
 21
227.5579828474961062
 31
0.0
  0
ARC
  5
958E
  8
0
 10
4217.3823553570082368
 20
227.4932199699551916
 30
0.0
 40
0.0396572305279551
 50
0.1156487504125931
 51
90.0
  0
LINE
  5
958F
  8
0
 10
4217.4220125067513436
 20
227.4933000160962138
 30
0.0
 11
4217.4220125067513436
 21
227.2679297478993874
 31
0.0
  0
LINE
  5
9590
  8
0
 10
4208.6367538479553332
 20
227.6252267188961866
 30
0.0
 11
4216.3647511962471981
 21
227.6252267188961866
 31
0.0
  0
ARC
  5
9591
  8
0
 10
4216.3647511962508361
 20
226.4303466143967114
 30
0.0
 40
1.194880104499447
 50
67.3246859426967177
 51
90.0000000002084306
  0
ARC
  5
9592
  8
0
 10
4215.9190681140153174
 20
224.9360815521069981
 30
0.0
 40
3.7459675155234939
 50
27.0110988444672699
 51
60.4037865537225116
  0
ARC
  5
9593
  8
0
 10
4218.0633825179220366
 20
228.7058382081779087
 30
0.0
 40
0.590989514736647
 50
178.7585700974761096
 51
240.1404257152908883
  0
LINE
  5
9594
  8
0
 10
4217.3190651870008878
 20
231.3909765356962112
 30
0.0
 11
4207.682439857015197
 21
231.3909765356962112
 31
0.0
  0
LINE
  5
9595
  8
0
 10
4217.4725317209013156
 20
228.7186421992961982
 30
0.0
 11
4217.5158856197012938
 21
231.1906901482961985
 31
0.0
  0
ARC
  5
9596
  8
0
 10
4217.3190552764708627
 20
231.1941163748051054
 30
0.0
 40
0.196860161140578
 50
359.0027528702610766
 51
89.9971155587728049
  0
ARC
  5
9597
  8
0
 10
4215.8831352934930692
 20
224.8775960088856039
 30
0.0
 40
3.707279542846972
 50
36.9655933629481694
 51
66.7247461512416749
  0
LINE
  5
9598
  8
0
 10
4217.3480623080013174
 20
228.2831665118960984
 30
0.0
 11
4217.3858542543021031
 21
230.4482656651960895
 31
0.0
  0
ARC
  5
9599
  8
0
 10
4216.8690783987913164
 20
230.477756122882397
 30
0.0
 40
0.5176166264064486
 50
356.7338873500876275
 51
79.5391942632109874
  0
ARC
  5
959A
  8
0
 10
4216.1597367074637077
 20
222.8058550110393981
 30
0.0
 40
8.2202609141016847
 50
84.3918425953015401
 51
93.9573650948274945
  0
ARC
  5
959B
  8
0
 10
4212.8260499605157747
 20
233.0913004651310985
 30
0.0
 40
2.3781721073539899
 50
283.6278633657593105
 51
299.2648164149557033
  0
ARC
  5
959C
  8
0
 10
4213.1502007599865465
 20
231.7382037486582931
 30
0.0
 40
0.9868022988709929
 50
228.8422769504857115
 51
283.8476127521976196
  0
ARC
  5
959D
  8
0
 10
4214.5528176779571368
 20
230.045030558598512
 30
0.0
 40
1.1235581498348111
 50
66.444306520426565
 51
120.1429968555866026
  0
ARC
  5
959E
  8
0
 10
4215.4250735896021069
 20
232.1446604355471095
 30
0.0
 40
1.150381641642523
 50
248.4132266009337968
 51
278.364637738014892
  0
ARC
  5
959F
  8
0
 10
4198.4454675383467475
 20
216.6683434689244905
 30
0.0
 40
21.2593100736115517
 50
352.3783539955060746
 51
359.6146408494137177
  0
ARC
  5
95A0
  8
0
 10
4215.1787822643900654
 20
214.5951873359674096
 30
0.0
 40
4.4019365156790453
 50
321.8485924211738052
 51
350.2365473084071823
  0
ARC
  5
95A1
  8
0
 10
4215.2967380948957725
 20
214.7395994767437912
 30
0.0
 40
4.4023368852421907
 50
282.3883687357591157
 51
319.4215173578622853
  0
LINE
  5
95A2
  8
0
 10
4207.5289733233012157
 20
228.7186421992961982
 30
0.0
 11
4207.485619424502147
 21
231.1906901482961985
 31
0.0
  0
ARC
  5
95A3
  8
0
 10
4207.682449767730759
 20
231.1941163748051054
 30
0.0
 40
0.196860161140578
 50
90.0028844412272093
 51
180.9972471297371897
  0
LINE
  5
95A4
  8
0
 10
4207.6534427362012138
 20
228.2831665118960984
 30
0.0
 11
4207.6156507899013377
 21
230.4482656651960895
 31
0.0
  0
ARC
  5
95A5
  8
0
 10
4208.1324266454112148
 20
230.477756122882397
 30
0.0
 40
0.5176166264064486
 50
100.4608057367889984
 51
183.2661126499124009
  0
ARC
  5
95A6
  8
0
 10
4208.8417683367379141
 20
222.8058550110393981
 30
0.0
 40
8.2202609141016847
 50
86.0426349051724912
 51
95.6081574046984741
  0
ARC
  5
95A7
  8
0
 10
4212.1754550836867566
 20
233.0913004651310985
 30
0.0
 40
2.3781721073539899
 50
240.7351835850442114
 51
256.3721366342408032
  0
ARC
  5
95A8
  8
0
 10
4211.8513042842150753
 20
231.7382037486582931
 30
0.0
 40
0.9868022988709929
 50
256.1523872478023236
 51
311.1577230495142885
  0
ARC
  5
95A9
  8
0
 10
4210.4486873662435755
 20
230.045030558598512
 30
0.0
 40
1.1235581498348111
 50
59.8570031444133406
 51
113.5556934795734065
  0
ARC
  5
95AA
  8
0
 10
4209.5764314546004243
 20
232.1446604355471095
 30
0.0
 40
1.150381641642523
 50
261.6353622619849943
 51
291.5867733990662032
  0
ARC
  5
95AC
  8
0
 10
4220.9737269920624385
 20
226.9999985930134017
 30
0.0
 40
3.0113900077402991
 50
174.8094629355410916
 51
175.8274962284239109
  0
ARC
  5
95AD
  8
0
 10
4217.0083970439382028
 20
227.1726998239365116
 30
0.0
 40
0.9714218449300549
 50
359.7897686659889018
 51
5.8928006075279047
  0
LINE
  5
95AE
  8
0
 10
4217.9574063032514459
 20
227.2191060584962088
 30
0.0
 11
4217.9574063032514459
 21
227.2191060584962088
 31
0.0
  0
LINE
  5
95AF
  8
0
 10
4217.9372784227552984
 20
227.2191060584962088
 30
0.0
 11
4217.9787098090828295
 21
227.2191060584962088
 31
0.0
  0
ARC
  5
95B0
  8
0
 10
4218.0225912598889408
 20
227.2486352699806957
 30
0.0
 40
0.0902787600209362
 50
187.6349890725547027
 51
256.6521005222115832
  0
ARC
  5
95B1
  8
0
 10
4217.6966990765567971
 20
225.2462194903613977
 30
0.0
 40
1.9387253661599211
 50
37.4648424207248922
 51
80.9471343125415359
  0
ARC
  5
95B2
  8
0
 10
4217.1630396075470344
 20
225.0349934629797986
 30
0.0
 40
2.49572890124736
 50
6.1888211363462906
 51
33.8591471711322001
  0
ARC
  5
95B3
  8
0
 10
4211.7979475912807175
 20
224.3034903573905865
 30
0.0
 40
7.9098139856666618
 50
1.6959379476966969
 51
7.2671290509608486
  0
LINE
  5
95B4
  8
0
 10
4205.2972082757014505
 20
216.5253589772960936
 30
0.0
 11
4205.2972082756014061
 21
225.0051915194437981
 31
0.0
  0
ARC
  5
95B5
  8
0
 10
4209.1686175835566246
 20
224.8482294230377079
 30
0.0
 40
3.8745899304879479
 50
155.1106592871782084
 51
177.6782762891990046
  0
ARC
  5
95B6
  8
0
 10
4207.4785984950558486
 20
225.5341569396298098
 30
0.0
 40
2.0547822502226869
 50
103.8324219629216998
 51
152.626711836289104
  0
ARC
  5
95B7
  8
0
 10
4206.9941598472287296
 20
227.4943742898873893
 30
0.0
 40
0.0356341155196934
 50
4.8478737370445062
 51
101.0416977034012973
  0
LINE
  5
95B8
  8
0
 10
4207.0296664850511661
 20
227.4973857445961016
 30
0.0
 11
4207.0440987409510853
 21
227.2191060584962088
 31
0.0
  0
LINE
  5
95B9
  8
0
 10
4207.5499668406509954
 20
227.5579828474961062
 30
0.0
 11
4207.0757130508509363
 21
227.5331306006960972
 31
0.0
  0
LINE
  5
95BA
  8
0
 10
4207.0683917314518112
 20
227.2366410986961114
 30
0.0
 11
4207.0757130508509363
 21
227.5331306006960972
 31
0.0
  0
ARC
  5
95BB
  8
0
 10
4207.63455517019338
 20
227.3902274984650944
 30
0.0
 40
0.1341217108372017
 50
235.6309479968930134
 51
270.9660987636045206
  0
LINE
  5
95BC
  8
0
 10
4207.5588406156057317
 20
227.2795209514976023
 30
0.0
 11
4207.5499668406509954
 21
227.5579828474961062
 31
0.0
  0
ARC
  5
95BD
  8
0
 10
4207.6191496871942945
 20
227.4932199699551916
 30
0.0
 40
0.0396572305279551
 50
90.0
 51
179.8843512495874108
  0
LINE
  5
95BE
  8
0
 10
4207.5794925374502782
 20
227.4933000160962138
 30
0.0
 11
4207.5794925374502782
 21
227.2679297478993874
 31
0.0
  0
ARC
  5
95BF
  8
0
 10
4208.6367538479507857
 20
226.4303466143967114
 30
0.0
 40
1.194880104499447
 50
89.9999999997915552
 51
112.6753140573032965
  0
ARC
  5
95C0
  8
0
 10
4209.0824369301872139
 20
224.9360815521069981
 30
0.0
 40
3.7459675155234939
 50
119.5962134462775026
 51
152.9889011555326874
  0
ARC
  5
95C1
  8
0
 10
4206.9381225262795851
 20
228.7058382081779087
 30
0.0
 40
0.590989514736647
 50
299.8595742847090833
 51
1.241429902523925
  0
ARC
  5
95C2
  8
0
 10
4209.1183697507103716
 20
224.8775960088856039
 30
0.0
 40
3.707279542846972
 50
113.2752538487582967
 51
143.0344066370518021
  0
ARC
  5
95C3
  8
0
 10
4226.5560375058548743
 20
216.6683434689244905
 30
0.0
 40
21.2593100736115517
 50
180.3853591505863108
 51
187.621646004493897
  0
ARC
  5
95C4
  8
0
 10
4209.8227227798133754
 20
214.5951873359674096
 30
0.0
 40
4.4019365156790453
 50
189.763452691592704
 51
218.1514075788261948
  0
ARC
  5
95C5
  8
0
 10
4209.7047669493067588
 20
214.7395994767437912
 30
0.0
 40
4.4023368852421907
 50
220.5784826421376863
 51
257.6116312642408843
  0
ARC
  5
95C6
  8
0
 10
4204.0277780521400928
 20
226.9999985930134017
 30
0.0
 40
3.0113900077402991
 50
4.172503771574485
 51
5.1905370644572457
  0
ARC
  5
95C7
  8
0
 10
4207.9931080002643284
 20
227.1726998239365116
 30
0.0
 40
0.9714218449300549
 50
174.1071993924720971
 51
180.2102313340110129
  0
LINE
  5
95C8
  8
0
 10
4207.0440987409510853
 20
227.2191060584962088
 30
0.0
 11
4207.0440987409510853
 21
227.2191060584962088
 31
0.0
  0
LINE
  5
95C9
  8
0
 10
4207.0642266214490519
 20
227.2191060584962088
 30
0.0
 11
4207.0227952351206113
 21
227.2191060584962088
 31
0.0
  0
ARC
  5
95CA
  8
0
 10
4206.9789137843135904
 20
227.2486352699806957
 30
0.0
 40
0.0902787600209362
 50
283.3478994777884168
 51
352.365010927445212
  0
ARC
  5
95CB
  8
0
 10
4207.3048059676457342
 20
225.2462194903613977
 30
0.0
 40
1.9387253661599211
 50
99.0528656874584641
 51
142.5351575792751078
  0
ARC
  5
95CC
  8
0
 10
4207.8384654366564064
 20
225.0349934629797986
 30
0.0
 40
2.49572890124736
 50
146.1408528288677928
 51
173.8111788636537085
  0
ARC
  5
95CD
  8
0
 10
4213.2035574529218138
 20
224.3034903573905865
 30
0.0
 40
7.9098139856666618
 50
172.7328709490390963
 51
178.3040620523032942
  0
ARC
  5
95CE
  8
0
 10
4212.5007525221008109
 20
230.5980662246199131
 30
0.0
 40
20.5023896889237811
 50
259.4881018182940124
 51
280.5118981817059876
  0
ARC
  5
95CF
  8
0
 10
4212.5007525221008109
 20
-185.0522571421300029
 30
0.0
 40
412.3370705342837255
 50
89.3241222166972051
 51
90.6758777833028091
  0
ENDSEC
  0
EOF
