  0
SECTION
  2
HEADER
  9
$ACADVER
  1
AC1009
  9
$INSBASE
 10
4379.959843260919115
 20
236.5056026820770114
 30
0.0
  9
$EXTMIN
 10
4375.6384780442876945
 20
213.2918972982832031
 30
-0.0000000349181948
  9
$EXTMAX
 10
4386.3086473860994374
 20
260.0400927918510092
 30
0.0000000814935746
  9
$LIMMIN
 10
0.0
 20
0.0
  9
$LIMMAX
 10
11.6929133858000007
 20
8.2677165353999982
  9
$ORTHOMODE
 70
     0
  9
$REGENMODE
 70
     1
  9
$FILLMODE
 70
     1
  9
$QTEXTMODE
 70
     0
  9
$MIRRTEXT
 70
     0
  9
$DRAGMODE
 70
     2
  9
$LTSCALE
 40
0.6431102362
  9
$OSMODE
 70
     7
  9
$ATTMODE
 70
     1
  9
$TEXTSIZE
 40
0.2
  9
$TRACEWID
 40
0.05
  9
$TEXTSTYLE
  7
STANDARD
  9
$CLAYER
  8
0
  9
$CELTYPE
  6
BYLAYER
  9
$CECOLOR
 62
   256
  9
$DIMSCALE
 40
1.0
  9
$DIMASZ
 40
0.1875
  9
$DIMEXO
 40
0.0625
  9
$DIMDLI
 40
0.4443307087
  9
$DIMRND
 40
0.0
  9
$DIMDLE
 40
0.0
  9
$DIMEXE
 40
0.125
  9
$DIMTP
 40
0.01
  9
$DIMTM
 40
0.01
  9
$DIMTXT
 40
2.0
  9
$DIMCEN
 40
0.1052362205
  9
$DIMTSZ
 40
0.0
  9
$DIMTOL
 70
     1
  9
$DIMLIM
 70
     0
  9
$DIMTIH
 70
     1
  9
$DIMTOH
 70
     1
  9
$DIMSE1
 70
     0
  9
$DIMSE2
 70
     0
  9
$DIMTAD
 70
     0
  9
$DIMZIN
 70
     0
  9
$DIMBLK
  1

  9
$DIMASO
 70
     1
  9
$DIMSHO
 70
     1
  9
$DIMPOST
  1
\X
  9
$DIMAPOST
  1

  9
$DIMALT
 70
     1
  9
$DIMALTD
 70
     2
  9
$DIMALTF
 40
25.3999999999999986
  9
$DIMLFAC
 40
1.0
  9
$DIMTOFL
 70
     0
  9
$DIMTVP
 40
0.0
  9
$DIMTIX
 70
     0
  9
$DIMSOXD
 70
     0
  9
$DIMSAH
 70
     0
  9
$DIMBLK1
  1

  9
$DIMBLK2
  1

  9
$DIMSTYLE
  2
STANDARD
  9
$DIMCLRD
 70
     0
  9
$DIMCLRE
 70
     0
  9
$DIMCLRT
 70
     0
  9
$DIMTFAC
 40
1.0
  9
$DIMGAP
 40
0.09
  9
$LUNITS
 70
     2
  9
$LUPREC
 70
     4
  9
$SKETCHINC
 40
0.1
  9
$FILLETRAD
 40
0.0
  9
$AUNITS
 70
     0
  9
$AUPREC
 70
     0
  9
$MENU
  1
.
  9
$ELEVATION
 40
0.0
  9
$PELEVATION
 40
0.0
  9
$THICKNESS
 40
0.0
  9
$LIMCHECK
 70
     0
  9
$BLIPMODE
 70
     0
  9
$CHAMFERA
 40
0.0
  9
$CHAMFERB
 40
0.0
  9
$SKPOLY
 70
     0
  9
$TDCREATE
 40
2458060.468368056230247
  9
$TDUPDATE
 40
2459463.9310532407835126
  9
$TDINDWG
 40
0.735608912
  9
$TDUSRTIMER
 40
0.735608912
  9
$USRTIMER
 70
     1
  9
$ANGBASE
 50
0.0
  9
$ANGDIR
 70
     0
  9
$PDMODE
 70
     0
  9
$PDSIZE
 40
0.3125
  9
$PLINEWID
 40
0.0
  9
$COORDS
 70
     1
  9
$SPLFRAME
 70
     0
  9
$SPLINETYPE
 70
     6
  9
$SPLINESEGS
 70
     8
  9
$ATTDIA
 70
     1
  9
$ATTREQ
 70
     1
  9
$HANDLING
 70
     1
  9
$HANDSEED
  5
152AA
  9
$SURFTAB1
 70
     6
  9
$SURFTAB2
 70
     6
  9
$SURFTYPE
 70
     6
  9
$SURFU
 70
     6
  9
$SURFV
 70
     6
  9
$UCSNAME
  2

  9
$UCSORG
 10
0.0
 20
0.0
 30
0.0
  9
$UCSXDIR
 10
1.0
 20
0.0
 30
0.0
  9
$UCSYDIR
 10
0.0
 20
1.0
 30
0.0
  9
$PUCSNAME
  2

  9
$PUCSORG
 10
0.0
 20
0.0
 30
0.0
  9
$PUCSXDIR
 10
1.0
 20
0.0
 30
0.0
  9
$PUCSYDIR
 10
0.0
 20
1.0
 30
0.0
  9
$USERI1
 70
     0
  9
$USERI2
 70
     0
  9
$USERI3
 70
     0
  9
$USERI4
 70
     0
  9
$USERI5
 70
     0
  9
$USERR1
 40
0.0
  9
$USERR2
 40
0.0
  9
$USERR3
 40
0.0
  9
$USERR4
 40
0.0
  9
$USERR5
 40
0.0
  9
$WORLDVIEW
 70
     1
  9
$SHADEDGE
 70
     3
  9
$SHADEDIF
 70
    70
  9
$TILEMODE
 70
     1
  9
$MAXACTVP
 70
    64
  9
$PLIMCHECK
 70
     0
  9
$PEXTMIN
 10
1.0000000000000000E+20
 20
1.0000000000000000E+20
 30
1.0000000000000000E+20
  9
$PEXTMAX
 10
-1.0000000000000000E+20
 20
-1.0000000000000000E+20
 30
-1.0000000000000000E+20
  9
$PLIMMIN
 10
0.0
 20
0.0
  9
$PLIMMAX
 10
12.0
 20
9.0
  9
$UNITMODE
 70
     0
  9
$VISRETAIN
 70
     1
  9
$PLINEGEN
 70
     0
  9
$PSLTSCALE
 70
     1
  0
ENDSEC
  0
SECTION
  2
TABLES
  0
TABLE
  2
VPORT
 70
     1
  0
VPORT
  2
*ACTIVE
 70
     0
 10
0.0
 20
0.0
 11
1.0
 21
1.0
 12
219.4171662308181112
 22
10.5551628307115895
 13
0.0
 23
0.0
 14
1.0
 24
1.0
 15
0.0
 25
0.0
 16
0.0
 26
0.0
 36
202.37134017897489
 17
4161.556396484375
 27
226.1108322143554972
 37
0.0
 40
46.9637905534919895
 41
2.2053846153846148
 42
50.0
 43
0.0
 44
0.0
 50
0.0
 51
0.0
 71
     0
 72
   100
 73
     1
 74
     1
 75
     0
 76
     0
 77
     0
 78
     0
  0
ENDTAB
  0
TABLE
  2
LTYPE
 70
     2
  0
LTYPE
  2
CONTINUOUS
 70
     0
  3
Solid line
 72
    65
 73
     0
 40
0.0
  0
LTYPE
  2
PHANTOM2
 70
     0
  3
___ _ _ ___ _ _ ___ _ _ ___ _ _
 72
    65
 73
     6
 40
1.25
 49
0.625
 49
-0.125
 49
0.125
 49
-0.125
 49
0.125
 49
-0.125
  0
ENDTAB
  0
TABLE
  2
LAYER
 70
     2
  0
LAYER
  2
0
 70
     0
 62
   255
  6
CONTINUOUS
  0
LAYER
  2
DEFPOINTS
 70
     0
 62
     7
  6
CONTINUOUS
  0
ENDTAB
  0
TABLE
  2
STYLE
 70
     1
  0
STYLE
  2
STANDARD
 70
     0
 40
0.0
 41
0.8
 50
0.0
 71
     0
 42
0.2
  3
txt
  4

  0
ENDTAB
  0
TABLE
  2
VIEW
 70
     0
  0
ENDTAB
  0
TABLE
  2
UCS
 70
     0
  0
ENDTAB
  0
TABLE
  2
APPID
 70
    10
  0
APPID
  2
ACAD
 70
     0
  0
APPID
  2
ACAD_MLEADERVER
 70
     0
  0
APPID
  2
ACAD_EXEMPT_FROM_CAD_STANDARDS
 70
     0
  0
APPID
  2
ACAD_NAV_VCDISPLAY
 70
     0
  0
APPID
  2
ACAECLAYERSTANDARD
 70
     0
  0
APPID
  2
ACCMTRANSPARENCY
 70
     0
  0
APPID
  2
ACAD_DSTYLE_DIMJAG
 70
     0
  0
APPID
  2
ACAD_DSTYLE_DIMTALN
 70
     0
  0
APPID
  2
ACDBATTR
 70
     0
  0
APPID
  2
DCO15
 70
     0
  0
ENDTAB
  0
TABLE
  2
DIMSTYLE
 70
     1
  0
DIMSTYLE
  2
STANDARD
 70
     0
  3

  4

  5

  6

  7

 40
1.0
 41
0.1875
 42
0.0625
 43
0.38
 44
0.125
 45
0.0
 46
0.0
 47
0.01
 48
0.01
140
0.15625
141
0.09
142
0.0
143
25.3999999999999986
144
1.0
145
0.0
146
1.0
147
0.09
 71
     1
 72
     0
 73
     1
 74
     1
 75
     0
 76
     0
 77
     0
 78
     4
170
     0
171
     2
172
     0
173
     0
174
     0
175
     0
176
     0
177
     0
178
     0
  0
ENDTAB
  0
ENDSEC
  0
SECTION
  2
BLOCKS
  0
BLOCK
  8
0
  2
$MODEL_SPACE
 70
     0
 10
0.0
 20
0.0
 30
0.0
  3
$MODEL_SPACE
  1

  0
ENDBLK
  5
21
  8
0
  0
BLOCK
 67
     1
  8
0
  2
$PAPER_SPACE
 70
     0
 10
0.0
 20
0.0
 30
0.0
  3
$PAPER_SPACE
  1

  0
ENDBLK
  5
1D
 67
     1
  8
0
  0
ENDSEC
  0
SECTION
  2
ENTITIES
  0
ATTDEF
  5
12CA7
  8
DEFPOINTS
 10
4379.9598482164547022
 20
236.5089385897938996
 30
0.0
 40
0.001
  1
K-6219A
  3

  2
MODELNUMBER
 70
     0
1001
ACDBATTR
1070
     0
1070
     1
  0
ATTDEF
  5
12CA8
  8
DEFPOINTS
 10
4379.9598482164547022
 20
236.507271923127206
 30
0.0
 40
0.001
  1
LOURE
  3

  2
TRADENAME
 70
     0
1001
ACDBATTR
1070
     0
1070
     1
  0
ATTDEF
  5
12CA9
  8
DEFPOINTS
 10
4379.9598482164547022
 20
236.5056052564605977
 30
0.0
 40
0.001
  1
SHOWER COLUMN KIT
  3

  2
PRODUCT
 70
     0
1001
ACDBATTR
1070
     0
1070
     1
  0
LINE
  5
1501A
  8
0
 10
4382.4793496190186488
 20
250.7558389025271026
 30
0.0
 11
4382.4793496190186488
 21
241.3089885088270137
 31
0.0
  0
LINE
  5
1501B
  8
0
 10
4383.5817069815193463
 20
250.7558389025271026
 30
0.0
 11
4383.5817069815193463
 21
241.3089885088270137
 31
0.0
  0
LINE
  5
1501C
  8
0
 10
4382.4793496190186488
 20
250.7558389025271026
 30
0.0
 11
4383.5817069815193463
 21
250.7558389025271026
 31
0.0
  0
LINE
  5
1501D
  8
0
 10
4382.8927330246178826
 20
250.4349727607269926
 30
0.0
 11
4382.8927330246178826
 21
250.3798546505271077
 31
0.0
  0
LINE
  5
1501E
  8
0
 10
4382.884859008919193
 20
250.4349727607269926
 30
0.0
 11
4382.884859008919193
 21
250.3798546505271077
 31
0.0
  0
ARC
  5
1501F
  8
0
 10
4382.8061188514184323
 20
250.4349727607269926
 30
0.0
 40
0.086614173200001
 50
0.0
 51
270.0
  0
ARC
  5
15020
  8
0
 10
4382.8061188514184323
 20
250.4349727607269926
 30
0.0
 40
0.0787401575000004
 50
0.0
 51
270.0
  0
LINE
  5
15021
  8
0
 10
4382.8061188514184323
 20
250.3562326033271006
 30
0.0
 11
4382.8612369616193973
 21
250.3562326033271006
 31
0.0
  0
ARC
  5
15022
  8
0
 10
4382.8612369615475473
 20
250.3798546506978084
 30
0.0
 40
0.0236220473707061
 50
270.0000001714947189
 51
359.9999995859437263
  0
LINE
  5
15023
  8
0
 10
4382.8061188514184323
 20
250.3483585875270876
 30
0.0
 11
4382.8612369617176228
 21
250.3483585875270876
 31
0.0
  0
ARC
  5
15024
  8
0
 10
4382.8612369616193973
 20
250.3798546505271077
 30
0.0
 40
0.0314960629999899
 50
270.0000001819166755
 51
0.0000000000065138
  0
CIRCLE
  5
15025
  8
0
 10
4382.806118740319107
 20
250.4349727600271081
 30
0.0
 40
0.0393696462000008
  0
LINE
  5
15026
  8
0
 10
4382.8927330246178826
 20
249.9861538631271003
 30
0.0
 11
4382.8927330246178826
 21
250.041271973327099
 31
0.0
  0
LINE
  5
15027
  8
0
 10
4382.884859008919193
 20
249.9861538631271003
 30
0.0
 11
4382.884859008919193
 21
250.041271973327099
 31
0.0
  0
ARC
  5
15028
  8
0
 10
4382.8061188514184323
 20
249.9861538631271003
 30
0.0
 40
0.086614173200001
 50
90.0
 51
0.0
  0
ARC
  5
15029
  8
0
 10
4382.8061188514184323
 20
249.9861538631271003
 30
0.0
 40
0.0787401575000004
 50
90.0
 51
0.0
  0
LINE
  5
1502A
  8
0
 10
4382.8061188514184323
 20
250.0648940205269923
 30
0.0
 11
4382.8612369616193973
 21
250.0648940205269923
 31
0.0
  0
ARC
  5
1502B
  8
0
 10
4382.8612369615475473
 20
250.0412719731563129
 30
0.0
 40
0.0236220473707061
 50
0.0000004140546844
 51
89.9999998285052953
  0
LINE
  5
1502C
  8
0
 10
4382.8061188514184323
 20
250.0727680363270053
 30
0.0
 11
4382.8612369617176228
 21
250.0727680363270053
 31
0.0
  0
ARC
  5
1502D
  8
0
 10
4382.8612369616193973
 20
250.041271973327099
 30
0.0
 40
0.0314960629999899
 50
359.9999999999935199
 51
89.9999998180832677
  0
CIRCLE
  5
1502E
  8
0
 10
4382.806118740319107
 20
249.9861538638270133
 30
0.0
 40
0.0393696462000008
  0
CIRCLE
  5
1502F
  8
0
 10
4382.9006070404138882
 20
249.7302483513240077
 30
0.0
 40
0.0216530092333519
  0
CIRCLE
  5
15030
  8
0
 10
4382.9006070404184356
 20
249.7302483513271056
 30
0.0
 40
0.0410257533541414
  0
CIRCLE
  5
15031
  8
0
 10
4382.9073466230729537
 20
249.7231073107921873
 30
0.0
 40
0.0552278417125603
  0
CIRCLE
  5
15032
  8
0
 10
4382.9045440483178027
 20
249.7223743355270926
 30
0.0
 40
0.0649606298999999
  0
CIRCLE
  5
15033
  8
0
 10
4382.7687172766181902
 20
249.6042640993271107
 30
0.0
 40
0.0212458642255334
  0
ARC
  5
15034
  8
0
 10
4382.7687172766400181
 20
249.6042640993663042
 30
0.0
 40
0.0413383414748363
 50
178.5194306841152923
 51
125.9398757802684941
  0
CIRCLE
  5
15035
  8
0
 10
4382.7821893954342158
 20
249.5971699651458948
 30
0.0
 40
0.0554012264192504
  0
CIRCLE
  5
15036
  8
0
 10
4382.778559796319314
 20
249.5963900836271137
 30
0.0
 40
0.0649606298999999
  0
CIRCLE
  5
15037
  8
0
 10
4383.0305283002189753
 20
249.6042640993771045
 30
0.0
 40
0.0215711450499985
  0
CIRCLE
  5
15038
  8
0
 10
4383.0305283002189753
 20
249.6042640993271107
 30
0.0
 40
0.041181276899998
  0
CIRCLE
  5
15039
  8
0
 10
4383.0305283002189753
 20
249.5971220990770973
 30
0.0
 40
0.0553929292500008
  0
CIRCLE
  5
1503A
  8
0
 10
4383.0305283002189753
 20
249.5963900836271137
 30
0.0
 40
0.0649606298999999
  0
CIRCLE
  5
1503B
  8
0
 10
4382.9006070404184356
 20
249.4763113434271133
 30
0.0
 40
0.0215189965490001
  0
CIRCLE
  5
1503C
  8
0
 10
4382.9006070404184356
 20
249.4763113434271133
 30
0.0
 40
0.0410817206461234
  0
CIRCLE
  5
1503D
  8
0
 10
4382.9075063847176352
 20
249.4707969243771117
 30
0.0
 40
0.0553879323884665
  0
CIRCLE
  5
1503E
  8
0
 10
4382.9045440483178027
 20
249.470405831627005
 30
0.0
 40
0.0649606298999999
  0
ARC
  5
1503F
  8
0
 10
4382.7687172766245567
 20
249.3503270914746963
 30
0.0
 40
0.0413383414927891
 50
178.4071214952712126
 51
135.9806984432121055
  0
CIRCLE
  5
15040
  8
0
 10
4382.7687172766363801
 20
249.3503270914785048
 30
0.0
 40
0.0216530092340495
  0
CIRCLE
  5
15041
  8
0
 10
4382.7821716633079632
 20
249.3446697052337129
 30
0.0
 40
0.0551980164671579
  0
CIRCLE
  5
15042
  8
0
 10
4382.778559796319314
 20
249.3444215796270953
 30
0.0
 40
0.0649606298999999
  0
CIRCLE
  5
15043
  8
0
 10
4383.0305283002189753
 20
249.3503270914771122
 30
0.0
 40
0.0216007963499987
  0
CIRCLE
  5
15044
  8
0
 10
4383.0305283002189753
 20
249.3503270914771122
 30
0.0
 40
0.0412378839500001
  0
CIRCLE
  5
15045
  8
0
 10
4383.0305283002189753
 20
249.3446200962769979
 30
0.0
 40
0.055292081550002
  0
CIRCLE
  5
15046
  8
0
 10
4383.0305283002189753
 20
249.3444215796270953
 30
0.0
 40
0.0649606298999999
  0
CIRCLE
  5
15047
  8
0
 10
4382.9006070404020647
 20
249.2223743355870909
 30
0.0
 40
0.0216530092054691
  0
CIRCLE
  5
15048
  8
0
 10
4382.9006070404029742
 20
249.2223743355797865
 30
0.0
 40
0.0413383414906023
  0
CIRCLE
  5
15049
  8
0
 10
4382.907348168990211
 20
249.2180966007310019
 30
0.0
 40
0.0551676688262678
  0
CIRCLE
  5
1504A
  8
0
 10
4382.9045440483178027
 20
249.2184373277270879
 30
0.0
 40
0.0649606298999999
  0
CIRCLE
  5
1504B
  8
0
 10
4383.0305283002189753
 20
249.0963900836271137
 30
0.0
 40
0.0216238678999989
  0
CIRCLE
  5
1504C
  8
0
 10
4383.0305283002189753
 20
249.0963900836271137
 30
0.0
 40
0.0412819295999984
  0
CIRCLE
  5
1504D
  8
0
 10
4383.0305283007537582
 20
249.0921076420272868
 30
0.0
 40
0.0552114593766025
  0
CIRCLE
  5
1504E
  8
0
 10
4383.0305283002189753
 20
249.0924530757270929
 30
0.0
 40
0.0649606298999999
  0
ARC
  5
1504F
  8
0
 10
4382.7687172766181902
 20
249.0963900835974982
 30
0.0
 40
0.0413383414884529
 50
175.4706397710737065
 51
149.548564394212292
  0
CIRCLE
  5
15050
  8
0
 10
4382.7687172766300137
 20
249.0963900836005109
 30
0.0
 40
0.0216530092139399
  0
CIRCLE
  5
15051
  8
0
 10
4382.782171677837141
 20
249.0921504060088978
 30
0.0
 40
0.0551763204570077
  0
CIRCLE
  5
15052
  8
0
 10
4382.778559796319314
 20
249.0924530757270929
 30
0.0
 40
0.0649606298999999
  0
CIRCLE
  5
15053
  8
0
 10
4382.9006070403684134
 20
248.9684373277270026
 30
0.0
 40
0.0411563807709944
  0
CIRCLE
  5
15054
  8
0
 10
4382.9006070403684134
 20
248.9684373276770941
 30
0.0
 40
0.0215581041939323
  0
CIRCLE
  5
15055
  8
0
 10
4382.9074143012176137
 20
248.96572023527699
 30
0.0
 40
0.0552777471141772
  0
CIRCLE
  5
15056
  8
0
 10
4382.9045440483178027
 20
248.966468823727098
 30
0.0
 40
0.0649606298999999
  0
CIRCLE
  5
15057
  8
0
 10
4383.0305283016323301
 20
248.8424530686270941
 30
0.0
 40
0.0216381589553798
  0
CIRCLE
  5
15058
  8
0
 10
4383.0305283034085733
 20
248.8424530847271114
 30
0.0
 40
0.0413084801929316
  0
CIRCLE
  5
15059
  8
0
 10
4383.0305283122779656
 20
248.8395999495317881
 30
0.0
 40
0.0551469657693373
  0
CIRCLE
  5
1505A
  8
0
 10
4383.0305283002189753
 20
248.8404845718270906
 30
0.0
 40
0.0649606298999999
  0
CIRCLE
  5
1505B
  8
0
 10
4382.7687172766181902
 20
248.8424530757770867
 30
0.0
 40
0.0213119783330371
  0
CIRCLE
  5
1505C
  8
0
 10
4382.7687172766181902
 20
248.8424530757270929
 30
0.0
 40
0.040686504135729
  0
CIRCLE
  5
1505D
  8
0
 10
4382.7821718064305969
 20
248.8396282025323956
 30
0.0
 40
0.05516044617536
  0
CIRCLE
  5
1505E
  8
0
 10
4382.778559796319314
 20
248.8404845718270906
 30
0.0
 40
0.0649606298999999
  0
CIRCLE
  5
1505F
  8
0
 10
4382.9006070404184356
 20
248.7145003198270103
 30
0.0
 40
0.0215678845709352
  0
CIRCLE
  5
15060
  8
0
 10
4382.9006070403984268
 20
248.7145003198291136
 30
0.0
 40
0.0413383415163162
  0
CIRCLE
  5
15061
  8
0
 10
4382.9073504078887709
 20
248.7130752764188912
 30
0.0
 40
0.0551279453834892
  0
CIRCLE
  5
15062
  8
0
 10
4382.9045440483178027
 20
248.7145003198270956
 30
0.0
 40
0.0649606298999999
  0
CIRCLE
  5
15063
  8
0
 10
4383.030531573317603
 20
248.5885160608270894
 30
0.0
 40
0.0216495363
  0
CIRCLE
  5
15064
  8
0
 10
4383.0305347998191792
 20
248.5885160800270057
 30
0.0
 40
0.0413309613000017
  0
CIRCLE
  5
15065
  8
0
 10
4383.0305283002189753
 20
248.5870920610269934
 30
0.0
 40
0.0551246937999999
  0
CIRCLE
  5
15066
  8
0
 10
4383.0305283002189753
 20
248.5885160678271006
 30
0.0
 40
0.0649606298999999
  0
CIRCLE
  5
15067
  8
0
 10
4382.7687172766281947
 20
248.5885160678678005
 30
0.0
 40
0.0216530092329208
  0
CIRCLE
  5
15068
  8
0
 10
4382.7687172766218282
 20
248.5885160678367072
 30
0.0
 40
0.04133834149529
  0
CIRCLE
  5
15069
  8
0
 10
4382.7822068533678248
 20
248.5871806996771056
 30
0.0
 40
0.0553771767259814
  0
CIRCLE
  5
1506A
  8
0
 10
4382.778559796319314
 20
248.5885160678271006
 30
0.0
 40
0.0649606298999999
  0
CIRCLE
  5
1506B
  8
0
 10
4382.9006070403684134
 20
248.4625318159270932
 30
0.0
 40
0.0215711450500011
  0
CIRCLE
  5
1506C
  8
0
 10
4382.9006070404184356
 20
248.4625318159270932
 30
0.0
 40
0.0411812768999997
  0
CIRCLE
  5
1506D
  8
0
 10
4382.9073645479184052
 20
248.4625318159270932
 30
0.0
 40
0.0552459929000007
  0
CIRCLE
  5
1506E
  8
0
 10
4382.9045440483178027
 20
248.4625318159270932
 30
0.0
 40
0.0649606298999999
  0
CIRCLE
  5
1506F
  8
0
 10
4382.7687172766236472
 20
248.3365475639270983
 30
0.0
 40
0.0216530092276018
  0
CIRCLE
  5
15070
  8
0
 10
4382.7687172766181902
 20
248.3365475639270983
 30
0.0
 40
0.0407105566999997
  0
CIRCLE
  5
15071
  8
0
 10
4382.7821996415677859
 20
248.3365475639270983
 30
0.0
 40
0.0553672605499998
  0
CIRCLE
  5
15072
  8
0
 10
4382.778559796319314
 20
248.3365475639270983
 30
0.0
 40
0.0649606298999999
  0
CIRCLE
  5
15073
  8
0
 10
4383.0305283002189753
 20
248.3365475639270983
 30
0.0
 40
0.0216535432999994
  0
CIRCLE
  5
15074
  8
0
 10
4383.0305283002189753
 20
248.3365475639270983
 30
0.0
 40
0.0413385826999999
  0
CIRCLE
  5
15075
  8
0
 10
4383.0305283002189753
 20
248.3365475639270983
 30
0.0
 40
0.0551135651999992
  0
CIRCLE
  5
15076
  8
0
 10
4383.0305283002189753
 20
248.3365475639270983
 30
0.0
 40
0.0649606298999999
  0
LINE
  5
15077
  8
0
 10
4382.9084810561180348
 20
249.7504189409418984
 30
0.0
 11
4382.9084810561180348
 21
249.7100777617060885
 31
0.0
  0
LINE
  5
15078
  8
0
 10
4382.9084810561180348
 20
249.4963380028897006
 30
0.0
 11
4382.9084810561180348
 21
249.4562846839644124
 31
0.0
  0
LINE
  5
15079
  8
0
 10
4382.9129479035191252
 20
249.7480403693847961
 30
0.0
 11
4382.9129479035191252
 21
249.7124563332631055
 31
0.0
  0
LINE
  5
1507A
  8
0
 10
4382.9129479035191252
 20
249.4939400220621906
 30
0.0
 11
4382.9129479035191252
 21
249.4586826647918087
 31
0.0
  0
ARC
  5
1507B
  8
0
 10
4382.7903708199191897
 20
249.2755239418270889
 30
0.0
 40
0.066403655299961
 50
91.4715529523060553
 51
120.8171245554078013
  0
ARC
  5
1507C
  8
0
 10
4382.7903708199191897
 20
249.2755239418270037
 30
0.0
 40
0.0660944356000176
 50
91.5955315552774039
 51
120.6931459524237056
  0
ARC
  5
1507D
  8
0
 10
4382.7903708199191897
 20
249.1456026820270893
 30
0.0
 40
0.0660944356000045
 50
229.0775382917433092
 51
263.4234727585931068
  0
ARC
  5
1507E
  8
0
 10
4382.7903708199191897
 20
249.1456026820270893
 30
0.0
 40
0.066403655299987
 50
229.329424535720193
 51
263.1715865145923203
  0
ARC
  5
1507F
  8
0
 10
4382.7903708199191897
 20
248.5235554379270866
 30
0.0
 40
0.0664036552999849
 50
90.0419946984258246
 51
126.8279029116878007
  0
ARC
  5
15080
  8
0
 10
4382.7903708199191897
 20
248.5235554379270866
 30
0.0
 40
0.0660944355999597
 50
90.0262130931144071
 51
126.8436845169989056
  0
LINE
  5
15081
  8
0
 10
4382.9113673267193008
 20
248.4812275517091962
 30
0.0
 11
4382.9113673267193008
 21
248.4438360801449051
 31
0.0
  0
LINE
  5
15082
  8
0
 10
4382.9129479035191252
 20
248.4802241135585916
 30
0.0
 11
4382.9129479035191252
 21
248.4448395182955949
 31
0.0
  0
ARC
  5
15083
  8
0
 10
4382.7903708199191897
 20
248.3936341781270869
 30
0.0
 40
0.0664036553000018
 50
230.2607500294689942
 51
268.1947406453966778
  0
ARC
  5
15084
  8
0
 10
4382.7903726113927405
 20
248.3936389011263088
 30
0.0
 40
0.0660992172516997
 50
230.1475844522474858
 51
268.307906237377324
  0
CIRCLE
  5
15085
  8
0
 10
4383.030515088618813
 20
245.9664694810271044
 30
0.0
 40
0.2774233994684471
  0
CIRCLE
  5
15086
  8
0
 10
4383.0305283002189753
 20
245.9664688237270127
 30
0.0
 40
0.2952755905999993
  0
LINE
  5
15087
  8
0
 10
4382.9832842057176094
 20
246.2398428269719091
 30
0.0
 11
4382.9832842057176094
 21
246.2579403831269929
 31
0.0
  0
LINE
  5
15088
  8
0
 10
4383.0777723947176128
 20
246.2398382605040865
 30
0.0
 11
4383.0777723947176128
 21
246.2579403831269929
 31
0.0
  0
LINE
  5
15089
  8
0
 10
4382.9832842057176094
 20
245.6930961350821008
 30
0.0
 11
4382.9832842057176094
 21
245.6749972643270894
 31
0.0
  0
LINE
  5
1508A
  8
0
 10
4383.0777723947176128
 20
245.6931007015500086
 30
0.0
 11
4383.0777723947176128
 21
245.6749972643270894
 31
0.0
  0
CIRCLE
  5
1508B
  8
0
 10
4383.030515088618813
 20
245.1790679062270897
 30
0.0
 40
0.2774233994684471
  0
CIRCLE
  5
1508C
  8
0
 10
4383.0305283002189753
 20
245.179067248926998
 30
0.0
 40
0.2952755905999993
  0
LINE
  5
1508D
  8
0
 10
4382.9832842057176094
 20
245.452441252172008
 30
0.0
 11
4382.9832842057176094
 21
245.4705388083270066
 31
0.0
  0
LINE
  5
1508E
  8
0
 10
4383.0777723947176128
 20
245.4524366857042139
 30
0.0
 11
4383.0777723947176128
 21
245.4705388083270066
 31
0.0
  0
LINE
  5
1508F
  8
0
 10
4383.168323575919203
 20
250.4349727607269926
 30
0.0
 11
4383.168323575919203
 21
250.3798546505271077
 31
0.0
  0
LINE
  5
15090
  8
0
 10
4383.1761975916188021
 20
250.4349727607269926
 30
0.0
 11
4383.1761975916188021
 21
250.3798546505271077
 31
0.0
  0
ARC
  5
15091
  8
0
 10
4383.2549377491186533
 20
250.4349727607269926
 30
0.0
 40
0.086614173200001
 50
270.0
 51
180.0
  0
ARC
  5
15092
  8
0
 10
4383.2549377491186533
 20
250.4349727607269926
 30
0.0
 40
0.0787401575000004
 50
270.0
 51
180.0
  0
LINE
  5
15093
  8
0
 10
4383.2549377491186533
 20
250.3562326033271006
 30
0.0
 11
4383.1998196389176883
 21
250.3562326033271006
 31
0.0
  0
ARC
  5
15094
  8
0
 10
4383.1998196389886289
 20
250.3798546506978084
 30
0.0
 40
0.0236220473707061
 50
180.0000004140547105
 51
269.9999998285052811
  0
LINE
  5
15095
  8
0
 10
4383.2549377491186533
 20
250.3483585875270876
 30
0.0
 11
4383.1998196388176439
 21
250.3483585875270876
 31
0.0
  0
ARC
  5
15096
  8
0
 10
4383.1998196389176883
 20
250.3798546505271077
 30
0.0
 40
0.0314960629999899
 50
179.9999999999934914
 51
269.9999998180833245
  0
CIRCLE
  5
15097
  8
0
 10
4383.2549378602179786
 20
250.4349727600271081
 30
0.0
 40
0.0393696462000008
  0
LINE
  5
15098
  8
0
 10
4383.168323575919203
 20
249.9861538631271003
 30
0.0
 11
4383.168323575919203
 21
250.041271973327099
 31
0.0
  0
LINE
  5
15099
  8
0
 10
4383.1761975916188021
 20
249.9861538631271003
 30
0.0
 11
4383.1761975916188021
 21
250.041271973327099
 31
0.0
  0
ARC
  5
1509A
  8
0
 10
4383.2549377491186533
 20
249.9861538631271003
 30
0.0
 40
0.086614173200001
 50
180.0
 51
90.0
  0
ARC
  5
1509B
  8
0
 10
4383.2549377491186533
 20
249.9861538631271003
 30
0.0
 40
0.0787401575000004
 50
180.0
 51
90.0
  0
LINE
  5
1509C
  8
0
 10
4383.2549377491186533
 20
250.0648940205269923
 30
0.0
 11
4383.1998196389176883
 21
250.0648940205269923
 31
0.0
  0
ARC
  5
1509D
  8
0
 10
4383.1998196389886289
 20
250.0412719731563129
 30
0.0
 40
0.0236220473707061
 50
90.0000001714946904
 51
179.9999995859436979
  0
LINE
  5
1509E
  8
0
 10
4383.2549377491186533
 20
250.0727680363270053
 30
0.0
 11
4383.1998196388176439
 21
250.0727680363270053
 31
0.0
  0
ARC
  5
1509F
  8
0
 10
4383.1998196389176883
 20
250.041271973327099
 30
0.0
 40
0.0314960629999899
 50
90.0000001819167323
 51
180.0000000000065086
  0
CIRCLE
  5
150A0
  8
0
 10
4383.2549378602179786
 20
249.9861538638270133
 30
0.0
 40
0.0393696462000008
  0
CIRCLE
  5
150A1
  8
0
 10
4383.1604495601241069
 20
249.7302483513240077
 30
0.0
 40
0.0216530092333519
  0
CIRCLE
  5
150A2
  8
0
 10
4383.16044956011865
 20
249.7302483513271056
 30
0.0
 40
0.0410257533541414
  0
CIRCLE
  5
150A3
  8
0
 10
4383.1537099774650414
 20
249.7231073107921873
 30
0.0
 40
0.0552278417125603
  0
CIRCLE
  5
150A4
  8
0
 10
4383.156512552219283
 20
249.7223743355270926
 30
0.0
 40
0.0649606298999999
  0
CIRCLE
  5
150A5
  8
0
 10
4383.2923393239188954
 20
249.6042640993271107
 30
0.0
 40
0.0212458642255334
  0
ARC
  5
150A6
  8
0
 10
4383.292339323896158
 20
249.6042640993663042
 30
0.0
 40
0.0413383414748363
 50
54.0601242197314065
 51
1.480569315884634
  0
CIRCLE
  5
150A7
  8
0
 10
4383.2788672051028698
 20
249.5971699651458948
 30
0.0
 40
0.0554012264192504
  0
CIRCLE
  5
150A8
  8
0
 10
4383.2824968042186811
 20
249.5963900836271137
 30
0.0
 40
0.0649606298999999
  0
CIRCLE
  5
150A9
  8
0
 10
4383.16044956011865
 20
249.4763113434271133
 30
0.0
 40
0.0215189965490001
  0
CIRCLE
  5
150AA
  8
0
 10
4383.16044956011865
 20
249.4763113434271133
 30
0.0
 40
0.0410817206461234
  0
CIRCLE
  5
150AB
  8
0
 10
4383.1535502158176314
 20
249.4707969243771117
 30
0.0
 40
0.0553879323884665
  0
CIRCLE
  5
150AC
  8
0
 10
4383.156512552219283
 20
249.470405831627005
 30
0.0
 40
0.0649606298999999
  0
ARC
  5
150AD
  8
0
 10
4383.2923393239116194
 20
249.3503270914746963
 30
0.0
 40
0.0413383414927891
 50
44.0193015567878376
 51
1.5928785047287211
  0
CIRCLE
  5
150AE
  8
0
 10
4383.2923393239007055
 20
249.3503270914785048
 30
0.0
 40
0.0216530092340495
  0
CIRCLE
  5
150AF
  8
0
 10
4383.2788849372291224
 20
249.3446697052337129
 30
0.0
 40
0.0551980164671579
  0
CIRCLE
  5
150B0
  8
0
 10
4383.2824968042186811
 20
249.3444215796270953
 30
0.0
 40
0.0649606298999999
  0
CIRCLE
  5
150B1
  8
0
 10
4383.1604495601350209
 20
249.2223743355870909
 30
0.0
 40
0.0216530092054691
  0
CIRCLE
  5
150B2
  8
0
 10
4383.1604495601332019
 20
249.2223743355797865
 30
0.0
 40
0.0413383414906023
  0
CIRCLE
  5
150B3
  8
0
 10
4383.1537084315468746
 20
249.2180966007310019
 30
0.0
 40
0.0551676688262678
  0
CIRCLE
  5
150B4
  8
0
 10
4383.156512552219283
 20
249.2184373277270879
 30
0.0
 40
0.0649606298999999
  0
ARC
  5
150B5
  8
0
 10
4383.2923393239198049
 20
249.0963900835974982
 30
0.0
 40
0.0413383414884529
 50
30.4514356057876903
 51
4.5293602289263202
  0
CIRCLE
  5
150B6
  8
0
 10
4383.292339323907072
 20
249.0963900836005109
 30
0.0
 40
0.0216530092139399
  0
CIRCLE
  5
150B7
  8
0
 10
4383.2788849226999446
 20
249.0921504060088978
 30
0.0
 40
0.0551763204570077
  0
CIRCLE
  5
150B8
  8
0
 10
4383.2824968042186811
 20
249.0924530757270929
 30
0.0
 40
0.0649606298999999
  0
CIRCLE
  5
150B9
  8
0
 10
4383.1604495601677627
 20
248.9684373277270026
 30
0.0
 40
0.0411563807709944
  0
CIRCLE
  5
150BA
  8
0
 10
4383.1604495601677627
 20
248.9684373276770941
 30
0.0
 40
0.0215581041939323
  0
CIRCLE
  5
150BB
  8
0
 10
4383.1536422993176529
 20
248.96572023527699
 30
0.0
 40
0.0552777471141772
  0
CIRCLE
  5
150BC
  8
0
 10
4383.156512552219283
 20
248.966468823727098
 30
0.0
 40
0.0649606298999999
  0
CIRCLE
  5
150BD
  8
0
 10
4383.2923393239188954
 20
248.8424530757770867
 30
0.0
 40
0.0213119783330371
  0
CIRCLE
  5
150BE
  8
0
 10
4383.2923393239188954
 20
248.8424530757270929
 30
0.0
 40
0.040686504135729
  0
CIRCLE
  5
150BF
  8
0
 10
4383.2788847941046697
 20
248.8396282025323956
 30
0.0
 40
0.05516044617536
  0
CIRCLE
  5
150C0
  8
0
 10
4383.2824968042186811
 20
248.8404845718270906
 30
0.0
 40
0.0649606298999999
  0
CIRCLE
  5
150C1
  8
0
 10
4383.16044956011865
 20
248.7145003198270103
 30
0.0
 40
0.0215678845709352
  0
CIRCLE
  5
150C2
  8
0
 10
4383.1604495601386589
 20
248.7145003198291136
 30
0.0
 40
0.0413383415163162
  0
CIRCLE
  5
150C3
  8
0
 10
4383.1537061926492242
 20
248.7130752764188912
 30
0.0
 40
0.0551279453834892
  0
CIRCLE
  5
150C4
  8
0
 10
4383.156512552219283
 20
248.7145003198270956
 30
0.0
 40
0.0649606298999999
  0
CIRCLE
  5
150C5
  8
0
 10
4383.2923393239098004
 20
248.5885160678678005
 30
0.0
 40
0.0216530092329208
  0
CIRCLE
  5
150C6
  8
0
 10
4383.2923393239152574
 20
248.5885160678367072
 30
0.0
 40
0.04133834149529
  0
CIRCLE
  5
150C7
  8
0
 10
4383.2788497471701703
 20
248.5871806996771056
 30
0.0
 40
0.0553771767259814
  0
CIRCLE
  5
150C8
  8
0
 10
4383.2824968042186811
 20
248.5885160678271006
 30
0.0
 40
0.0649606298999999
  0
CIRCLE
  5
150C9
  8
0
 10
4383.1604495601677627
 20
248.4625318159270932
 30
0.0
 40
0.0215711450500011
  0
CIRCLE
  5
150CA
  8
0
 10
4383.16044956011865
 20
248.4625318159270932
 30
0.0
 40
0.0411812768999997
  0
CIRCLE
  5
150CB
  8
0
 10
4383.153692052617771
 20
248.4625318159270932
 30
0.0
 40
0.0552459929000007
  0
CIRCLE
  5
150CC
  8
0
 10
4383.156512552219283
 20
248.4625318159270932
 30
0.0
 40
0.0649606298999999
  0
CIRCLE
  5
150CD
  8
0
 10
4383.2923393239143479
 20
248.3365475639270983
 30
0.0
 40
0.0216530092276018
  0
CIRCLE
  5
150CE
  8
0
 10
4383.2923393239188954
 20
248.3365475639270983
 30
0.0
 40
0.0407105566999997
  0
CIRCLE
  5
150CF
  8
0
 10
4383.2788569589692997
 20
248.3365475639270983
 30
0.0
 40
0.0553672605499998
  0
CIRCLE
  5
150D0
  8
0
 10
4383.2824968042186811
 20
248.3365475639270983
 30
0.0
 40
0.0649606298999999
  0
LINE
  5
150D1
  8
0
 10
4383.1525755444190509
 20
249.7504189409418984
 30
0.0
 11
4383.1525755444190509
 21
249.7100777617060885
 31
0.0
  0
LINE
  5
150D2
  8
0
 10
4383.1525755444190509
 20
249.4963380028897006
 30
0.0
 11
4383.1525755444190509
 21
249.4562846839644124
 31
0.0
  0
LINE
  5
150D3
  8
0
 10
4383.1481086970188699
 20
249.7480403693847961
 30
0.0
 11
4383.1481086970188699
 21
249.7124563332631055
 31
0.0
  0
LINE
  5
150D4
  8
0
 10
4383.1481086970188699
 20
249.4939400220621906
 30
0.0
 11
4383.1481086970188699
 21
249.4586826647918087
 31
0.0
  0
ARC
  5
150D5
  8
0
 10
4383.2706857806178959
 20
249.2755239418270889
 30
0.0
 40
0.066403655299961
 50
59.182875444592149
 51
88.5284470476939447
  0
ARC
  5
150D6
  8
0
 10
4383.2706857806178959
 20
249.2755239418270037
 30
0.0
 40
0.0660944356000176
 50
59.3068540475762589
 51
88.4044684447225961
  0
ARC
  5
150D7
  8
0
 10
4383.2706857806178959
 20
249.1456026820270893
 30
0.0
 40
0.0660944356000045
 50
276.5765272414068932
 51
310.9224617082567192
  0
ARC
  5
150D8
  8
0
 10
4383.2706857806178959
 20
249.1456026820270893
 30
0.0
 40
0.066403655299987
 50
276.8284134854076797
 51
310.670575464279807
  0
ARC
  5
150D9
  8
0
 10
4383.2706857806178959
 20
248.5235554379270866
 30
0.0
 40
0.0664036552999849
 50
53.1720970883121424
 51
89.9580053015742038
  0
ARC
  5
150DA
  8
0
 10
4383.2706857806178959
 20
248.5235554379270866
 30
0.0
 40
0.0660944355999597
 50
53.1563154830010731
 51
89.9737869068855929
  0
LINE
  5
150DB
  8
0
 10
4383.1496892738177849
 20
248.4812275517091962
 30
0.0
 11
4383.1496892738177849
 21
248.4438360801449051
 31
0.0
  0
LINE
  5
150DC
  8
0
 10
4383.1481086970188699
 20
248.4802241135585916
 30
0.0
 11
4383.1481086970188699
 21
248.4448395182955949
 31
0.0
  0
ARC
  5
150DD
  8
0
 10
4383.2706857806178959
 20
248.3936341781270869
 30
0.0
 40
0.0664036553000018
 50
271.8052593546033222
 51
309.7392499705309774
  0
ARC
  5
150DE
  8
0
 10
4383.2706839891443451
 20
248.3936389011263088
 30
0.0
 40
0.0660992172516997
 50
271.692093762622676
 51
309.8524155477525142
  0
CIRCLE
  5
150DF
  8
0
 10
4382.9006070404138882
 20
246.9428467764300876
 30
0.0
 40
0.0216530092333519
  0
CIRCLE
  5
150E0
  8
0
 10
4382.9006070404184356
 20
246.9428467764271034
 30
0.0
 40
0.0410257533541414
  0
CIRCLE
  5
150E1
  8
0
 10
4382.9073466230729537
 20
246.9499878169619933
 30
0.0
 40
0.0552278417125603
  0
CIRCLE
  5
150E2
  8
0
 10
4382.9045440483178027
 20
246.9507207922270879
 30
0.0
 40
0.0649606298999999
  0
CIRCLE
  5
150E3
  8
0
 10
4382.7687172766181902
 20
247.0688310284270131
 30
0.0
 40
0.0212458642255334
  0
ARC
  5
150E4
  8
0
 10
4382.7687172766400181
 20
247.0688310283879048
 30
0.0
 40
0.0413383414748363
 50
234.0601242197313923
 51
181.4805693158830024
  0
CIRCLE
  5
150E5
  8
0
 10
4382.7821893954342158
 20
247.0759251626082005
 30
0.0
 40
0.0554012264192504
  0
CIRCLE
  5
150E6
  8
0
 10
4382.778559796319314
 20
247.0767050441270953
 30
0.0
 40
0.0649606298999999
  0
CIRCLE
  5
150E7
  8
0
 10
4383.0305283002189753
 20
247.0688310283771045
 30
0.0
 40
0.0215711450499985
  0
CIRCLE
  5
150E8
  8
0
 10
4383.0305283002189753
 20
247.0688310284270131
 30
0.0
 40
0.041181276899998
  0
CIRCLE
  5
150E9
  8
0
 10
4383.0305283002189753
 20
247.0759730286771116
 30
0.0
 40
0.0553929292500008
  0
CIRCLE
  5
150EA
  8
0
 10
4383.0305283002189753
 20
247.0767050441270953
 30
0.0
 40
0.0649606298999999
  0
CIRCLE
  5
150EB
  8
0
 10
4382.9006070404184356
 20
247.1967837843270956
 30
0.0
 40
0.0215189965490001
  0
CIRCLE
  5
150EC
  8
0
 10
4382.9006070404184356
 20
247.1967837843270956
 30
0.0
 40
0.0410817206461234
  0
CIRCLE
  5
150ED
  8
0
 10
4382.9075063847176352
 20
247.202298203377012
 30
0.0
 40
0.0553879323884665
  0
CIRCLE
  5
150EE
  8
0
 10
4382.9045440483178027
 20
247.2026892961270903
 30
0.0
 40
0.0649606298999999
  0
ARC
  5
150EF
  8
0
 10
4382.7687172766245567
 20
247.3227680362795127
 30
0.0
 40
0.0413383414927891
 50
224.0193015567878945
 51
181.5928785047287022
  0
CIRCLE
  5
150F0
  8
0
 10
4382.7687172766363801
 20
247.3227680362755905
 30
0.0
 40
0.0216530092340495
  0
CIRCLE
  5
150F1
  8
0
 10
4382.7821716633079632
 20
247.3284254225204961
 30
0.0
 40
0.0551980164671579
  0
CIRCLE
  5
150F2
  8
0
 10
4382.778559796319314
 20
247.328673548127
 30
0.0
 40
0.0649606298999999
  0
CIRCLE
  5
150F3
  8
0
 10
4383.0305283002189753
 20
247.3227680362770968
 30
0.0
 40
0.0216007963499987
  0
CIRCLE
  5
150F4
  8
0
 10
4383.0305283002189753
 20
247.3227680362770968
 30
0.0
 40
0.0412378839500001
  0
CIRCLE
  5
150F5
  8
0
 10
4383.0305283002189753
 20
247.3284750314770974
 30
0.0
 40
0.055292081550002
  0
CIRCLE
  5
150F6
  8
0
 10
4383.0305283002189753
 20
247.328673548127
 30
0.0
 40
0.0649606298999999
  0
CIRCLE
  5
150F7
  8
0
 10
4382.9006070404020647
 20
247.4507207921670044
 30
0.0
 40
0.0216530092054691
  0
CIRCLE
  5
150F8
  8
0
 10
4382.9006070404029742
 20
247.4507207921743088
 30
0.0
 40
0.0413383414906023
  0
CIRCLE
  5
150F9
  8
0
 10
4382.907348168990211
 20
247.4549985270230934
 30
0.0
 40
0.0551676688262678
  0
CIRCLE
  5
150FA
  8
0
 10
4382.9045440483178027
 20
247.4546578000270927
 30
0.0
 40
0.0649606298999999
  0
CIRCLE
  5
150FB
  8
0
 10
4383.0305283002189753
 20
247.5767050441270101
 30
0.0
 40
0.0216238678999989
  0
CIRCLE
  5
150FC
  8
0
 10
4383.0305283002189753
 20
247.5767050441270101
 30
0.0
 40
0.0412819295999984
  0
CIRCLE
  5
150FD
  8
0
 10
4383.0305283007537582
 20
247.5809874857268085
 30
0.0
 40
0.0552114593766025
  0
CIRCLE
  5
150FE
  8
0
 10
4383.0305283002189753
 20
247.5806420520270876
 30
0.0
 40
0.0649606298999999
  0
ARC
  5
150FF
  8
0
 10
4382.7687172766181902
 20
247.5767050441567108
 30
0.0
 40
0.0413383414884529
 50
210.451435605787708
 51
184.5293602289262935
  0
CIRCLE
  5
15100
  8
0
 10
4382.7687172766300137
 20
247.5767050441536128
 30
0.0
 40
0.0216530092139399
  0
CIRCLE
  5
15101
  8
0
 10
4382.782171677837141
 20
247.5809447217451975
 30
0.0
 40
0.0551763204570077
  0
CIRCLE
  5
15102
  8
0
 10
4382.778559796319314
 20
247.5806420520270876
 30
0.0
 40
0.0649606298999999
  0
CIRCLE
  5
15103
  8
0
 10
4382.9006070403684134
 20
247.7046578000270927
 30
0.0
 40
0.0411563807709944
  0
CIRCLE
  5
15104
  8
0
 10
4382.9006070403684134
 20
247.7046578000770012
 30
0.0
 40
0.0215581041939323
  0
CIRCLE
  5
15105
  8
0
 10
4382.9074143012176137
 20
247.7073748924769916
 30
0.0
 40
0.0552777471141772
  0
CIRCLE
  5
15106
  8
0
 10
4382.9045440483178027
 20
247.706626304027111
 30
0.0
 40
0.0649606298999999
  0
CIRCLE
  5
15107
  8
0
 10
4383.0305283016323301
 20
247.8306420591270864
 30
0.0
 40
0.0216381589553798
  0
CIRCLE
  5
15108
  8
0
 10
4383.0305283034085733
 20
247.8306420430270975
 30
0.0
 40
0.0413084801929316
  0
CIRCLE
  5
15109
  8
0
 10
4383.0305283122779656
 20
247.8334951782223072
 30
0.0
 40
0.0551469657693373
  0
CIRCLE
  5
1510A
  8
0
 10
4383.0305283002189753
 20
247.83261055592709
 30
0.0
 40
0.0649606298999999
  0
CIRCLE
  5
1510B
  8
0
 10
4382.7687172766181902
 20
247.8306420519770938
 30
0.0
 40
0.0213119783330371
  0
CIRCLE
  5
1510C
  8
0
 10
4382.7687172766181902
 20
247.8306420520270024
 30
0.0
 40
0.040686504135729
  0
CIRCLE
  5
1510D
  8
0
 10
4382.7821718064305969
 20
247.8334669252216997
 30
0.0
 40
0.05516044617536
  0
CIRCLE
  5
1510E
  8
0
 10
4382.778559796319314
 20
247.83261055592709
 30
0.0
 40
0.0649606298999999
  0
CIRCLE
  5
1510F
  8
0
 10
4382.9006070404184356
 20
247.9585948079271134
 30
0.0
 40
0.0215678845709352
  0
CIRCLE
  5
15110
  8
0
 10
4382.9006070403984268
 20
247.9585948079250102
 30
0.0
 40
0.0413383415163162
  0
CIRCLE
  5
15111
  8
0
 10
4382.9073504078887709
 20
247.9600198513352041
 30
0.0
 40
0.0551279453834892
  0
CIRCLE
  5
15112
  8
0
 10
4382.9045440483178027
 20
247.9585948079271134
 30
0.0
 40
0.0649606298999999
  0
CIRCLE
  5
15113
  8
0
 10
4383.030531573317603
 20
248.0845790669270059
 30
0.0
 40
0.0216495363
  0
CIRCLE
  5
15114
  8
0
 10
4383.0305347998191792
 20
248.0845790477270896
 30
0.0
 40
0.0413309613000017
  0
CIRCLE
  5
15115
  8
0
 10
4383.0305283002189753
 20
248.0860030667271019
 30
0.0
 40
0.0551246937999999
  0
CIRCLE
  5
15116
  8
0
 10
4383.0305283002189753
 20
248.0845790599269947
 30
0.0
 40
0.0649606298999999
  0
CIRCLE
  5
15117
  8
0
 10
4382.7687172766281947
 20
248.0845790598862948
 30
0.0
 40
0.0216530092329208
  0
CIRCLE
  5
15118
  8
0
 10
4382.7687172766218282
 20
248.0845790599173881
 30
0.0
 40
0.04133834149529
  0
CIRCLE
  5
15119
  8
0
 10
4382.7822068533678248
 20
248.0859144280771034
 30
0.0
 40
0.0553771767259814
  0
CIRCLE
  5
1511A
  8
0
 10
4382.778559796319314
 20
248.0845790599269947
 30
0.0
 40
0.0649606298999999
  0
CIRCLE
  5
1511B
  8
0
 10
4382.9006070403684134
 20
248.2105633118270021
 30
0.0
 40
0.0215711450500011
  0
CIRCLE
  5
1511C
  8
0
 10
4382.9006070404184356
 20
248.2105633118270021
 30
0.0
 40
0.0411812768999997
  0
CIRCLE
  5
1511D
  8
0
 10
4382.9073645479184052
 20
248.2105633118270021
 30
0.0
 40
0.0552459929000007
  0
CIRCLE
  5
1511E
  8
0
 10
4382.9045440483178027
 20
248.2105633118270021
 30
0.0
 40
0.0649606298999999
  0
LINE
  5
1511F
  8
0
 10
4382.9084810561180348
 20
246.9226761868121969
 30
0.0
 11
4382.9084810561180348
 21
246.9630173660480068
 31
0.0
  0
LINE
  5
15120
  8
0
 10
4382.9084810561180348
 20
247.1767571248643947
 30
0.0
 11
4382.9084810561180348
 21
247.2168104437897114
 31
0.0
  0
LINE
  5
15121
  8
0
 10
4382.9129479035191252
 20
246.9250547583692992
 30
0.0
 11
4382.9129479035191252
 21
246.9606387944909898
 31
0.0
  0
LINE
  5
15122
  8
0
 10
4382.9129479035191252
 20
247.1791551056917911
 30
0.0
 11
4382.9129479035191252
 21
247.2144124629622866
 31
0.0
  0
ARC
  5
15123
  8
0
 10
4382.7903708199191897
 20
247.3975711859270064
 30
0.0
 40
0.066403655299961
 50
239.1828754445922129
 51
268.5284470476938736
  0
ARC
  5
15124
  8
0
 10
4382.7903708199191897
 20
247.3975711859270916
 30
0.0
 40
0.0660944356000176
 50
239.3068540475763086
 51
268.4044684447226246
  0
ARC
  5
15125
  8
0
 10
4382.7903708199191897
 20
247.527492445727006
 30
0.0
 40
0.0660944356000045
 50
96.5765272414068647
 51
130.9224617082566908
  0
ARC
  5
15126
  8
0
 10
4382.7903708199191897
 20
247.5274924457270913
 30
0.0
 40
0.066403655299987
 50
96.8284134854076939
 51
130.670575464279807
  0
ARC
  5
15127
  8
0
 10
4382.7903708199191897
 20
248.1495396898270087
 30
0.0
 40
0.0664036552999849
 50
233.1720970883121993
 51
269.9580053015741896
  0
ARC
  5
15128
  8
0
 10
4382.7903708199191897
 20
248.1495396898270087
 30
0.0
 40
0.0660944355999597
 50
233.1563154830010944
 51
269.9737869068856071
  0
LINE
  5
15129
  8
0
 10
4382.9113673267193008
 20
248.1918675760450128
 30
0.0
 11
4382.9113673267193008
 21
248.2292590476091902
 31
0.0
  0
LINE
  5
1512A
  8
0
 10
4382.9129479035191252
 20
248.1928710141955889
 30
0.0
 11
4382.9129479035191252
 21
248.2282556094585004
 31
0.0
  0
CIRCLE
  5
1512B
  8
0
 10
4383.1604495601241069
 20
246.9428467764300876
 30
0.0
 40
0.0216530092333519
  0
CIRCLE
  5
1512C
  8
0
 10
4383.16044956011865
 20
246.9428467764271034
 30
0.0
 40
0.0410257533541414
  0
CIRCLE
  5
1512D
  8
0
 10
4383.1537099774650414
 20
246.9499878169619933
 30
0.0
 40
0.0552278417125603
  0
CIRCLE
  5
1512E
  8
0
 10
4383.156512552219283
 20
246.9507207922270879
 30
0.0
 40
0.0649606298999999
  0
CIRCLE
  5
1512F
  8
0
 10
4383.2923393239188954
 20
247.0688310284270131
 30
0.0
 40
0.0212458642255334
  0
ARC
  5
15130
  8
0
 10
4383.292339323896158
 20
247.0688310283879048
 30
0.0
 40
0.0413383414748363
 50
358.5194306841153775
 51
305.9398757802686077
  0
CIRCLE
  5
15131
  8
0
 10
4383.2788672051028698
 20
247.0759251626082005
 30
0.0
 40
0.0554012264192504
  0
CIRCLE
  5
15132
  8
0
 10
4383.2824968042186811
 20
247.0767050441270953
 30
0.0
 40
0.0649606298999999
  0
CIRCLE
  5
15133
  8
0
 10
4383.16044956011865
 20
247.1967837843270956
 30
0.0
 40
0.0215189965490001
  0
CIRCLE
  5
15134
  8
0
 10
4383.16044956011865
 20
247.1967837843270956
 30
0.0
 40
0.0410817206461234
  0
CIRCLE
  5
15135
  8
0
 10
4383.1535502158176314
 20
247.202298203377012
 30
0.0
 40
0.0553879323884665
  0
CIRCLE
  5
15136
  8
0
 10
4383.156512552219283
 20
247.2026892961270903
 30
0.0
 40
0.0649606298999999
  0
ARC
  5
15137
  8
0
 10
4383.2923393239116194
 20
247.3227680362795127
 30
0.0
 40
0.0413383414927891
 50
358.4071214952696778
 51
315.9806984432120771
  0
CIRCLE
  5
15138
  8
0
 10
4383.2923393239007055
 20
247.3227680362755905
 30
0.0
 40
0.0216530092340495
  0
CIRCLE
  5
15139
  8
0
 10
4383.2788849372291224
 20
247.3284254225204961
 30
0.0
 40
0.0551980164671579
  0
CIRCLE
  5
1513A
  8
0
 10
4383.2824968042186811
 20
247.328673548127
 30
0.0
 40
0.0649606298999999
  0
CIRCLE
  5
1513B
  8
0
 10
4383.1604495601350209
 20
247.4507207921670044
 30
0.0
 40
0.0216530092054691
  0
CIRCLE
  5
1513C
  8
0
 10
4383.1604495601332019
 20
247.4507207921743088
 30
0.0
 40
0.0413383414906023
  0
CIRCLE
  5
1513D
  8
0
 10
4383.1537084315468746
 20
247.4549985270230934
 30
0.0
 40
0.0551676688262678
  0
CIRCLE
  5
1513E
  8
0
 10
4383.156512552219283
 20
247.4546578000270927
 30
0.0
 40
0.0649606298999999
  0
ARC
  5
1513F
  8
0
 10
4383.2923393239198049
 20
247.5767050441567108
 30
0.0
 40
0.0413383414884529
 50
355.4706397710737065
 51
329.548564394212292
  0
CIRCLE
  5
15140
  8
0
 10
4383.292339323907072
 20
247.5767050441536128
 30
0.0
 40
0.0216530092139399
  0
CIRCLE
  5
15141
  8
0
 10
4383.2788849226999446
 20
247.5809447217451975
 30
0.0
 40
0.0551763204570077
  0
CIRCLE
  5
15142
  8
0
 10
4383.2824968042186811
 20
247.5806420520270876
 30
0.0
 40
0.0649606298999999
  0
CIRCLE
  5
15143
  8
0
 10
4383.1604495601677627
 20
247.7046578000270927
 30
0.0
 40
0.0411563807709944
  0
CIRCLE
  5
15144
  8
0
 10
4383.1604495601677627
 20
247.7046578000770012
 30
0.0
 40
0.0215581041939323
  0
CIRCLE
  5
15145
  8
0
 10
4383.1536422993176529
 20
247.7073748924769916
 30
0.0
 40
0.0552777471141772
  0
CIRCLE
  5
15146
  8
0
 10
4383.156512552219283
 20
247.706626304027111
 30
0.0
 40
0.0649606298999999
  0
CIRCLE
  5
15147
  8
0
 10
4383.2923393239188954
 20
247.8306420519770938
 30
0.0
 40
0.0213119783330371
  0
CIRCLE
  5
15148
  8
0
 10
4383.2923393239188954
 20
247.8306420520270024
 30
0.0
 40
0.040686504135729
  0
CIRCLE
  5
15149
  8
0
 10
4383.2788847941046697
 20
247.8334669252216997
 30
0.0
 40
0.05516044617536
  0
CIRCLE
  5
1514A
  8
0
 10
4383.2824968042186811
 20
247.83261055592709
 30
0.0
 40
0.0649606298999999
  0
CIRCLE
  5
1514B
  8
0
 10
4383.16044956011865
 20
247.9585948079271134
 30
0.0
 40
0.0215678845709352
  0
CIRCLE
  5
1514C
  8
0
 10
4383.1604495601386589
 20
247.9585948079250102
 30
0.0
 40
0.0413383415163162
  0
CIRCLE
  5
1514D
  8
0
 10
4383.1537061926492242
 20
247.9600198513352041
 30
0.0
 40
0.0551279453834892
  0
CIRCLE
  5
1514E
  8
0
 10
4383.156512552219283
 20
247.9585948079271134
 30
0.0
 40
0.0649606298999999
  0
CIRCLE
  5
1514F
  8
0
 10
4383.2923393239098004
 20
248.0845790598862948
 30
0.0
 40
0.0216530092329208
  0
CIRCLE
  5
15150
  8
0
 10
4383.2923393239152574
 20
248.0845790599173881
 30
0.0
 40
0.04133834149529
  0
CIRCLE
  5
15151
  8
0
 10
4383.2788497471701703
 20
248.0859144280771034
 30
0.0
 40
0.0553771767259814
  0
CIRCLE
  5
15152
  8
0
 10
4383.2824968042186811
 20
248.0845790599269947
 30
0.0
 40
0.0649606298999999
  0
CIRCLE
  5
15153
  8
0
 10
4383.1604495601677627
 20
248.2105633118270021
 30
0.0
 40
0.0215711450500011
  0
CIRCLE
  5
15154
  8
0
 10
4383.16044956011865
 20
248.2105633118270021
 30
0.0
 40
0.0411812768999997
  0
CIRCLE
  5
15155
  8
0
 10
4383.153692052617771
 20
248.2105633118270021
 30
0.0
 40
0.0552459929000007
  0
CIRCLE
  5
15156
  8
0
 10
4383.156512552219283
 20
248.2105633118270021
 30
0.0
 40
0.0649606298999999
  0
LINE
  5
15157
  8
0
 10
4383.1525755444190509
 20
246.9226761868121969
 30
0.0
 11
4383.1525755444190509
 21
246.9630173660480068
 31
0.0
  0
LINE
  5
15158
  8
0
 10
4383.1525755444190509
 20
247.1767571248643947
 30
0.0
 11
4383.1525755444190509
 21
247.2168104437897114
 31
0.0
  0
LINE
  5
15159
  8
0
 10
4383.1481086970188699
 20
246.9250547583692992
 30
0.0
 11
4383.1481086970188699
 21
246.9606387944909898
 31
0.0
  0
LINE
  5
1515A
  8
0
 10
4383.1481086970188699
 20
247.1791551056917911
 30
0.0
 11
4383.1481086970188699
 21
247.2144124629622866
 31
0.0
  0
ARC
  5
1515B
  8
0
 10
4383.2706857806178959
 20
247.3975711859270064
 30
0.0
 40
0.066403655299961
 50
271.4715529523061264
 51
300.8171245554078155
  0
ARC
  5
1515C
  8
0
 10
4383.2706857806178959
 20
247.3975711859270916
 30
0.0
 40
0.0660944356000176
 50
271.5955315552773754
 51
300.6931459524237198
  0
ARC
  5
1515D
  8
0
 10
4383.2706857806178959
 20
247.527492445727006
 30
0.0
 40
0.0660944356000045
 50
49.0775382917432879
 51
83.4234727585931353
  0
ARC
  5
1515E
  8
0
 10
4383.2706857806178959
 20
247.5274924457270913
 30
0.0
 40
0.066403655299987
 50
49.3294245357202001
 51
83.1715865145923203
  0
ARC
  5
1515F
  8
0
 10
4383.2706857806178959
 20
248.1495396898270087
 30
0.0
 40
0.0664036552999849
 50
270.0419946984258104
 51
306.827902911687886
  0
ARC
  5
15160
  8
0
 10
4383.2706857806178959
 20
248.1495396898270087
 30
0.0
 40
0.0660944355999597
 50
270.0262130931143929
 51
306.8436845169978824
  0
LINE
  5
15161
  8
0
 10
4383.1496892738177849
 20
248.1918675760450128
 30
0.0
 11
4383.1496892738177849
 21
248.2292590476091902
 31
0.0
  0
LINE
  5
15162
  8
0
 10
4383.1481086970188699
 20
248.1928710141955889
 30
0.0
 11
4383.1481086970188699
 21
248.2282556094585004
 31
0.0
  0
LINE
  5
15163
  8
0
 10
4375.9637802688175725
 20
256.9687916584271079
 30
0.0
 11
4383.9559062530188385
 21
256.9687916584271079
 31
0.0
  0
LINE
  5
15164
  8
0
 10
4379.0740164891476525
 20
260.0292247293269838
 30
0.0
 11
4380.845670032689668
 21
260.0292247293269838
 31
0.0
  0
LINE
  5
15165
  8
0
 10
4379.0543314499191183
 20
259.2418231545270828
 30
0.0
 11
4380.8653550719191117
 21
259.2418231545270828
 31
0.0
  0
LINE
  5
15166
  8
0
 10
4379.0346464105186897
 20
220.6394620100149098
 30
0.0
 11
4379.0346464105186897
 21
218.8284362676099875
 31
0.0
  0
LINE
  5
15167
  8
0
 10
4379.0543314499191183
 20
260.0095396900978244
 30
0.0
 11
4379.0543314499191183
 21
259.2615081937564128
 31
0.0
  0
LINE
  5
15168
  8
0
 10
4379.0543314499191183
 20
259.2418231545270828
 30
0.0
 11
4379.0543314499191183
 21
256.9687916584271079
 31
0.0
  0
LINE
  5
15169
  8
0
 10
4379.0543314499191183
 20
256.496350713527022
 30
0.0
 11
4379.0543314499191183
 21
241.3087522883270992
 31
0.0
  0
LINE
  5
1516A
  8
0
 10
4379.0543314499191183
 20
239.4189885088271126
 30
0.0
 11
4379.0543314499191183
 21
220.6591459891270972
 31
0.0
  0
ARC
  5
1516B
  8
0
 10
4379.0740164891476525
 20
260.0095396900978244
 30
0.0
 40
0.0196850392292927
 50
89.9999997942167766
 51
180.0000004968561882
  0
LINE
  5
1516C
  8
0
 10
4379.0543303898039085
 20
218.8087522883270992
 30
0.0
 11
4380.8653561320397785
 21
218.8087522883270992
 31
0.0
  0
LINE
  5
1516D
  8
0
 10
4379.054330389632014
 20
220.6591459891270972
 30
0.0
 11
4380.865356132209854
 21
220.6591459891270972
 31
0.0
  0
ARC
  5
1516E
  8
0
 10
4379.0543303896256475
 20
220.6394620100190025
 30
0.0
 40
0.0196839791080095
 50
89.9999999828036437
 51
180.0000000121758887
  0
ARC
  5
1516F
  8
0
 10
4379.0543303897984515
 20
218.8284362676056958
 30
0.0
 40
0.0196839792787129
 50
179.9999999877964001
 51
270.0000000171963848
  0
LINE
  5
15170
  8
0
 10
4382.1053314499185944
 20
241.2696184301271103
 30
0.0
 11
4382.1053314499185944
 21
240.1948152805977941
 31
0.0
  0
LINE
  5
15171
  8
0
 10
4382.0796070404176135
 20
241.0896971702271117
 30
0.0
 11
4382.0796070404176135
 21
240.1896971702269923
 31
0.0
  0
LINE
  5
15172
  8
0
 10
4382.0582684577184409
 20
241.2890672492684985
 30
0.0
 11
4382.0582684577184409
 21
240.174894020385608
 31
0.0
  0
LINE
  5
15173
  8
0
 10
4382.0596070404189959
 20
241.0896971702271117
 30
0.0
 11
4382.0596070404189959
 21
240.1896971702269923
 31
0.0
  0
LINE
  5
15174
  8
0
 10
4375.9637802688175725
 20
256.5262719734977281
 30
0.0
 11
4375.9637802688175725
 21
256.9687916584271079
 31
0.0
  0
LINE
  5
15175
  8
0
 10
4375.9937015287887334
 20
256.496350713527022
 30
0.0
 11
4383.9259849930476776
 21
256.496350713527022
 31
0.0
  0
ARC
  5
15176
  8
0
 10
4375.9937015287887334
 20
256.5262719734977281
 30
0.0
 40
0.0299212599707091
 50
180.0000001353807022
 51
269.9999996731127112
  0
ARC
  5
15177
  8
0
 10
4379.0740164891476525
 20
259.2615081937564128
 30
0.0
 40
0.0196850392292927
 50
179.9999995031226092
 51
270.0000002057831807
  0
LINE
  5
15178
  8
0
 10
4379.6055125522188973
 20
259.0449727608270223
 30
0.0
 11
4380.3141739696184231
 21
259.0449727608270223
 31
0.0
  0
LINE
  5
15179
  8
0
 10
4379.4848432609178417
 20
259.0320121309271144
 30
0.0
 11
4380.4348432609185693
 21
259.0320121309271144
 31
0.0
  0
LINE
  5
1517A
  8
0
 10
4379.2413393239176003
 20
258.0396578002270189
 30
0.0
 11
4380.6783471979179012
 21
258.0396578002270189
 31
0.0
  0
LINE
  5
1517B
  8
0
 10
4379.2413393239176003
 20
256.9687916584271079
 30
0.0
 11
4379.2413393239176003
 21
258.0396578002270189
 31
0.0
  0
ARC
  5
1517C
  8
0
 10
4379.4848432609178417
 20
259.0120121309270758
 30
0.0
 40
0.0199999999999999
 50
89.9999894002626064
 51
180.0
  0
LINE
  5
1517D
  8
0
 10
4379.4648432609192241
 20
259.0120121309270758
 30
0.0
 11
4379.4648432609192241
 21
258.4938353376271039
 31
0.0
  0
ARC
  5
1517E
  8
0
 10
4379.6948432609187876
 20
258.4938353376271039
 30
0.0
 40
0.2299999999999995
 50
180.0
 51
247.4596895364923057
  0
ARC
  5
1517F
  8
0
 10
4379.5798430341783387
 20
258.2167517712616132
 30
0.0
 40
0.0700005915001253
 50
309.4539073349185969
 51
67.4596895364923341
  0
ARC
  5
15180
  8
0
 10
4379.9598653597022349
 20
257.7549914791783863
 30
0.0
 40
0.5280291195027244
 50
129.4539073349185969
 51
147.3768568941572141
  0
LINE
  5
15181
  8
0
 10
4379.6251975916184165
 20
259.2418231545270828
 30
0.0
 11
4379.6251975916184165
 21
259.0449727608270223
 31
0.0
  0
LINE
  5
15182
  8
0
 10
4379.6055125522188973
 20
259.0449727608270223
 30
0.0
 11
4379.5925519223192168
 21
259.0320121309271144
 31
0.0
  0
LINE
  5
15183
  8
0
 10
4379.7669702456187224
 20
258.8578699951270892
 30
0.0
 11
4379.7669702457187668
 21
258.4938353376271039
 31
0.0
  0
ARC
  5
15184
  8
0
 10
4379.9598646345748421
 20
258.6617339980113002
 30
0.0
 40
0.294389833860169
 50
249.9121581864233974
 51
290.0878418135765742
  0
ARC
  5
15185
  8
0
 10
4379.8634711669647004
 20
258.4952779920901094
 30
0.0
 40
0.0965117042290883
 50
180.8564877308176051
 51
219.0061269428030926
  0
ARC
  5
15186
  8
0
 10
4379.9097972728777677
 20
258.5328003361050264
 30
0.0
 40
0.1561274268985123
 50
219.0061269428030926
 51
250.9170081766037868
  0
ARC
  5
15187
  8
0
 10
4379.770048938356922
 20
258.8576440218830044
 30
0.0
 40
0.0030869747131577
 50
149.0159480774669021
 51
175.8020698280485021
  0
ARC
  5
15188
  8
0
 10
4379.7745791645565987
 20
258.8533583624792982
 30
0.0
 40
0.0092746428375889
 50
115.6943243653134061
 51
140.6963998089406971
  0
ARC
  5
15189
  8
0
 10
4379.7888623083608763
 20
258.8207467105743831
 30
0.0
 40
0.0448723300419417
 50
99.9725056695987462
 51
114.0742786796319024
  0
LINE
  5
1518A
  8
0
 10
4378.8775126976688625
 20
241.3087522883270992
 30
0.0
 11
4382.0385834186599823
 21
241.3087522883270992
 31
0.0
  0
LINE
  5
1518B
  8
0
 10
4378.8578306565177627
 20
241.2887236977271073
 30
0.0
 11
4378.8901293987191821
 21
239.4383299969271093
 31
0.0
  0
LINE
  5
1518C
  8
0
 10
4378.9098114398666439
 20
239.4189885088271126
 30
0.0
 11
4381.0098750819706765
 21
239.4189885088271126
 31
0.0
  0
ARC
  5
1518D
  8
0
 10
4378.9098114398666439
 20
239.4386735480993025
 30
0.0
 40
0.0196850392722113
 50
180.999999610203588
 51
270.0000001521618174
  0
ARC
  5
1518E
  8
0
 10
4378.8775126976688625
 20
241.2890672490495945
 30
0.0
 40
0.0196850392774586
 50
89.9999995644107855
 51
181.0000000475558863
  0
LINE
  5
1518F
  8
0
 10
4381.1194480375188505
 20
240.1552089813270925
 30
0.0
 11
4382.0385834186599823
 21
240.1552089813270925
 31
0.0
  0
ARC
  5
15190
  8
0
 10
4382.0385834186599823
 20
241.2890672492684985
 30
0.0
 40
0.0196850390585795
 50
359.9999992973134226
 51
90.0000007027061457
  0
ARC
  5
15191
  8
0
 10
4382.0385834186599823
 20
240.174894020385608
 30
0.0
 40
0.0196850390585812
 50
269.9999992973458802
 51
0.0000007026866122
  0
LINE
  5
15192
  8
0
 10
4382.0582684577184409
 20
241.0046971702271037
 30
0.0
 11
4382.0596070404189959
 21
241.0046971702271037
 31
0.0
  0
LINE
  5
15193
  8
0
 10
4382.0596070404189959
 20
241.0896971702271117
 30
0.0
 11
4382.0796070404176135
 21
241.0896971702271117
 31
0.0
  0
LINE
  5
15194
  8
0
 10
4382.1447015286194073
 20
241.3089885088270137
 30
0.0
 11
4383.5817069815193463
 21
241.3089885088270137
 31
0.0
  0
LINE
  5
15195
  8
0
 10
4379.7559818910176546
 20
258.0396578002270189
 30
0.0
 11
4379.7559818910176546
 21
257.5672168553269898
 31
0.0
  0
LINE
  5
15196
  8
0
 10
4379.7559818910176546
 20
257.5672168553269898
 30
0.0
 11
4380.1637046307178025
 21
257.5672168553269898
 31
0.0
  0
LINE
  5
15197
  8
0
 10
4376.7027403017191318
 20
256.496350713527022
 30
0.0
 11
4376.709074084617896
 21
256.4530841823270748
 31
0.0
  0
ARC
  5
15198
  8
0
 10
4376.7168650318708387
 20
256.454224698266728
 30
0.0
 40
0.0078739847413543
 50
188.3283669787095107
 51
270.0012024353350739
  0
LINE
  5
15199
  8
0
 10
4376.7168651971187501
 20
256.4463507135271243
 30
0.0
 11
4376.8091205372193144
 21
256.4463507135271243
 31
0.0
  0
ARC
  5
1519A
  8
0
 10
4376.8091205372193144
 20
256.4542248895851912
 30
0.0
 40
0.0078741760581451
 50
270.0
 51
351.6704298583214836
  0
LINE
  5
1519B
  8
0
 10
4376.8169116498193034
 20
256.4530841823270748
 30
0.0
 11
4376.8232454326189327
 21
256.496350713527022
 31
0.0
  0
LINE
  5
1519C
  8
0
 10
4377.501952900219294
 20
256.496350713527022
 30
0.0
 11
4377.5082866831189676
 21
256.4530841823270748
 31
0.0
  0
ARC
  5
1519D
  8
0
 10
4377.5160776303719103
 20
256.454224698266728
 30
0.0
 40
0.0078739847413543
 50
188.3283669787095107
 51
270.0012024353350739
  0
LINE
  5
1519E
  8
0
 10
4377.5160777956180027
 20
256.4463507135271243
 30
0.0
 11
4377.6083331357176576
 21
256.4463507135271243
 31
0.0
  0
ARC
  5
1519F
  8
0
 10
4377.6083331357176576
 20
256.4542248895851912
 30
0.0
 40
0.0078741760581451
 50
270.0
 51
351.6704298583214836
  0
LINE
  5
151A0
  8
0
 10
4377.6161242483176466
 20
256.4530841823270748
 30
0.0
 11
4377.6224580311190948
 21
256.496350713527022
 31
0.0
  0
LINE
  5
151A1
  8
0
 10
4378.3011654986175927
 20
256.496350713527022
 30
0.0
 11
4378.3074992815190853
 21
256.4530841823270748
 31
0.0
  0
ARC
  5
151A2
  8
0
 10
4378.3152902287720281
 20
256.454224698266728
 30
0.0
 40
0.0078739847413543
 50
188.3283669787095107
 51
270.0012024353350739
  0
LINE
  5
151A3
  8
0
 10
4378.3152903940190299
 20
256.4463507135271243
 30
0.0
 11
4378.4075457341186848
 21
256.4463507135271243
 31
0.0
  0
ARC
  5
151A4
  8
0
 10
4378.4075457341186848
 20
256.4542248895851912
 30
0.0
 40
0.0078741760581451
 50
270.0
 51
351.6704298583214836
  0
LINE
  5
151A5
  8
0
 10
4378.4153368467177643
 20
256.4530841823270748
 30
0.0
 11
4378.4216706295192125
 21
256.496350713527022
 31
0.0
  0
LINE
  5
151A6
  8
0
 10
4379.1003780970177104
 20
256.496350713527022
 30
0.0
 11
4379.1067118799192031
 21
256.4530841823270748
 31
0.0
  0
ARC
  5
151A7
  8
0
 10
4379.1145028271721458
 20
256.454224698266728
 30
0.0
 40
0.0078739847413543
 50
188.3283669787095107
 51
270.0012024353350739
  0
LINE
  5
151A8
  8
0
 10
4379.1145029924191476
 20
256.4463507135271243
 30
0.0
 11
4379.2067583325188025
 21
256.4463507135271243
 31
0.0
  0
ARC
  5
151A9
  8
0
 10
4379.2067583325188025
 20
256.4542248895851912
 30
0.0
 40
0.0078741760581451
 50
270.0
 51
351.6704298583214836
  0
LINE
  5
151AA
  8
0
 10
4379.214549445117882
 20
256.4530841823270748
 30
0.0
 11
4379.2208832279184207
 21
256.496350713527022
 31
0.0
  0
ARC
  5
151AB
  8
0
 10
4382.1447015286194073
 20
241.2696184301271103
 30
0.0
 40
0.0393700786999975
 50
90.0
 51
180.0000000000015916
  0
ARC
  5
151AC
  8
0
 10
4383.5106306625184516
 20
240.2496971702269946
 30
0.0
 40
2.2699999999999849
 50
182.3856118914762874
 51
203.4787538887989058
  0
ARC
  5
151AD
  8
0
 10
4381.4102740931666631
 20
239.3373620850944121
 30
0.0
 40
0.0199460749066101
 50
293.8242658637605018
 51
23.4787538887988809
  0
LINE
  5
151AE
  8
0
 10
4381.418330966317626
 20
239.3191156416270076
 30
0.0
 11
4381.3817814795183949
 21
239.3028597117269953
 31
0.0
  0
ARC
  5
151AF
  8
0
 10
4381.3736537524646337
 20
239.3211339202456998
 30
0.0
 40
0.0200001661003194
 50
203.2479847011572076
 51
293.9778207094208256
  0
ARC
  5
151B0
  8
0
 10
4383.5106306625184516
 20
240.2496971702269946
 30
0.0
 40
2.350000000000001
 50
182.3043549819520877
 51
203.4839756995015989
  0
ARC
  5
151B1
  8
0
 10
4381.1194480295189351
 20
240.0764688238270139
 30
0.0
 40
0.0787401574999973
 50
89.9999941787686737
 51
179.0000000000009948
  0
LINE
  5
151B2
  8
0
 10
4382.0796070404176135
 20
240.9846971702270935
 30
0.0
 11
4382.1053314499185944
 21
240.9846971702270935
 31
0.0
  0
LINE
  5
151B3
  8
0
 10
4382.0796070404176135
 20
240.2946971702270105
 30
0.0
 11
4382.1053314499185944
 21
240.2946971702270105
 31
0.0
  0
LINE
  5
151B4
  8
0
 10
4382.0796070404176135
 20
240.8914275802270879
 30
0.0
 11
4382.1053314499185944
 21
240.8914275802270879
 31
0.0
  0
LINE
  5
151B5
  8
0
 10
4382.0796070404176135
 20
240.3879667603270889
 30
0.0
 11
4382.1053314499185944
 21
240.3879667603270889
 31
0.0
  0
LINE
  5
151B6
  8
0
 10
4383.4774015339953621
 20
241.3089885088270137
 30
0.0
 11
4383.4130970332180368
 21
240.0821729323270972
 31
0.0
  0
LINE
  5
151B7
  8
0
 10
4383.4045667748177948
 20
241.2693794289270102
 30
0.0
 11
4383.3980424377177769
 21
240.1945762794269967
 31
0.0
  0
LINE
  5
151B8
  8
0
 10
4382.1447015287885733
 20
240.1554452017271046
 30
0.0
 11
4383.3586700053492677
 21
240.1554452017271046
 31
0.0
  0
LINE
  5
151B9
  8
0
 10
4382.0596070404189959
 20
240.1896971702269923
 30
0.0
 11
4382.0796070404176135
 21
240.1896971702269923
 31
0.0
  0
ARC
  5
151BA
  8
0
 10
4382.1447015287885733
 20
240.1948152805977941
 30
0.0
 40
0.0393700788707117
 50
180.0000001029046075
 51
269.9999997515384962
  0
LINE
  5
151BB
  8
0
 10
4382.0582684577184409
 20
240.2496971702269946
 30
0.0
 11
4382.0596070404189959
 21
240.2496971702269946
 31
0.0
  0
ARC
  5
151BC
  8
0
 10
4383.3586666204510038
 20
240.1948217841915039
 30
0.0
 40
0.0393765826099011
 50
270.0049252878113748
 51
359.6427704728733943
  0
ARC
  5
151BD
  8
0
 10
4383.365189260041916
 20
241.2696115416918019
 30
0.0
 40
0.0393781988707623
 50
359.662271023398489
 51
89.5468212119611167
  0
LINE
  5
151BE
  8
0
 10
4379.7039377491191772
 20
218.8087522883270992
 30
0.0
 11
4379.7039377491191772
 21
218.5823743356270938
 31
0.0
  0
LINE
  5
151BF
  8
0
 10
4380.3633865680176314
 20
218.5823743356270938
 30
0.0
 11
4379.5562999538187796
 21
218.5823743356270938
 31
0.0
  0
LINE
  5
151C0
  8
0
 10
4379.5562999538187796
 20
218.5823743356270938
 30
0.0
 11
4379.5464574341185653
 21
218.5725318159271069
 31
0.0
  0
LINE
  5
151C1
  8
0
 10
4379.5464574341185653
 20
218.5725318159271069
 30
0.0
 11
4379.5464574341185653
 21
218.1965475639271119
 31
0.0
  0
LINE
  5
151C2
  8
0
 10
4380.4125991664177491
 20
218.1965475639271119
 30
0.0
 11
4379.5070873554186619
 21
218.1965475639271119
 31
0.0
  0
LINE
  5
151C3
  8
0
 10
4379.5070873554186619
 20
218.1965475639271119
 30
0.0
 11
4379.5774554703175454
 21
216.8538439453270996
 31
0.0
  0
ARC
  5
151C4
  8
0
 10
4379.6560877171041284
 20
216.8579648867618914
 30
0.0
 40
0.0787401574348865
 50
183.000000000588301
 51
270.0000000104220135
  0
LINE
  5
151C5
  8
0
 10
4379.6560877171177708
 20
216.7792247293270123
 30
0.0
 11
4380.2635988047177307
 21
216.7792247293270123
 31
0.0
  0
LINE
  5
151C6
  8
0
 10
4379.6686724413184493
 20
216.7792247293270123
 30
0.0
 11
4379.6686724413184493
 21
215.9918231545271112
 31
0.0
  0
LINE
  5
151C7
  8
0
 10
4379.5464574341185653
 20
218.5725318159271069
 30
0.0
 11
4380.3732290877187552
 21
218.5725318159271069
 31
0.0
  0
ARC
  5
151C8
  8
0
 10
4379.959843260919115
 20
231.2210226850374966
 30
0.0
 40
12.4071167471104697
 50
268.9999934843701226
 51
271.0000065156298774
  0
ARC
  5
151C9
  8
0
 10
4379.959843260919115
 20
206.4105685680343925
 30
0.0
 40
12.4071167470926795
 50
88.9999934843700657
 51
91.0000065156299485
  0
LINE
  5
151CA
  8
0
 10
4380.8850401113177213
 20
220.6394620100149098
 30
0.0
 11
4380.8850401113177213
 21
218.8284362676099875
 31
0.0
  0
LINE
  5
151CB
  8
0
 10
4380.8653550719191117
 20
260.0095396900978244
 30
0.0
 11
4380.8653550719191117
 21
259.2615081937564128
 31
0.0
  0
LINE
  5
151CC
  8
0
 10
4380.8653550719191117
 20
259.2418231545270828
 30
0.0
 11
4380.8653550719191117
 21
256.9687916584271079
 31
0.0
  0
LINE
  5
151CD
  8
0
 10
4380.8653550719191117
 20
256.496350713527022
 30
0.0
 11
4380.8653550719191117
 21
241.3087522883270992
 31
0.0
  0
LINE
  5
151CE
  8
0
 10
4380.8653550719191117
 20
239.4189885088271126
 30
0.0
 11
4380.8653550719191117
 21
220.6591459891270972
 31
0.0
  0
ARC
  5
151CF
  8
0
 10
4380.845670032689668
 20
260.0095396900978244
 30
0.0
 40
0.0196850392292927
 50
359.9999995031437834
 51
90.0000002057832091
  0
ARC
  5
151D0
  8
0
 10
4380.865356132209854
 20
220.6394620100190025
 30
0.0
 40
0.0196839791080095
 50
359.9999999878224912
 51
90.0000000171963705
  0
ARC
  5
151D1
  8
0
 10
4380.8653561320397785
 20
218.8284362676056958
 30
0.0
 40
0.0196839792787129
 50
269.9999999828036152
 51
0.0000000122035593
  0
LINE
  5
151D2
  8
0
 10
4383.9559062530188385
 20
256.5262719734977281
 30
0.0
 11
4383.9559062530188385
 21
256.9687916584271079
 31
0.0
  0
ARC
  5
151D3
  8
0
 10
4383.9259849930476776
 20
256.5262719734977281
 30
0.0
 40
0.0299212599707091
 50
270.0000003268872888
 51
359.9999998646193262
  0
ARC
  5
151D4
  8
0
 10
4380.845670032689668
 20
259.2615081937564128
 30
0.0
 40
0.0196850392292927
 50
269.9999997942168193
 51
0.0000004968773461
  0
LINE
  5
151D5
  8
0
 10
4380.6783471979179012
 20
256.9687916584271079
 30
0.0
 11
4380.6783471979179012
 21
258.0396578002270189
 31
0.0
  0
ARC
  5
151D6
  8
0
 10
4380.4348432609185693
 20
259.0120121309270758
 30
0.0
 40
0.0199999999999999
 50
0.0
 51
90.0000105997373936
  0
LINE
  5
151D7
  8
0
 10
4380.4548432609190058
 20
259.0120121309270758
 30
0.0
 11
4380.4548432609190058
 21
258.4938353376271039
 31
0.0
  0
ARC
  5
151D8
  8
0
 10
4380.2248432609176234
 20
258.4938353376271039
 30
0.0
 40
0.2299999999999995
 50
292.5403104635075806
 51
0.0
  0
ARC
  5
151D9
  8
0
 10
4380.3398434876598913
 20
258.2167517712616132
 30
0.0
 40
0.0700005915001286
 50
112.5403104635075948
 51
230.5460926650792999
  0
ARC
  5
151DA
  8
0
 10
4379.9598211621359951
 20
257.7549914791785
 30
0.0
 40
0.5280291195025085
 50
32.6231431058414003
 51
50.5460926650823978
  0
LINE
  5
151DB
  8
0
 10
4380.294488930218904
 20
259.2418231545270828
 30
0.0
 11
4380.294488930218904
 21
259.0449727608270223
 31
0.0
  0
LINE
  5
151DC
  8
0
 10
4380.3141739696184231
 20
259.0449727608270223
 30
0.0
 11
4380.3271345995190131
 21
259.0320121309271144
 31
0.0
  0
LINE
  5
151DD
  8
0
 10
4380.1527162762176886
 20
258.8578699951270892
 30
0.0
 11
4380.1527162761185537
 21
258.4938353376271039
 31
0.0
  0
ARC
  5
151DE
  8
0
 10
4380.0562153548717106
 20
258.4952779920901094
 30
0.0
 40
0.0965117042290883
 50
320.993873057196879
 51
359.1435122691806896
  0
ARC
  5
151DF
  8
0
 10
4380.0098892489595528
 20
258.5328003361050264
 30
0.0
 40
0.1561274268985123
 50
289.0829918233961848
 51
320.993873057196879
  0
ARC
  5
151E0
  8
0
 10
4380.149637583481308
 20
258.8576440218830044
 30
0.0
 40
0.0030869747131577
 50
4.1979301719514792
 51
30.9840519225330517
  0
ARC
  5
151E1
  8
0
 10
4380.1451073572798123
 20
258.8533583624792982
 30
0.0
 40
0.0092746428375889
 50
39.3036001910592887
 51
64.3056756346865654
  0
ARC
  5
151E2
  8
0
 10
4380.1308242134773536
 20
258.8207467105743831
 30
0.0
 40
0.0448723300419417
 50
65.9257213203680408
 51
80.0274943304012538
  0
LINE
  5
151E3
  8
0
 10
4381.0618558653177388
 20
241.2887236977271073
 30
0.0
 11
4381.0295571231190479
 21
239.4383299969271093
 31
0.0
  0
ARC
  5
151E4
  8
0
 10
4381.0098750819706765
 20
239.4386735480993025
 30
0.0
 40
0.0196850392722113
 50
269.9999998478381826
 51
359.0000003897962984
  0
ARC
  5
151E5
  8
0
 10
4381.0421738241693674
 20
241.2890672490495945
 30
0.0
 40
0.0196850392774586
 50
358.9999999524441137
 51
90.0000004355892287
  0
LINE
  5
151E6
  8
0
 10
4380.1637046308187564
 20
258.0396578002270189
 30
0.0
 11
4380.1637046308187564
 21
257.5672168553269898
 31
0.0
  0
LINE
  5
151E7
  8
0
 10
4383.2169462201190981
 20
256.496350713527022
 30
0.0
 11
4383.2106124372194245
 21
256.4530841823270748
 31
0.0
  0
ARC
  5
151E8
  8
0
 10
4383.2028214899646628
 20
256.454224698266728
 30
0.0
 40
0.0078739847413543
 50
269.9987975646649261
 51
351.671633021290404
  0
LINE
  5
151E9
  8
0
 10
4383.2028213247176609
 20
256.4463507135271243
 30
0.0
 11
4383.110565984618006
 21
256.4463507135271243
 31
0.0
  0
ARC
  5
151EA
  8
0
 10
4383.110565984618006
 20
256.4542248895851912
 30
0.0
 40
0.0078741760581451
 50
188.3295701416784027
 51
270.0
  0
LINE
  5
151EB
  8
0
 10
4383.1027748720189265
 20
256.4530841823270748
 30
0.0
 11
4383.0964410892192973
 21
256.496350713527022
 31
0.0
  0
LINE
  5
151EC
  8
0
 10
4382.4177336216180265
 20
256.496350713527022
 30
0.0
 11
4382.4113998387183528
 21
256.4530841823270748
 31
0.0
  0
ARC
  5
151ED
  8
0
 10
4382.4036088914672291
 20
256.454224698266728
 30
0.0
 40
0.0078739847413543
 50
269.9987975646649261
 51
351.671633021290404
  0
LINE
  5
151EE
  8
0
 10
4382.4036087262193178
 20
256.4463507135271243
 30
0.0
 11
4382.3113533861187534
 21
256.4463507135271243
 31
0.0
  0
ARC
  5
151EF
  8
0
 10
4382.3113533861187534
 20
256.4542248895851912
 30
0.0
 40
0.0078741760581451
 50
188.3295701416784027
 51
270.0
  0
LINE
  5
151F0
  8
0
 10
4382.3035622735187644
 20
256.4530841823270748
 30
0.0
 11
4382.2972284907200446
 21
256.496350713527022
 31
0.0
  0
LINE
  5
151F1
  8
0
 10
4381.6185210232188183
 20
256.496350713527022
 30
0.0
 11
4381.6121872403191446
 21
256.4530841823270748
 31
0.0
  0
ARC
  5
151F2
  8
0
 10
4381.6043962930662019
 20
256.454224698266728
 30
0.0
 40
0.0078739847413543
 50
269.9987975646649261
 51
351.671633021290404
  0
LINE
  5
151F3
  8
0
 10
4381.6043961278182906
 20
256.4463507135271243
 30
0.0
 11
4381.5121407877186357
 21
256.4463507135271243
 31
0.0
  0
ARC
  5
151F4
  8
0
 10
4381.5121407877186357
 20
256.4542248895851912
 30
0.0
 40
0.0078741760581451
 50
188.3295701416784027
 51
270.0
  0
LINE
  5
151F5
  8
0
 10
4381.5043496751177372
 20
256.4530841823270748
 30
0.0
 11
4381.4980158923190174
 21
256.496350713527022
 31
0.0
  0
LINE
  5
151F6
  8
0
 10
4380.8193084248177911
 20
256.496350713527022
 30
0.0
 11
4380.8129746419181174
 21
256.4530841823270748
 31
0.0
  0
ARC
  5
151F7
  8
0
 10
4380.8051836946660842
 20
256.454224698266728
 30
0.0
 40
0.0078739847413543
 50
269.9987975646649261
 51
351.671633021290404
  0
LINE
  5
151F8
  8
0
 10
4380.8051835294190823
 20
256.4463507135271243
 30
0.0
 11
4380.7129281893194275
 21
256.4463507135271243
 31
0.0
  0
ARC
  5
151F9
  8
0
 10
4380.7129281893194275
 20
256.4542248895851912
 30
0.0
 40
0.0078741760581451
 50
188.3295701416784027
 51
270.0
  0
LINE
  5
151FA
  8
0
 10
4380.7051370767176195
 20
256.4530841823270748
 30
0.0
 11
4380.6988032939188997
 21
256.496350713527022
 31
0.0
  0
LINE
  5
151FB
  8
0
 10
4380.2157487727190528
 20
218.8087522883270992
 30
0.0
 11
4380.2157487727190528
 21
218.5823743356270938
 31
0.0
  0
LINE
  5
151FC
  8
0
 10
4380.3633865680176314
 20
218.5823743356270938
 30
0.0
 11
4380.3732290877187552
 21
218.5725318159271069
 31
0.0
  0
LINE
  5
151FD
  8
0
 10
4380.3732290877187552
 20
218.5725318159271069
 30
0.0
 11
4380.3732290877187552
 21
218.1965475639271119
 31
0.0
  0
LINE
  5
151FE
  8
0
 10
4380.4125991664177491
 20
218.1965475639271119
 30
0.0
 11
4380.3422310515179561
 21
216.8538439453270996
 31
0.0
  0
ARC
  5
151FF
  8
0
 10
4380.2635988047341016
 20
216.8579648867618914
 30
0.0
 40
0.0787401574348865
 50
269.9999999895778728
 51
356.999999999410079
  0
LINE
  5
15200
  8
0
 10
4380.2510140805188712
 20
216.7792247293270123
 30
0.0
 11
4380.2510140805188712
 21
215.9918231545271112
 31
0.0
  0
ARC
  5
15201
  8
0
 10
4383.6046099768591375
 20
215.9322131633796005
 30
0.0
 40
3.9363889079609691
 50
179.1323185946374963
 51
190.3341448567861107
  0
ARC
  5
15202
  8
0
 10
4382.3041264491275797
 20
216.1100022870097064
 30
0.0
 40
2.798796602082652
 50
232.4863745276960003
 51
307.5136254723039997
  0
ARC
  5
15203
  8
0
 10
4381.7485903293527372
 20
215.5858691393368929
 30
0.0
 40
2.0483616619658291
 50
190.1166064941967875
 51
235.8864915393459967
  0
ARC
  5
15204
  8
0
 10
4382.3120630507801252
 20
215.9931676368246087
 30
0.0
 40
2.0997828045563312
 50
244.8250379624894038
 51
295.174962037510511
  0
ARC
  5
15205
  8
0
 10
4383.7781350495906736
 20
215.9463192865206906
 30
0.0
 40
3.5274144826595961
 50
179.2608603504492066
 51
189.6205364679348122
  0
ARC
  5
15206
  8
0
 10
4381.7492627628989794
 20
215.5894049741687013
 30
0.0
 40
1.467483611423783
 50
189.1197866839212907
 51
217.4899045366715882
  0
ARC
  5
15207
  8
0
 10
4382.2293152650699994
 20
216.0909781562656065
 30
0.0
 40
2.156252233747793
 50
220.3025624090662973
 51
247.9220383331924893
  0
ARC
  5
15208
  8
0
 10
4375.350342914725843
 20
218.6695672569854878
 30
0.0
 40
10.6424966423934197
 50
349.8343946507076794
 51
10.16560534929231
  0
ARC
  5
15209
  8
0
 10
4381.0833632001358637
 20
217.7420211079030139
 30
0.0
 40
4.8367789689281748
 50
307.2115767681332272
 51
348.6632579699747794
  0
ARC
  5
1520A
  8
0
 10
4375.4448249584811492
 20
218.6928867988125944
 30
0.0
 40
9.9671015788711905
 50
349.1919266322381077
 51
10.8080733677619296
  0
ARC
  5
1520B
  8
0
 10
4380.9336285287417923
 20
217.794309576974797
 30
0.0
 40
4.4096021345326664
 50
321.1118348197767887
 51
347.2864589902637817
  0
ARC
  5
1520C
  8
0
 10
4381.6483647764725902
 20
217.2178338430846054
 30
0.0
 40
3.4913580626300429
 50
296.4830506872930869
 51
321.1118348197767887
  0
ARC
  5
1520D
  8
0
 10
4294.73688681809017
 20
206.295907830365195
 30
0.0
 40
92.1970940630739761
 50
8.892544326010686
 51
10.5763205968993308
  0
ARC
  5
1520E
  8
0
 10
4033.9344836616342036
 20
161.2548979863483112
 30
0.0
 40
356.2716074852243082
 50
9.5823929024316108
 51
10.05780226960478
  0
ARC
  5
1520F
  8
0
 10
3987.9326285408328658
 20
159.170123459632407
 30
0.0
 40
401.9750973412936901
 50
9.2052506045184437
 51
10.3331839945442603
  0
ARC
  5
15210
  8
0
 10
3874.9842494988238286
 20
139.5205172831489051
 30
0.0
 40
517.2006812530603383
 50
9.3130342280698581
 51
10.22273327034471
  0
ARC
  5
15211
  8
0
 10
4445.0054297093283822
 20
243.8858479466796041
 30
0.0
 40
62.312956154158492
 50
189.4832126471193021
 51
191.6424897659694864
  0
ARC
  5
15212
  8
0
 10
4465.76093331301945
 20
247.8761509928312137
 30
0.0
 40
84.0292911021978455
 50
190.0290460300959978
 51
191.3957816536594123
  0
ARC
  5
15213
  8
0
 10
4399.3133600813443991
 20
236.2613431521824054
 30
0.0
 40
16.5749194871577394
 50
180.6594976850597902
 51
190.4934461184440124
  0
ARC
  5
15214
  8
0
 10
4398.9187265740247312
 20
236.2484130037954912
 30
0.0
 40
15.5978603223228998
 50
180.6533112445673055
 51
189.7040547949169138
  0
LINE
  5
15215
  8
0
 10
4383.3218802222190789
 20
236.0705633120271045
 30
0.0
 11
4383.3218802222190789
 21
240.0075770442552141
 31
0.0
  0
LINE
  5
15216
  8
0
 10
4382.7395385830186569
 20
236.0705633120271045
 30
0.0
 11
4382.7395385830186569
 21
240.0075770442552141
 31
0.0
  0
ARC
  5
15217
  8
0
 10
4383.0307094026184132
 20
231.6668624303412969
 30
0.0
 40
8.3457953915095793
 50
88.0006404979259003
 51
91.9993595020740855
  0
ARC
  5
15218
  8
0
 10
4383.333573776774756
 20
240.0866922752406083
 30
0.0
 40
0.0796515710811496
 50
275.1924613597157077
 51
356.7473534135172031
  0
ARC
  5
15219
  8
0
 10
4383.3064200095041087
 20
240.3349180346139917
 30
0.0
 40
0.3293479604703235
 50
272.690560398313778
 51
275.9888261264806033
  0
LINE
  5
1521A
  8
0
 10
4382.6444811485189348
 20
240.1554452017271046
 30
0.0
 11
4382.6483217720187895
 21
240.0821729323270972
 31
0.0
  0
ARC
  5
1521B
  8
0
 10
4382.7275032315128556
 20
240.0863232906629889
 30
0.0
 40
0.0792901570305256
 50
183.0004574221397036
 51
265.7824002095238143
  0
ARC
  5
1521C
  8
0
 10
4382.7521520565378523
 20
240.3011499851519943
 30
0.0
 40
0.295478430189199
 50
264.0791007486141098
 51
267.5533968013339177
  0
LINE
  5
1521D
  8
0
 10
4380.020095826317629
 20
256.496350713527022
 30
0.0
 11
4380.0137620434188648
 21
256.4530841823270748
 31
0.0
  0
ARC
  5
1521E
  8
0
 10
4380.0059710961659221
 20
256.454224698266728
 30
0.0
 40
0.0078739847413543
 50
269.9987975646649261
 51
351.671633021290404
  0
LINE
  5
1521F
  8
0
 10
4380.0059709309189202
 20
256.4463507135271243
 30
0.0
 11
4379.9137155908192653
 21
256.4463507135271243
 31
0.0
  0
ARC
  5
15220
  8
0
 10
4379.9137155908192653
 20
256.4542248895851912
 30
0.0
 40
0.0078741760581451
 50
188.3295701416784027
 51
270.0
  0
LINE
  5
15221
  8
0
 10
4379.9059244782192764
 20
256.4530841823270748
 30
0.0
 11
4379.8995906954178281
 21
256.496350713527022
 31
0.0
  0
ARC
  5
15222
  8
0
 10
4379.959843260919115
 20
258.4140726893762121
 30
0.0
 40
0.4850097695663552
 50
68.3736030836561213
 51
111.6263969163438929
  0
LINE
  5
15223
  8
0
 10
4379.6066765942523489
 20
258.2814050222553988
 30
0.0
 11
4380.3130099275849716
 21
258.2814050222553988
 31
0.0
  0
LINE
  5
15224
  8
0
 10
4380.2953611031216496
 20
258.1627017918335127
 30
0.0
 11
4379.6243254187156708
 21
258.1627017918335127
 31
0.0
  0
ENDSEC
  0
EOF
