  0
SECTION
  2
HEADER
  9
$ACADVER
  1
AC1009
  9
$INSBASE
 10
413.8694273838841013
 20
67.5137378183870851
 30
0.0
  9
$EXTMIN
 10
391.3471579174125736
 20
29.7962678755017087
 30
-0.0015258207003583
  9
$EXTMAX
 10
413.8928156838009045
 20
91.0687773353502052
 30
0.0000000349246037
  9
$LIMMIN
 10
0.0
 20
0.0
  9
$LIMMAX
 10
11.6929133858000007
 20
8.2677165353999982
  9
$ORTHOMODE
 70
     0
  9
$REGENMODE
 70
     1
  9
$FILLMODE
 70
     1
  9
$QTEXTMODE
 70
     0
  9
$MIRRTEXT
 70
     0
  9
$DRAGMODE
 70
     2
  9
$LTSCALE
 40
0.6431102362
  9
$OSMODE
 70
  2047
  9
$ATTMODE
 70
     1
  9
$TEXTSIZE
 40
0.2
  9
$TRACEWID
 40
0.05
  9
$TEXTSTYLE
  7
STANDARD
  9
$CLAYER
  8
0
  9
$CELTYPE
  6
BYLAYER
  9
$CECOLOR
 62
   256
  9
$DIMSCALE
 40
1.0
  9
$DIMASZ
 40
0.1875
  9
$DIMEXO
 40
0.0625
  9
$DIMDLI
 40
0.4443307087
  9
$DIMRND
 40
0.0
  9
$DIMDLE
 40
0.0
  9
$DIMEXE
 40
0.125
  9
$DIMTP
 40
0.01
  9
$DIMTM
 40
0.01
  9
$DIMTXT
 40
1.0
  9
$DIMCEN
 40
0.1052362205
  9
$DIMTSZ
 40
0.0
  9
$DIMTOL
 70
     1
  9
$DIMLIM
 70
     0
  9
$DIMTIH
 70
     0
  9
$DIMTOH
 70
     1
  9
$DIMSE1
 70
     0
  9
$DIMSE2
 70
     0
  9
$DIMTAD
 70
     0
  9
$DIMZIN
 70
     0
  9
$DIMBLK
  1

  9
$DIMASO
 70
     1
  9
$DIMSHO
 70
     1
  9
$DIMPOST
  1
\X
  9
$DIMAPOST
  1

  9
$DIMALT
 70
     1
  9
$DIMALTD
 70
     2
  9
$DIMALTF
 40
25.3999999999999986
  9
$DIMLFAC
 40
1.0
  9
$DIMTOFL
 70
     0
  9
$DIMTVP
 40
0.0
  9
$DIMTIX
 70
     0
  9
$DIMSOXD
 70
     0
  9
$DIMSAH
 70
     0
  9
$DIMBLK1
  1

  9
$DIMBLK2
  1

  9
$DIMSTYLE
  2
STANDARD
  9
$DIMCLRD
 70
     0
  9
$DIMCLRE
 70
     0
  9
$DIMCLRT
 70
     0
  9
$DIMTFAC
 40
1.0
  9
$DIMGAP
 40
0.09
  9
$LUNITS
 70
     2
  9
$LUPREC
 70
     4
  9
$SKETCHINC
 40
0.1
  9
$FILLETRAD
 40
0.0
  9
$AUNITS
 70
     0
  9
$AUPREC
 70
     0
  9
$MENU
  1
.
  9
$ELEVATION
 40
0.0
  9
$PELEVATION
 40
0.0
  9
$THICKNESS
 40
0.0
  9
$LIMCHECK
 70
     0
  9
$BLIPMODE
 70
     0
  9
$CHAMFERA
 40
0.0
  9
$CHAMFERB
 40
0.0
  9
$SKPOLY
 70
     0
  9
$TDCREATE
 40
2458172.5207638889551163
  9
$TDUPDATE
 40
2459046.8184606479480863
  9
$TDINDWG
 40
0.2654370139
  9
$TDUSRTIMER
 40
0.2654370139
  9
$USRTIMER
 70
     1
  9
$ANGBASE
 50
0.0
  9
$ANGDIR
 70
     0
  9
$PDMODE
 70
     0
  9
$PDSIZE
 40
0.3125
  9
$PLINEWID
 40
0.0
  9
$COORDS
 70
     1
  9
$SPLFRAME
 70
     0
  9
$SPLINETYPE
 70
     6
  9
$SPLINESEGS
 70
     8
  9
$ATTDIA
 70
     1
  9
$ATTREQ
 70
     1
  9
$HANDLING
 70
     1
  9
$HANDSEED
  5
D7DF
  9
$SURFTAB1
 70
     6
  9
$SURFTAB2
 70
     6
  9
$SURFTYPE
 70
     6
  9
$SURFU
 70
     6
  9
$SURFV
 70
     6
  9
$UCSNAME
  2

  9
$UCSORG
 10
0.0
 20
0.0
 30
0.0
  9
$UCSXDIR
 10
1.0
 20
0.0
 30
0.0
  9
$UCSYDIR
 10
0.0
 20
1.0
 30
0.0
  9
$PUCSNAME
  2

  9
$PUCSORG
 10
0.0
 20
0.0
 30
0.0
  9
$PUCSXDIR
 10
1.0
 20
0.0
 30
0.0
  9
$PUCSYDIR
 10
0.0
 20
1.0
 30
0.0
  9
$USERI1
 70
     0
  9
$USERI2
 70
     0
  9
$USERI3
 70
     0
  9
$USERI4
 70
     0
  9
$USERI5
 70
     0
  9
$USERR1
 40
0.0
  9
$USERR2
 40
0.0
  9
$USERR3
 40
0.0
  9
$USERR4
 40
0.0
  9
$USERR5
 40
0.0
  9
$WORLDVIEW
 70
     1
  9
$SHADEDGE
 70
     3
  9
$SHADEDIF
 70
    70
  9
$TILEMODE
 70
     1
  9
$MAXACTVP
 70
    64
  9
$PLIMCHECK
 70
     0
  9
$PEXTMIN
 10
1.0000000000000000E+20
 20
1.0000000000000000E+20
 30
1.0000000000000000E+20
  9
$PEXTMAX
 10
-1.0000000000000000E+20
 20
-1.0000000000000000E+20
 30
-1.0000000000000000E+20
  9
$PLIMMIN
 10
0.0
 20
0.0
  9
$PLIMMAX
 10
12.0
 20
9.0
  9
$UNITMODE
 70
     0
  9
$VISRETAIN
 70
     1
  9
$PLINEGEN
 70
     0
  9
$PSLTSCALE
 70
     1
  0
ENDSEC
  0
SECTION
  2
TABLES
  0
TABLE
  2
VPORT
 70
     1
  0
VPORT
  2
*ACTIVE
 70
     0
 10
0.0
 20
0.0
 11
1.0
 21
1.0
 12
-27.0093023074470118
 22
-9.2700189067927283
 13
0.0
 23
0.0
 14
1.0
 24
1.0
 15
0.0
 25
0.0
 16
0.0
 26
0.0
 36
14.6338572656650907
 17
429.6292891080536833
 27
69.7025415122186871
 37
0.0
 40
61.782405516379832
 41
2.6486111111111108
 42
50.0
 43
0.0
 44
0.0
 50
0.0
 51
0.0
 71
     0
 72
   100
 73
     1
 74
     1
 75
     0
 76
     0
 77
     0
 78
     0
  0
ENDTAB
  0
TABLE
  2
LTYPE
 70
     2
  0
LTYPE
  2
CONTINUOUS
 70
     0
  3
Solid line
 72
    65
 73
     0
 40
0.0
  0
LTYPE
  2
PHANTOM2
 70
     0
  3
___ _ _ ___ _ _ ___ _ _ ___ _ _
 72
    65
 73
     6
 40
1.25
 49
0.625
 49
-0.125
 49
0.125
 49
-0.125
 49
0.125
 49
-0.125
  0
ENDTAB
  0
TABLE
  2
LAYER
 70
     2
  0
LAYER
  2
0
 70
     0
 62
   255
  6
CONTINUOUS
  0
LAYER
  2
DEFPOINTS
 70
     0
 62
     7
  6
CONTINUOUS
  0
ENDTAB
  0
TABLE
  2
STYLE
 70
     1
  0
STYLE
  2
STANDARD
 70
     0
 40
0.0
 41
0.8
 50
0.0
 71
     0
 42
0.2
  3
txt
  4

  0
ENDTAB
  0
TABLE
  2
VIEW
 70
     0
  0
ENDTAB
  0
TABLE
  2
UCS
 70
     0
  0
ENDTAB
  0
TABLE
  2
APPID
 70
    10
  0
APPID
  2
ACAD
 70
     0
  0
APPID
  2
ACAD_MLEADERVER
 70
     0
  0
APPID
  2
ACAD_EXEMPT_FROM_CAD_STANDARDS
 70
     0
  0
APPID
  2
ACAD_DSTYLE_DIMJAG
 70
     0
  0
APPID
  2
ACAD_DSTYLE_DIMTALN
 70
     0
  0
APPID
  2
ACAD_NAV_VCDISPLAY
 70
     0
  0
APPID
  2
ACAECLAYERSTANDARD
 70
     0
  0
APPID
  2
ACCMTRANSPARENCY
 70
     0
  0
APPID
  2
DCO15
 70
     0
  0
APPID
  2
ACDBATTR
 70
     0
  0
ENDTAB
  0
TABLE
  2
DIMSTYLE
 70
     1
  0
DIMSTYLE
  2
STANDARD
 70
     0
  3

  4

  5

  6

  7

 40
1.0
 41
0.1875
 42
0.0625
 43
0.38
 44
0.125
 45
0.0
 46
0.0
 47
0.01
 48
0.01
140
0.15625
141
0.09
142
0.0
143
25.3999999999999986
144
1.0
145
0.0
146
1.0
147
0.09
 71
     1
 72
     0
 73
     1
 74
     1
 75
     0
 76
     0
 77
     0
 78
     4
170
     0
171
     2
172
     0
173
     0
174
     0
175
     0
176
     0
177
     0
178
     0
  0
ENDTAB
  0
ENDSEC
  0
SECTION
  2
BLOCKS
  0
BLOCK
  8
0
  2
$MODEL_SPACE
 70
     0
 10
0.0
 20
0.0
 30
0.0
  3
$MODEL_SPACE
  1

  0
ENDBLK
  5
21
  8
0
  0
BLOCK
 67
     1
  8
0
  2
$PAPER_SPACE
 70
     0
 10
0.0
 20
0.0
 30
0.0
  3
$PAPER_SPACE
  1

  0
ENDBLK
  5
1D
 67
     1
  8
0
  0
BLOCK
  8
0
  2
_FILLED
 70
     0
 10
0.0
 20
0.0
 30
0.0
  3
_FILLED
  1

  0
SOLID
  5
87E2
  8
0
  6
BYBLOCK
 62
     0
 10
0.0
 20
0.0
 30
0.0
 11
-1.0
 21
0.1666666667
 31
0.0
 12
-1.0
 22
-0.1666666667
 32
0.0
 13
-1.0
 23
-0.1666666667
 33
0.0
  0
ENDBLK
  5
87E3
  8
0
  6
BYBLOCK
 62
     0
  0
ENDSEC
  0
SECTION
  2
ENTITIES
  0
ATTDEF
  5
B1E1
  8
DEFPOINTS
 10
413.8695174326268216
 20
67.5172874317647711
 30
0.0
 40
0.001
  1
K-6219T-D
  3

  2
MODELNUMBER
 70
     0
1001
ACDBATTR
1070
     0
1070
     1
  0
ATTDEF
  5
B1E2
  8
DEFPOINTS
 10
413.8695174326268216
 20
67.5156207650981059
 30
0.0
 40
0.001
  1
LOURE
  3

  2
TRADENAME
 70
     0
1001
ACDBATTR
1070
     0
1070
     1
  0
ATTDEF
  5
B1E3
  8
DEFPOINTS
 10
413.8695174326268216
 20
67.5139540984314408
 30
0.0
 40
0.001
  1
SHOWER COLUMN
  3

  2
PRODUCT
 70
     0
1001
ACDBATTR
1070
     0
1070
     1
  0
LINE
  5
D05B
  8
0
 10
411.3103722657841104
 20
90.2794858497122448
 30
0.0
 11
395.188325021684193
 21
90.2794858497122448
 31
0.0
  0
LINE
  5
D05C
  8
0
 10
391.3497423444841843
 20
88.0303047474122451
 30
0.0
 11
401.3497423444841274
 21
88.0303047474122451
 31
0.0
  0
LINE
  5
D05D
  8
0
 10
401.3497423444841274
 20
88.0303047474122451
 30
0.0
 11
401.3497423444841274
 21
87.6366037683122272
 31
0.0
  0
ARC
  5
D05E
  8
0
 10
401.3221834810834139
 20
87.6366037683122556
 30
0.0
 40
0.0275588634006674
 50
269.9996012429022016
 51
0.0000000000008142
  0
ARC
  5
D05F
  8
0
 10
391.377420292099373
 20
87.6367228534518858
 30
0.0
 40
0.027678203797609
 50
180.2465151642423962
 51
269.7539317846740232
  0
LINE
  5
D060
  8
0
 10
391.3497423444841843
 20
87.6366037683122272
 30
0.0
 11
391.3497423444841843
 21
88.0303047474122451
 31
0.0
  0
LINE
  5
D061
  8
0
 10
396.0150966751842248
 20
90.2794858497122448
 30
0.0
 11
396.0150966751842248
 21
90.0826354560122411
 31
0.0
  0
LINE
  5
D062
  8
0
 10
395.9824510058841724
 20
90.069674826112248
 30
0.0
 11
395.995411635784194
 21
90.0826354560122411
 31
0.0
  0
LINE
  5
D063
  8
0
 10
395.995411635784194
 20
90.0826354560122411
 30
0.0
 11
396.704073053084187
 21
90.0826354560122411
 31
0.0
  0
LINE
  5
D064
  8
0
 10
396.704073053084187
 20
90.0826354560122411
 30
0.0
 11
396.7170336829842086
 21
90.069674826112248
 31
0.0
  0
LINE
  5
D065
  8
0
 10
396.8258044240840832
 20
90.069674826112248
 30
0.0
 11
395.8736793522842277
 21
90.069674826112248
 31
0.0
  0
ARC
  5
D066
  8
0
 10
395.8736793522842277
 20
90.0496748261122377
 30
0.0
 40
0.019999999999996
 50
90.0000000000097771
 51
180.0000000000098055
  0
ARC
  5
D067
  8
0
 10
395.9706872256221004
 20
89.2560302025013357
 30
0.0
 40
0.0700000020688097
 50
309.3702652046737853
 51
68.0877877515712555
  0
ARC
  5
D068
  8
0
 10
396.3497014471823832
 20
88.7941222048386578
 30
0.0
 40
0.5275037874168546
 50
129.3702652046738137
 51
144.9273135108124961
  0
LINE
  5
D069
  8
0
 10
395.660765966584222
 20
89.0972338812122473
 30
0.0
 11
397.0387187224841909
 21
89.0972338812122473
 31
0.0
  0
LINE
  5
D06A
  8
0
 10
396.1458809745840881
 20
89.0972338812122473
 30
0.0
 11
396.1458809745840881
 21
88.6247929363122466
 31
0.0
  0
LINE
  5
D06B
  8
0
 10
396.1458809745840881
 20
88.6247929363122466
 30
0.0
 11
396.5536037142841792
 21
88.6247929363122466
 31
0.0
  0
LINE
  5
D06C
  8
0
 10
396.5536037142841792
 20
88.6247929363122466
 30
0.0
 11
396.5536037142841792
 21
89.0972338812122473
 31
0.0
  0
LINE
  5
D06D
  8
0
 10
396.6843880136842131
 20
90.2794858497122448
 30
0.0
 11
396.6843880136842131
 21
90.0826354560122411
 31
0.0
  0
ARC
  5
D06E
  8
0
 10
396.8258053365486262
 20
90.0496748260975295
 30
0.0
 40
0.0200000000355297
 50
0.000000042156344
 51
90.0026140181560379
  0
ARC
  5
D06F
  8
0
 10
396.728797462354521
 20
89.2560302044438458
 30
0.0
 40
0.0699999998849825
 50
111.9122121022761007
 51
230.6290089700200951
  0
ARC
  5
D070
  8
0
 10
396.3497422589643975
 20
88.7940841955731344
 30
0.0
 40
0.5275591706820002
 50
35.0735072739408977
 51
50.6290089700201307
  0
LINE
  5
D071
  8
0
 10
391.3773014228679017
 20
87.6090449049085436
 30
0.0
 11
401.3221832892841121
 21
87.6090449049122668
 31
0.0
  0
LINE
  5
D072
  8
0
 10
400.5402615865198754
 20
87.6090449048122366
 30
0.0
 11
400.5471323287567884
 21
87.5601570336122421
 31
0.0
  0
ARC
  5
D073
  8
0
 10
400.5588284082666064
 20
87.5618008103920573
 30
0.0
 40
0.0118110235798136
 50
188.0000000132073126
 51
270.0000000851188133
  0
LINE
  5
D074
  8
0
 10
400.5588284082842279
 20
87.5499897868122474
 30
0.0
 11
400.6445932884840886
 21
87.5499897869396762
 31
0.0
  0
ARC
  5
D075
  8
0
 10
400.6445932884665808
 20
87.5618008106639536
 30
0.0
 40
0.0118110237242881
 50
270.0000000851317736
 51
351.9999988729284155
  0
LINE
  5
D076
  8
0
 10
400.6562893680875277
 20
87.5601570336366279
 30
0.0
 11
400.6631601112829912
 21
87.6090449047620439
 31
0.0
  0
LINE
  5
D077
  8
0
 10
399.8316001691231918
 20
87.6090449048122366
 30
0.0
 11
399.8384709113598774
 21
87.5601570336122421
 31
0.0
  0
ARC
  5
D078
  8
0
 10
399.8501669908698091
 20
87.5618008103920573
 30
0.0
 40
0.0118110235798136
 50
188.0000000132073126
 51
270.0000000851188133
  0
LINE
  5
D079
  8
0
 10
399.8501669908873168
 20
87.5499897868122474
 30
0.0
 11
399.9359318710872913
 21
87.5499897869396762
 31
0.0
  0
ARC
  5
D07A
  8
0
 10
399.9359318710697266
 20
87.5618008106639536
 30
0.0
 40
0.0118110237242881
 50
270.0000000851317736
 51
351.9999988729284155
  0
LINE
  5
D07B
  8
0
 10
399.9476279506906735
 20
87.5601570336366279
 30
0.0
 11
399.9544986938861939
 21
87.6090449047620439
 31
0.0
  0
LINE
  5
D07C
  8
0
 10
399.1229387518230851
 20
87.6090449048122366
 30
0.0
 11
399.1298094940598844
 21
87.5601570336122421
 31
0.0
  0
ARC
  5
D07D
  8
0
 10
399.1415055735697024
 20
87.5618008103920573
 30
0.0
 40
0.0118110235798136
 50
188.0000000132073126
 51
270.0000000851188133
  0
LINE
  5
D07E
  8
0
 10
399.1415055735873239
 20
87.5499897868122474
 30
0.0
 11
399.2272704537872983
 21
87.5499897869396762
 31
0.0
  0
ARC
  5
D07F
  8
0
 10
399.2272704537696768
 20
87.5618008106639536
 30
0.0
 40
0.0118110237242881
 50
270.0000000851317736
 51
351.9999988729284155
  0
LINE
  5
D080
  8
0
 10
399.2389665333906805
 20
87.5601570336366279
 30
0.0
 11
399.2458372765860872
 21
87.6090449047620439
 31
0.0
  0
LINE
  5
D081
  8
0
 10
398.4142773345230921
 20
87.6090449048122366
 30
0.0
 11
398.4211480767598914
 21
87.5601570336122421
 31
0.0
  0
ARC
  5
D082
  8
0
 10
398.4328441562697094
 20
87.5618008103920573
 30
0.0
 40
0.0118110235798136
 50
188.0000000132073126
 51
270.0000000851188133
  0
LINE
  5
D083
  8
0
 10
398.432844156287274
 20
87.5499897868122474
 30
0.0
 11
398.5186090364873053
 21
87.5499897869396762
 31
0.0
  0
ARC
  5
D084
  8
0
 10
398.5186090364696838
 20
87.5618008106639536
 30
0.0
 40
0.0118110237242881
 50
270.0000000851317736
 51
351.9999988729284155
  0
LINE
  5
D085
  8
0
 10
398.5303051160906875
 20
87.5601570336366279
 30
0.0
 11
398.5371758592862079
 21
87.6090449047620439
 31
0.0
  0
LINE
  5
D086
  8
0
 10
397.7056159172199727
 20
87.6090449048122366
 30
0.0
 11
397.712486659456772
 21
87.5601570336122421
 31
0.0
  0
ARC
  5
D087
  8
0
 10
397.72418273896659
 20
87.5618008103920573
 30
0.0
 40
0.0118110235798136
 50
188.0000000132073126
 51
270.0000000851188133
  0
LINE
  5
D088
  8
0
 10
397.7241827389842115
 20
87.5499897868122474
 30
0.0
 11
397.8099476191841859
 21
87.5499897869396762
 31
0.0
  0
ARC
  5
D089
  8
0
 10
397.8099476191666213
 20
87.5618008106639536
 30
0.0
 40
0.0118110237242881
 50
270.0000000851317736
 51
351.9999988729284155
  0
LINE
  5
D08A
  8
0
 10
397.821643698787625
 20
87.5601570336366279
 30
0.0
 11
397.8285144419830885
 21
87.6090449047620439
 31
0.0
  0
LINE
  5
D08B
  8
0
 10
396.9969544999199798
 20
87.6090449048122366
 30
0.0
 11
397.003825242156779
 21
87.5601570336122421
 31
0.0
  0
ARC
  5
D08C
  8
0
 10
397.015521321666597
 20
87.5618008103920573
 30
0.0
 40
0.0118110235798136
 50
188.0000000132073126
 51
270.0000000851188133
  0
LINE
  5
D08D
  8
0
 10
397.0155213216841048
 20
87.5499897868122474
 30
0.0
 11
397.1012862018841929
 21
87.5499897869396762
 31
0.0
  0
ARC
  5
D08E
  8
0
 10
397.1012862018666283
 20
87.5618008106639536
 30
0.0
 40
0.0118110237242881
 50
270.0000000851317736
 51
351.9999988729284155
  0
LINE
  5
D08F
  8
0
 10
397.1129822814875752
 20
87.5601570336366279
 30
0.0
 11
397.1198530246830956
 21
87.6090449047620439
 31
0.0
  0
LINE
  5
D090
  8
0
 10
396.2882930825231256
 20
87.6090449048122366
 30
0.0
 11
396.2951638247599249
 21
87.5601570336122421
 31
0.0
  0
ARC
  5
D091
  8
0
 10
396.306859904269686
 20
87.5618008103920573
 30
0.0
 40
0.0118110235798136
 50
188.0000000132073126
 51
270.0000000851188133
  0
LINE
  5
D092
  8
0
 10
396.3068599042873075
 20
87.5499897868122474
 30
0.0
 11
396.3926247844872819
 21
87.5499897869396762
 31
0.0
  0
ARC
  5
D093
  8
0
 10
396.3926247844697173
 20
87.5618008106639536
 30
0.0
 40
0.0118110237242881
 50
270.0000000851317736
 51
351.9999988729284155
  0
LINE
  5
D094
  8
0
 10
396.404320864090721
 20
87.5601570336366279
 30
0.0
 11
396.4111916072861845
 21
87.6090449047620439
 31
0.0
  0
LINE
  5
D095
  8
0
 10
395.5796316652230757
 20
87.6090449048122366
 30
0.0
 11
395.586502407459875
 21
87.5601570336122421
 31
0.0
  0
ARC
  5
D096
  8
0
 10
395.5981984869698067
 20
87.5618008103920573
 30
0.0
 40
0.0118110235798136
 50
188.0000000132073126
 51
270.0000000851188133
  0
LINE
  5
D097
  8
0
 10
395.5981984869873145
 20
87.5499897868122474
 30
0.0
 11
395.6839633671872889
 21
87.5499897869396762
 31
0.0
  0
ARC
  5
D098
  8
0
 10
395.6839633671697243
 20
87.5618008106639536
 30
0.0
 40
0.0118110237242881
 50
270.0000000851317736
 51
351.9999988729284155
  0
LINE
  5
D099
  8
0
 10
395.695659446790728
 20
87.5601570336366279
 30
0.0
 11
395.7025301899861915
 21
87.6090449047620439
 31
0.0
  0
LINE
  5
D09A
  8
0
 10
394.8709702479291082
 20
87.6090449047699877
 30
0.0
 11
394.8778409901657938
 21
87.560157033569979
 31
0.0
  0
ARC
  5
D09B
  8
0
 10
394.8895370696757254
 20
87.5618008103497942
 30
0.0
 40
0.0118110235798136
 50
188.0000000132073126
 51
270.0000000851188133
  0
LINE
  5
D09C
  8
0
 10
394.8895370696931764
 20
87.5499897867699843
 30
0.0
 11
394.9753019498932076
 21
87.5499897868973846
 31
0.0
  0
ARC
  5
D09D
  8
0
 10
394.9753019498756998
 20
87.5618008106216905
 30
0.0
 40
0.0118110237242881
 50
270.0000000851317736
 51
351.9999988729284155
  0
LINE
  5
D09E
  8
0
 10
394.9869980294965899
 20
87.5601570335943933
 30
0.0
 11
394.9938687726921103
 21
87.6090449047197666
 31
0.0
  0
LINE
  5
D09F
  8
0
 10
394.1623088306220097
 20
87.6090449047979973
 30
0.0
 11
394.1691795728586953
 21
87.5601570335979744
 31
0.0
  0
ARC
  5
D0A0
  8
0
 10
394.180875652368627
 20
87.5618008103778038
 30
0.0
 40
0.0118110235798136
 50
188.0000000132073126
 51
270.0000000851188133
  0
LINE
  5
D0A1
  8
0
 10
394.1808756523861916
 20
87.5499897867979939
 30
0.0
 11
394.2666405325862229
 21
87.5499897869253942
 31
0.0
  0
ARC
  5
D0A2
  8
0
 10
394.2666405325687151
 20
87.5618008106496859
 30
0.0
 40
0.0118110237242881
 50
270.0000000851317736
 51
351.9999988729284155
  0
LINE
  5
D0A3
  8
0
 10
394.2783366121896051
 20
87.5601570336224029
 30
0.0
 11
394.2852073553851255
 21
87.6090449047477904
 31
0.0
  0
LINE
  5
D0A4
  8
0
 10
393.4536474132290209
 20
87.6090449047699877
 30
0.0
 11
393.4605181554658202
 21
87.560157033569979
 31
0.0
  0
ARC
  5
D0A5
  8
0
 10
393.472214234975695
 20
87.5618008103497942
 30
0.0
 40
0.0118110235798136
 50
188.0000000132073126
 51
270.0000000851188133
  0
LINE
  5
D0A6
  8
0
 10
393.4722142349932028
 20
87.5499897867699843
 30
0.0
 11
393.5579791151932909
 21
87.5499897868973846
 31
0.0
  0
ARC
  5
D0A7
  8
0
 10
393.5579791151757263
 20
87.5618008106216905
 30
0.0
 40
0.0118110237242881
 50
270.0000000851317736
 51
351.9999988729284155
  0
LINE
  5
D0A8
  8
0
 10
393.5696751947966732
 20
87.5601570335943933
 30
0.0
 11
393.5765459379921936
 21
87.6090449047197666
 31
0.0
  0
LINE
  5
D0A9
  8
0
 10
392.7449859959290279
 20
87.6090449047699877
 30
0.0
 11
392.7518567381658272
 21
87.560157033569979
 31
0.0
  0
ARC
  5
D0AA
  8
0
 10
392.7635528176755884
 20
87.5618008103497942
 30
0.0
 40
0.0118110235798136
 50
188.0000000132073126
 51
270.0000000851188133
  0
LINE
  5
D0AB
  8
0
 10
392.7635528176932098
 20
87.5499897867699843
 30
0.0
 11
392.8493176978931842
 21
87.5499897868973846
 31
0.0
  0
ARC
  5
D0AC
  8
0
 10
392.8493176978756765
 20
87.5618008106216905
 30
0.0
 40
0.0118110237242881
 50
270.0000000851317736
 51
351.9999988729284155
  0
LINE
  5
D0AD
  8
0
 10
392.8610137774966802
 20
87.5601570335943933
 30
0.0
 11
392.8678845206920869
 21
87.6090449047197666
 31
0.0
  0
LINE
  5
D0AE
  8
0
 10
392.0363245786231232
 20
87.6090449048122366
 30
0.0
 11
392.0431953208599225
 21
87.5601570336122421
 31
0.0
  0
ARC
  5
D0AF
  8
0
 10
392.0548914003696837
 20
87.5618008103920573
 30
0.0
 40
0.0118110235798136
 50
188.0000000132073126
 51
270.0000000851188133
  0
LINE
  5
D0B0
  8
0
 10
392.0548914003873051
 20
87.5499897868122474
 30
0.0
 11
392.1406562805872795
 21
87.5499897869396762
 31
0.0
  0
ARC
  5
D0B1
  8
0
 10
392.1406562805697149
 20
87.5618008106639536
 30
0.0
 40
0.0118110237242881
 50
270.0000000851317736
 51
351.9999988729284155
  0
LINE
  5
D0B2
  8
0
 10
392.1523523601907186
 20
87.5601570336366279
 30
0.0
 11
392.1592231033861822
 21
87.6090449047620439
 31
0.0
  0
LINE
  5
D0B3
  8
0
 10
395.9968102138998916
 20
89.3209731757399226
 30
0.0
 11
396.7026744749683758
 21
89.3209731757399226
 31
0.0
  0
LINE
  5
D0B4
  8
0
 10
395.8536793523841766
 20
89.9417220702122506
 30
0.0
 11
395.8950179350841836
 21
89.9003834875122436
 31
0.0
  0
LINE
  5
D0B5
  8
0
 10
395.8950179350841836
 20
89.9003834875122436
 30
0.0
 11
395.8950179350841836
 21
89.4017881836122257
 31
0.0
  0
LINE
  5
D0B6
  8
0
 10
395.8536793523841766
 20
90.0496748261122377
 30
0.0
 11
395.8536793523841766
 21
89.9417220702122506
 31
0.0
  0
ARC
  5
D0B7
  8
0
 10
396.0820258091350752
 20
89.5328231383998627
 30
0.0
 40
0.2283464568002946
 50
215.0186282851477984
 51
248.0877877479555025
  0
LINE
  5
D0B8
  8
0
 10
396.8458053366841796
 20
90.0496748261122377
 30
0.0
 11
396.8458053366841796
 21
89.9417220702122506
 31
0.0
  0
LINE
  5
D0B9
  8
0
 10
396.8458053366841796
 20
89.9417220702122506
 30
0.0
 11
396.8044667539841726
 21
89.9003834875122436
 31
0.0
  0
LINE
  5
D0BA
  8
0
 10
396.8044667539841726
 20
89.9003834875122436
 30
0.0
 11
396.8044667539841726
 21
89.4017881836266639
 31
0.0
  0
ARC
  5
D0BB
  8
0
 10
396.6174588795494174
 20
89.532823138721767
 30
0.0
 40
0.2283464572910999
 50
291.9122123303774856
 51
324.9813717163470983
  0
LINE
  5
D0BC
  8
0
 10
395.6312384074842043
 20
88.6247929363122466
 30
0.0
 11
395.660765966584222
 21
88.6247929363122466
 31
0.0
  0
LINE
  5
D0BD
  8
0
 10
395.660765966584222
 20
88.6247929363122466
 30
0.0
 11
395.660765966584222
 21
89.0972338812122473
 31
0.0
  0
LINE
  5
D0BE
  8
0
 10
395.6312384074842043
 20
88.6247929363122466
 30
0.0
 11
395.6312384074842043
 21
88.0303047474122451
 31
0.0
  0
LINE
  5
D0BF
  8
0
 10
397.0682462815842086
 20
88.6247929363122466
 30
0.0
 11
397.0387187224841909
 21
88.6247929363122466
 31
0.0
  0
LINE
  5
D0C0
  8
0
 10
397.0387187224841909
 20
88.6247929363122466
 30
0.0
 11
397.0387187224841909
 21
89.0972338812122473
 31
0.0
  0
LINE
  5
D0C1
  8
0
 10
397.0682462815842086
 20
88.6247929363122466
 30
0.0
 11
397.0682462815842086
 21
88.0303047474122451
 31
0.0
  0
ARC
  5
D0C2
  8
0
 10
395.188325021684193
 20
90.2991708891122471
 30
0.0
 40
0.0196850394000023
 50
180.0
 51
269.999999999980389
  0
LINE
  5
D0C3
  8
0
 10
395.1686399822841054
 20
90.2991708891122471
 30
0.0
 11
395.1686399822841054
 21
91.0472023852122447
 31
0.0
  0
ARC
  5
D0C4
  8
0
 10
395.1883250216877741
 20
91.0472023851693137
 30
0.0
 40
0.0196850394036545
 50
90.0000000106728351
 51
179.9999998750438124
  0
LINE
  5
D0C5
  8
0
 10
395.188325021684193
 20
91.0668874245729683
 30
0.0
 11
412.0977738405841819
 21
91.0668874245729683
 31
0.0
  0
LINE
  5
D0C6
  8
0
 10
412.0977738405841819
 20
91.0668874245729683
 30
0.0
 11
412.0977738405841819
 21
81.7935015978122379
 31
0.0
  0
LINE
  5
D0C7
  8
0
 10
411.3103722657841104
 20
90.2794858497122448
 30
0.0
 11
411.3103722657841104
 21
81.7935015978122379
 31
0.0
  0
LINE
  5
D0C8
  8
0
 10
412.2545853125840836
 20
72.3446827001122443
 30
0.0
 11
411.1529783833840952
 21
72.3446827001122443
 31
0.0
  0
LINE
  5
D0C9
  8
0
 10
411.1529783833840952
 20
72.3464149836122488
 30
0.0
 11
411.1414275293840888
 21
72.3464149836122488
 31
0.0
  0
ARC
  5
D0CA
  8
0
 10
411.1414275293840888
 20
72.3267366985053286
 30
0.0
 40
0.0196782851069166
 50
90.0
 51
181.071173236154408
  0
LINE
  5
D0CB
  8
0
 10
411.1217526831709961
 20
72.3263688245603191
 30
0.0
 11
411.1540442303842724
 21
70.4759926921050806
 31
0.0
  0
ARC
  5
D0CC
  8
0
 10
411.1737262714976282
 20
70.4763362433750444
 30
0.0
 40
0.0196850393128099
 50
180.9999998961556003
 51
270.0000002519170152
  0
LINE
  5
D0CD
  8
0
 10
411.173726271584087
 20
70.4566512040622399
 30
0.0
 11
411.418742273984094
 21
70.4566512040122461
 31
0.0
  0
LINE
  5
D0CE
  8
0
 10
411.3103722657841104
 20
70.4566512040343582
 30
0.0
 11
411.3103722657841104
 21
51.6968055429581312
 31
0.0
  0
ARC
  5
D0CF
  8
0
 10
410.3260831812675065
 20
51.6182619567526615
 30
0.0
 40
0.0785435912956981
 50
89.9793723015472438
 51
104.486572440414804
  0
LINE
  5
D0D0
  8
0
 10
410.3064352578841181
 20
51.6943083560122432
 30
0.0
 11
410.3064352578841181
 21
49.8489153125122471
 31
0.0
  0
ARC
  5
D0D1
  8
0
 10
410.3261432113720275
 20
49.9252746022594991
 30
0.0
 40
0.0788615541542563
 50
255.528066610857195
 51
269.9833520838271284
  0
LINE
  5
D0D2
  8
0
 10
411.408797462684106
 20
49.8464130514342187
 30
0.0
 11
411.408797462684106
 21
49.6003493822399193
 31
0.0
  0
LINE
  5
D0D3
  8
0
 10
411.418742273984094
 20
49.6003493822399193
 30
0.0
 11
411.3300573148840726
 21
49.6003493822399193
 31
0.0
  0
LINE
  5
D0D4
  8
0
 10
411.3300573148840726
 20
49.6003493822399193
 30
0.0
 11
411.2710021870840933
 21
49.5412968619122367
 31
0.0
  0
LINE
  5
D0D5
  8
0
 10
411.2710021870840933
 20
49.5412968619122367
 30
0.0
 11
411.2710021870840933
 21
49.1869661833122507
 31
0.0
  0
LINE
  5
D0D6
  8
0
 10
411.2710021870840933
 20
49.1869661833122507
 30
0.0
 11
411.3300573209841104
 21
49.1279084299899083
 31
0.0
  0
LINE
  5
D0D7
  8
0
 10
411.3300573209841104
 20
49.1279084299899083
 30
0.0
 11
411.418742273984094
 21
49.1279084299899083
 31
0.0
  0
LINE
  5
D0D8
  8
0
 10
411.3793284419841143
 20
49.1279084299899083
 30
0.0
 11
411.3793284419841143
 21
31.6183391900122501
 31
0.0
  0
LINE
  5
D0D9
  8
0
 10
411.3793284419841143
 20
31.6183391900122501
 30
0.0
 11
411.3919605911650024
 21
30.1820598691034405
 31
0.0
  0
ARC
  5
D0DA
  8
0
 10
411.6845214854085953
 20
30.086059088603669
 30
0.0
 40
0.2861988147645494
 50
192.232254738670207
 51
347.2820690770968781
  0
ARC
  5
D0DB
  8
0
 10
412.3984893514672763
 20
30.1858461215961604
 30
0.0
 40
1.0065358816373751
 50
180.215528133251496
 51
189.1711254427812037
  0
ARC
  5
D0DC
  8
0
 10
411.3889942618321243
 20
30.1436920517723905
 30
0.0
 40
0.5872300339386692
 50
348.1447902882302969
 51
1.3082882409313561
  0
ARC
  5
D0DD
  8
0
 10
351.1145110300521992
 20
31.450634042339999
 30
0.0
 40
60.8753048397096634
 50
358.7824350226269985
 51
0.1578441265115142
  0
LINE
  5
D0DE
  8
0
 10
411.9895848641841098
 20
31.6183391900122395
 30
0.0
 11
411.9895613127841898
 21
71.0592496293122338
 31
0.0
  0
ARC
  5
D0DF
  8
0
 10
413.8497193394501892
 20
49.9252751915809512
 30
0.0
 40
0.0788621464759729
 50
270.0229550971462231
 51
284.4718904376682076
  0
LINE
  5
D0E0
  8
0
 10
413.8694273838841013
 20
49.8489153125122471
 30
0.0
 11
413.8694273838841013
 21
51.6943083560122432
 31
0.0
  0
ARC
  5
D0E1
  8
0
 10
413.8497759791233079
 20
51.6182431738034708
 30
0.0
 40
0.0785626479538827
 50
75.5143960134739274
 51
89.8473574971360165
  0
LINE
  5
D0E2
  8
0
 10
411.9895613127841898
 20
70.4566512041122479
 30
0.0
 11
412.2344198347840916
 21
70.4566512040622399
 31
0.0
  0
ARC
  5
D0E3
  8
0
 10
412.2344198346975759
 20
70.476329243287779
 30
0.0
 40
0.0196780392255338
 50
270.0000002521319971
 51
358.9688868277028178
  0
LINE
  5
D0E4
  8
0
 10
412.2540946874701717
 20
70.4759751301155148
 30
0.0
 11
412.2864006119912119
 21
72.3263860381195229
 31
0.0
  0
ARC
  5
D0E5
  8
0
 10
412.2667185770333163
 20
72.3267299443294291
 30
0.0
 40
0.0196850392828054
 50
358.9989668509812759
 51
90.0000001430718157
  0
LINE
  5
D0E6
  8
0
 10
412.2667185769840899
 20
72.3464149836122488
 30
0.0
 11
412.2545853125840836
 21
72.3464149835819512
 31
0.0
  0
LINE
  5
D0E7
  8
0
 10
412.0789706710842211
 20
71.059249629312248
 30
0.0
 11
411.3293329156841196
 21
71.0592496292122462
 31
0.0
  0
ARC
  5
D0E8
  8
0
 10
411.3293329156816185
 20
71.0789346685988761
 30
0.0
 40
0.0196850393866299
 50
182.3859440229059032
 51
270.0000000076470883
  0
LINE
  5
D0E9
  8
0
 10
411.3096649417851154
 20
71.0781151696890987
 30
0.0
 11
411.3048735781616188
 21
71.1931078970154658
 31
0.0
  0
LINE
  5
D0EA
  8
0
 10
411.308107011172126
 20
71.1155055039122459
 30
0.0
 11
411.223601813730113
 21
71.1155053060281261
 31
0.0
  0
LINE
  5
D0EB
  8
0
 10
411.2236018100841193
 20
71.115505724212241
 30
0.0
 11
411.2222472755840954
 21
71.1931078970122257
 31
0.0
  0
LINE
  5
D0EC
  8
0
 10
411.3200490834585139
 20
71.1931078970122257
 30
0.0
 11
411.2117949846841043
 21
71.1931078970122257
 31
0.0
  0
ARC
  5
D0ED
  8
0
 10
411.2117949846841043
 20
71.2324781685018991
 30
0.0
 40
0.0393702714896627
 50
181.0002757141861025
 51
270.0
  0
LINE
  5
D0EE
  8
0
 10
411.1724307127843758
 20
71.2317908730966991
 30
0.0
 11
411.1536647819411883
 21
72.3065939324041551
 31
0.0
  0
ARC
  5
D0EF
  8
0
 10
411.1930264642900852
 20
72.3072811825961139
 30
0.0
 40
0.0393676815441313
 50
108.1845218120250962
 51
181.0002757141934069
  0
ARC
  5
D0F0
  8
0
 10
411.3200503928472926
 20
71.2324779757273348
 30
0.0
 40
0.0393700787368654
 50
269.9980944297710721
 51
359.9999999780387725
  0
LINE
  5
D0F1
  8
0
 10
411.3594204715840874
 20
71.2324779757122428
 30
0.0
 11
411.3406565757647968
 21
72.3078044255623666
 31
0.0
  0
ARC
  5
D0F2
  8
0
 10
411.3012890756655224
 20
72.3072803506053958
 30
0.0
 40
0.0393709882860984
 50
0.7626978977741502
 51
71.8047111695130837
  0
ARC
  5
D0F3
  8
0
 10
412.0789706710867222
 20
71.0789346685988761
 30
0.0
 40
0.0196850393866299
 50
269.999999992352798
 51
357.6140559770939831
  0
LINE
  5
D0F4
  8
0
 10
412.0986386449832253
 20
71.0781151696890987
 30
0.0
 11
412.1034300086067219
 21
71.1931078970154658
 31
0.0
  0
LINE
  5
D0F5
  8
0
 10
412.1001965755962146
 20
71.1155055039122459
 30
0.0
 11
412.184701773038114
 21
71.1155053060281261
 31
0.0
  0
LINE
  5
D0F6
  8
0
 10
412.1847017766842214
 20
71.115505724212241
 30
0.0
 11
412.1860563111841884
 21
71.1931078970122257
 31
0.0
  0
LINE
  5
D0F7
  8
0
 10
412.0882545033098268
 20
71.1931078970122257
 30
0.0
 11
412.1965086020841227
 21
71.1931078970122257
 31
0.0
  0
ARC
  5
D0F8
  8
0
 10
412.1965086020841227
 20
71.2324781685018991
 30
0.0
 40
0.0393702714896627
 50
270.0
 51
358.9997242858138975
  0
LINE
  5
D0F9
  8
0
 10
412.235872873983908
 20
71.2317908730966991
 30
0.0
 11
412.2546388048269819
 21
72.3065939324041551
 31
0.0
  0
ARC
  5
D0FA
  8
0
 10
412.2152771224780849
 20
72.3072811825961139
 30
0.0
 40
0.0393676815441313
 50
358.9997242858065079
 51
71.8154781879748469
  0
ARC
  5
D0FB
  8
0
 10
412.0882531939209912
 20
71.2324779757273348
 30
0.0
 40
0.0393700787368654
 50
180.0000000219611991
 51
270.0019055702289279
  0
LINE
  5
D0FC
  8
0
 10
412.0488831151841964
 20
71.2324779757122428
 30
0.0
 11
412.0676470110033733
 21
72.3078044255623666
 31
0.0
  0
ARC
  5
D0FD
  8
0
 10
412.1070145111027045
 20
72.3072803506053958
 30
0.0
 40
0.0393709882860984
 50
108.195288830486902
 51
179.2373021022258968
  0
LINE
  5
D0FE
  8
0
 10
411.418742273984094
 20
71.0592496292241691
 30
0.0
 11
411.418742273984094
 21
31.6183391900122395
 31
0.0
  0
ARC
  5
D0FF
  8
0
 10
370.1029560300062258
 20
31.6183391900122217
 30
0.0
 40
41.315786243977918
 50
357.9623407207350851
 51
0.0
  0
LINE
  5
D100
  8
0
 10
410.2710021870840933
 20
51.6968055429581312
 30
0.0
 11
410.2710021870840933
 21
49.8464130514342187
 31
0.0
  0
LINE
  5
D101
  8
0
 10
410.2710021870840933
 20
49.8464130514342187
 30
0.0
 11
408.9109623120841093
 21
49.858283871838232
 31
0.0
  0
ARC
  5
D102
  8
0
 10
409.2721554822214785
 20
49.8625194486070598
 30
0.0
 40
0.0100057727706696
 50
227.0878089800663986
 51
269.9285691016175974
  0
LINE
  5
D103
  8
0
 10
409.2721430079840843
 20
49.8525136836122371
 30
0.0
 11
409.5705705876018214
 21
49.8525275576014479
 31
0.0
  0
ARC
  5
D104
  8
0
 10
408.9216102514558884
 20
51.9191509078873565
 30
0.0
 40
2.0608945434946659
 50
269.1508029567298763
 51
269.7039709272054893
  0
ARC
  5
D105
  8
0
 10
408.8922338547674258
 20
49.8781331220342423
 30
0.0
 40
0.0196850603366675
 50
182.4197446626920112
 51
266.5995928836700273
  0
ARC
  5
D106
  8
0
 10
430.3041182342747106
 20
50.771611833019719
 30
0.0
 40
21.4502029442011093
 50
177.6105105680059069
 51
182.3894894785657073
  0
ARC
  5
D107
  8
0
 10
408.8922338534247274
 20
51.6650905470221673
 30
0.0
 40
0.0196850588586184
 50
90.5000226187674741
 51
177.5803146931164918
  0
LINE
  5
D108
  8
0
 10
408.8920620632890177
 20
51.6847748562662588
 30
0.0
 11
410.2710021870840933
 21
51.6968055429581312
 31
0.0
  0
LINE
  5
D109
  8
0
 10
410.2710021870840933
 20
51.5196433300122365
 30
0.0
 11
410.3064352578841181
 21
51.5196433300122365
 31
0.0
  0
LINE
  5
D10A
  8
0
 10
410.2710021870840933
 20
50.0235803379122501
 30
0.0
 11
410.3064352578841181
 21
50.0235803379122501
 31
0.0
  0
ARC
  5
D10B
  8
0
 10
412.117458879984099
 20
83.4094071096122462
 30
0.0
 40
0.0196850394000094
 50
180.0000000000202931
 51
269.999999999980389
  0
LINE
  5
D10C
  8
0
 10
412.117458879984099
 20
83.3897220702122439
 30
0.0
 11
413.8694273838841013
 21
83.3897220702116044
 31
0.0
  0
LINE
  5
D10D
  8
0
 10
413.8694273838841013
 20
83.3897220702116044
 30
0.0
 11
413.8694273838841013
 21
85.1220055348122457
 31
0.0
  0
LINE
  5
D10E
  8
0
 10
413.8694273838841013
 20
85.1220055348122457
 30
0.0
 11
412.1115533681841043
 21
85.122005534712244
 31
0.0
  0
ARC
  5
D10F
  8
0
 10
412.1124087338760091
 20
85.1067791897686448
 30
0.0
 40
0.0152503518257171
 50
93.215307894796112
 51
163.6669009910091006
  0
LINE
  5
D110
  8
0
 10
411.9895741265639799
 20
49.6003493822399193
 30
0.0
 11
411.9993486288840927
 21
49.6003493822399193
 31
0.0
  0
LINE
  5
D111
  8
0
 10
411.9993486288840927
 20
49.6003493822399193
 30
0.0
 11
412.0584037741841144
 21
49.5412968496122375
 31
0.0
  0
LINE
  5
D112
  8
0
 10
412.0584037741841144
 20
49.5412968496122375
 30
0.0
 11
412.0584037741841144
 21
49.1869661710122514
 31
0.0
  0
LINE
  5
D113
  8
0
 10
412.0584037741841144
 20
49.1869661710122514
 30
0.0
 11
411.999348627884217
 21
49.1279084299899083
 31
0.0
  0
LINE
  5
D114
  8
0
 10
411.999348627884217
 20
49.1279084299899083
 30
0.0
 11
411.9895744086732066
 21
49.1279084299899083
 31
0.0
  0
LINE
  5
D115
  8
0
 10
412.0977738405841819
 20
51.6968055429581312
 30
0.0
 11
412.0977738405841819
 21
70.45665120409015
 31
0.0
  0
LINE
  5
D116
  8
0
 10
411.1529783833840952
 20
81.7935015978122522
 30
0.0
 11
412.2553357458841106
 21
81.7935015978122522
 31
0.0
  0
LINE
  5
D117
  8
0
 10
412.2553357458841106
 20
81.7935015978122522
 30
0.0
 11
412.2545853125840836
 21
72.3446827001122443
 31
0.0
  0
LINE
  5
D118
  8
0
 10
411.1529783833840952
 20
72.3446827001122443
 30
0.0
 11
411.1529783833840952
 21
76.7009819127122512
 31
0.0
  0
ARC
  5
D119
  8
0
 10
407.8249933312666258
 20
77.0043658195269103
 30
0.0
 40
3.3417848976305922
 50
354.7912314419688187
 51
359.9959830121753157
  0
ARC
  5
D11A
  8
0
 10
407.8327364999860833
 20
77.0042496994682324
 30
0.0
 40
3.334041722792314
 50
359.997969215588796
 51
5.2148165385973
  0
LINE
  5
D11B
  8
0
 10
411.1529783839351921
 20
77.3072811192742932
 30
0.0
 11
411.1529783833765919
 21
77.9448464825659926
 31
0.0
  0
LINE
  5
D11C
  8
0
 10
411.1529783833840952
 20
81.7935015978122522
 30
0.0
 11
411.1529783833840952
 21
81.5513756090122541
 31
0.0
  0
LINE
  5
D11D
  8
0
 10
411.1490950401438909
 20
81.551375613512235
 30
0.0
 11
411.1643952415842023
 21
81.551375613512235
 31
0.0
  0
ARC
  5
D11E
  8
0
 10
411.31154483105189
 20
81.5402166591033364
 30
0.0
 40
0.1545170098954775
 50
172.7711709507620981
 51
175.8585914726054114
  0
ARC
  5
D11F
  8
0
 10
411.2037143269033095
 20
81.5538939452529945
 30
0.0
 40
0.045822549220808
 50
164.8444697509287096
 51
172.771170950759597
  0
ARC
  5
D120
  8
0
 10
411.1628568505000203
 20
81.5649606309589785
 30
0.0
 40
0.0034928325838224
 50
141.7973149087897866
 51
164.8444697509231105
  0
ARC
  5
D121
  8
0
 10
411.1605548577945797
 20
81.5667722952825329
 30
0.0
 40
0.0005634473178395
 50
45.4893681991261118
 51
141.7973149086849105
  0
ARC
  5
D122
  8
0
 10
411.1593580212269785
 20
81.5655548375170838
 30
0.0
 40
0.0022706734833844
 50
23.0880810315854283
 51
45.4893681991577807
  0
ARC
  5
D123
  8
0
 10
411.1224601131698932
 20
81.5521605872459361
 30
0.0
 40
0.0415212668852657
 50
7.6433920015001551
 51
20.1227765617839616
  0
ARC
  5
D124
  8
0
 10
411.1049131001162777
 20
81.5471962326082718
 30
0.0
 40
0.0596287881676846
 50
4.0191557077855968
 51
10.1293494276790792
  0
ARC
  5
D125
  8
0
 10
410.4652762395475065
 20
81.4775751596521332
 30
0.0
 40
0.703003475097175
 50
359.3945939225249049
 51
6.0259445367483107
  0
ARC
  5
D126
  8
0
 10
410.4729825729974095
 20
81.4669900681901851
 30
0.0
 40
0.6952650656290364
 50
353.9652148137261065
 51
0.2601698838347588
  0
ARC
  5
D127
  8
0
 10
411.0841129715284978
 20
81.4005709603552816
 30
0.0
 40
0.0805587552342556
 50
346.2110312557708767
 51
355.2466201971963073
  0
ARC
  5
D128
  8
0
 10
411.1484986454843238
 20
81.3850124833436865
 30
0.0
 40
0.0143223008807411
 50
335.438857584062589
 51
345.2668238800412723
  0
ARC
  5
D129
  8
0
 10
411.1589304642096749
 20
81.3801326901077289
 30
0.0
 40
0.0028078749734454
 50
322.56087435144849
 51
337.5232938531647733
  0
ARC
  5
D12A
  8
0
 10
411.1605214316085153
 20
81.378914581288825
 30
0.0
 40
0.0008041368770576
 50
276.3822404412507012
 51
322.5608743517415746
  0
LINE
  5
D12B
  8
0
 10
411.1606108201841039
 20
81.3781154281122667
 30
0.0
 11
411.1572823362769782
 21
81.3781472730175039
 31
0.0
  0
ARC
  5
D12C
  8
0
 10
411.157284947761525
 20
81.3782824991877618
 30
0.0
 40
0.000135251384379
 50
231.245497864755805
 51
268.893642858519172
  0
ARC
  5
D12D
  8
0
 10
411.1580935095582845
 20
81.3788963508548449
 30
0.0
 40
0.0011468582243458
 50
195.8056141634386051
 51
218.8448702177412883
  0
ARC
  5
D12E
  8
0
 10
411.2708952142704106
 20
81.3949137602437673
 30
0.0
 40
0.115069791161882
 50
180.5071211142640948
 51
188.1585006617802094
  0
LINE
  5
D12F
  8
0
 10
411.1643946542840808
 20
81.3938952985122484
 30
0.0
 11
411.1454293965841771
 21
81.3938952985122484
 31
0.0
  0
ARC
  5
D130
  8
0
 10
411.1462454064558756
 20
81.3946194221793746
 30
0.0
 40
0.001090975341678
 50
185.3353072767496883
 51
221.585712593012687
  0
ARC
  5
D131
  8
0
 10
413.2446458904132101
 20
81.4571710719948641
 30
0.0
 40
2.1004213746440699
 50
179.3950785696839887
 51
181.7093190962876861
  0
ARC
  5
D132
  8
0
 10
411.8536130566899942
 20
81.4829948354977489
 30
0.0
 40
0.7092808588055372
 50
175.3224027547877029
 51
180.294703123228004
  0
ARC
  5
D133
  8
0
 10
411.1982616326155267
 20
81.5368806322172048
 30
0.0
 40
0.0517185285670075
 50
164.6740469932225892
 51
175.6139756674922126
  0
ARC
  5
D134
  8
0
 10
411.1498487991124193
 20
81.5501484582059817
 30
0.0
 40
0.0015205440031456
 50
131.1131107847994883
 51
164.6740469932788073
  0
ARC
  5
D135
  8
0
 10
411.1490975021516761
 20
81.5509561908116893
 30
0.0
 40
0.0004194299264733
 50
90.3363218931812213
 51
126.3381723885495944
  0
ARC
  5
D136
  8
0
 10
411.1489342951153958
 20
81.5505663328754622
 30
0.0
 40
0.0008250903667453
 50
19.8959371091876314
 51
78.7657259415746864
  0
ARC
  5
D137
  8
0
 10
411.0160790200076804
 20
81.5197494992261369
 30
0.0
 40
0.1372018139211629
 50
0.7704781915501511
 51
13.1002795580148401
  0
ARC
  5
D138
  8
0
 10
410.1824585178130746
 20
81.4738435195797734
 30
0.0
 40
0.9719835567768894
 50
359.8937514024697748
 51
2.8159205043054909
  0
ARC
  5
D139
  8
0
 10
410.1156625094656079
 20
81.4713026094345167
 30
0.0
 40
1.038778156413368
 50
357.82541499943909
 51
0.0407320852927614
  0
ARC
  5
D13A
  8
0
 10
410.7867149011593142
 20
81.4435964793144791
 30
0.0
 40
0.3671644609790646
 50
353.520960850051722
 51
358.1723759908355191
  0
ARC
  5
D13B
  8
0
 10
411.1233842276914174
 20
81.4042495659085148
 30
0.0
 40
0.0282271519949829
 50
343.7245691367862719
 51
355.7663834713811752
  0
ARC
  5
D13C
  8
0
 10
411.1420855725133947
 20
81.3987896139867644
 30
0.0
 40
0.0087450737399128
 50
325.9673366900159976
 51
343.7245691367601239
  0
ARC
  5
D13D
  8
0
 10
411.148828225964678
 20
81.51148022674316
 30
0.0
 40
0.0005497467589002
 50
107.5509580384047013
 51
168.0816001394715897
  0
ARC
  5
D13E
  8
0
 10
411.1485349201582267
 20
81.5115767341041959
 30
0.0
 40
0.0004462580640408
 50
22.1183796045532404
 51
73.3950712241210113
  0
ARC
  5
D13F
  8
0
 10
411.1257290233460822
 20
81.5040184774815089
 30
0.0
 40
0.0244710435566483
 50
9.9604685755969804
 51
18.4049870009040788
  0
ARC
  5
D140
  8
0
 10
411.0046236750171147
 20
81.4890958823310427
 30
0.0
 40
0.1464655529433206
 50
1.6965360810015351
 51
7.5148863893471951
  0
ARC
  5
D141
  8
0
 10
410.7796390300313192
 20
81.4739272229943339
 30
0.0
 40
0.3718978328509468
 50
359.8270101080898939
 51
3.0063657803495309
  0
ARC
  5
D142
  8
0
 10
410.7608476531755741
 20
81.4713062498416889
 30
0.0
 40
0.3906903869631089
 50
356.1025577191371099
 51
0.2197045151882412
  0
ARC
  5
D143
  8
0
 10
411.073056857230597
 20
81.4491951731552462
 30
0.0
 40
0.0777048461185825
 50
349.3759482794279165
 51
356.7210939641291247
  0
ARC
  5
D144
  8
0
 10
411.144279895246882
 20
81.4359020524347272
 30
0.0
 40
0.0052523491223652
 50
331.7849908032101212
 51
348.6591233305958895
  0
ARC
  5
D145
  8
0
 10
411.1486147045251869
 20
81.4336174881962052
 30
0.0
 40
0.0003543683038478
 50
277.880064498120305
 51
325.9044572877382961
  0
ARC
  5
D146
  8
0
 10
411.1486779029647778
 20
81.4335044099580756
 30
0.0
 40
0.0002383922392568
 50
223.2762548779429892
 51
266.4852917026428258
  0
ARC
  5
D147
  8
0
 10
411.1504365728031871
 20
81.4347779447616347
 30
0.0
 40
0.0024079802007807
 50
189.7423456334622927
 51
216.6373226235926097
  0
ARC
  5
D148
  8
0
 10
411.2200338764457115
 20
81.447555485834954
 30
0.0
 40
0.0731683385036004
 50
182.1609022492042982
 51
190.3814728850641984
  0
ARC
  5
D149
  8
0
 10
411.7422558874853848
 20
81.4729919653997143
 30
0.0
 40
0.5960056133535372
 50
178.8102961012685057
 51
182.7115151398068065
  0
ARC
  5
D14A
  8
0
 10
411.3467173358378091
 20
81.4852665877691464
 30
0.0
 40
0.200338606201773
 50
172.7169127444605863
 51
179.9713725010533096
  0
ARC
  5
D14B
  8
0
 10
411.153621999113227
 20
81.5093890711468845
 30
0.0
 40
0.0057695185130988
 50
157.5345077592720031
 51
167.234859868957102
  0
LINE
  5
D14C
  8
0
 10
411.1488944369938849
 20
81.0956707924622435
 30
0.0
 11
411.1641946384341963
 21
81.0956707924622435
 31
0.0
  0
ARC
  5
D14D
  8
0
 10
411.3113442279018841
 20
81.0845118380533449
 30
0.0
 40
0.1545170098954775
 50
172.7711709507620981
 51
175.8585914726054114
  0
ARC
  5
D14E
  8
0
 10
411.2035137237533036
 20
81.0981891242030031
 30
0.0
 40
0.045822549220808
 50
164.8444697509287096
 51
172.771170950759597
  0
ARC
  5
D14F
  8
0
 10
411.1626562473500144
 20
81.1092558099089729
 30
0.0
 40
0.0034928325838224
 50
141.7973149087897866
 51
164.8444697509231105
  0
ARC
  5
D150
  8
0
 10
411.1603542546445738
 20
81.1110674742325557
 30
0.0
 40
0.0005634473178395
 50
45.4893681991261118
 51
141.7973149086849105
  0
ARC
  5
D151
  8
0
 10
411.1591574180769726
 20
81.1098500164671066
 30
0.0
 40
0.0022706734833844
 50
23.0880810315854283
 51
45.4893681991577807
  0
ARC
  5
D152
  8
0
 10
411.1222595100198873
 20
81.0964557661959304
 30
0.0
 40
0.0415212668852657
 50
7.6433920015001551
 51
20.1227765617839616
  0
ARC
  5
D153
  8
0
 10
411.1047124969662718
 20
81.0914914115582803
 30
0.0
 40
0.0596287881676846
 50
4.0191557077855968
 51
10.1293494276790792
  0
ARC
  5
D154
  8
0
 10
410.4650756363975006
 20
81.0218703386021417
 30
0.0
 40
0.703003475097175
 50
359.3945939225249049
 51
6.0259445367483107
  0
ARC
  5
D155
  8
0
 10
410.4727819698474036
 20
81.0112852471401936
 30
0.0
 40
0.6952650656290364
 50
353.9652148137261065
 51
0.2601698838347588
  0
ARC
  5
D156
  8
0
 10
411.0839123683784919
 20
80.9448661393052902
 30
0.0
 40
0.0805587552342556
 50
346.2110312557708767
 51
355.2466201971963073
  0
ARC
  5
D157
  8
0
 10
411.1482980423343179
 20
80.9293076622936951
 30
0.0
 40
0.0143223008807411
 50
335.438857584062589
 51
345.2668238800412723
  0
ARC
  5
D158
  8
0
 10
411.1587298610597259
 20
80.9244278690577374
 30
0.0
 40
0.0028078749734454
 50
322.56087435144849
 51
337.5232938531647733
  0
ARC
  5
D159
  8
0
 10
411.1603208284585094
 20
80.9232097602388052
 30
0.0
 40
0.0008041368770576
 50
276.3822404412507012
 51
322.5608743517415746
  0
LINE
  5
D15A
  8
0
 10
411.160410217034098
 20
80.9224106070622469
 30
0.0
 11
411.1570817331269723
 21
80.9224424519674983
 31
0.0
  0
ARC
  5
D15B
  8
0
 10
411.1570843446115191
 20
80.9225776781377704
 30
0.0
 40
0.000135251384379
 50
231.245497864755805
 51
268.893642858519172
  0
ARC
  5
D15C
  8
0
 10
411.1578929064082786
 20
80.923191529804825
 30
0.0
 40
0.0011468582243458
 50
195.8056141634386051
 51
218.8448702177412883
  0
ARC
  5
D15D
  8
0
 10
411.2706946111204047
 20
80.9392089391937759
 30
0.0
 40
0.115069791161882
 50
180.5071211142640948
 51
188.1585006617802094
  0
LINE
  5
D15E
  8
0
 10
411.1641940511340749
 20
80.9381904774622569
 30
0.0
 11
411.145228793434228
 21
80.9381904774622569
 31
0.0
  0
ARC
  5
D15F
  8
0
 10
411.1460448033059265
 20
80.9389146011293832
 30
0.0
 40
0.001090975341678
 50
185.3353072767496883
 51
221.585712593012687
  0
ARC
  5
D160
  8
0
 10
413.2444452872632041
 20
81.0014662509448584
 30
0.0
 40
2.1004213746440699
 50
179.3950785696839887
 51
181.7093190962876861
  0
ARC
  5
D161
  8
0
 10
411.8534124535399883
 20
81.0272900144477575
 30
0.0
 40
0.7092808588055372
 50
175.3224027547877029
 51
180.294703123228004
  0
ARC
  5
D162
  8
0
 10
411.1980610294655207
 20
81.0811758111671992
 30
0.0
 40
0.0517185285670075
 50
164.6740469932225892
 51
175.6139756674922126
  0
ARC
  5
D163
  8
0
 10
411.1496481959624134
 20
81.094443637155976
 30
0.0
 40
0.0015205440031456
 50
131.1131107847994883
 51
164.6740469932788073
  0
ARC
  5
D164
  8
0
 10
411.148896899001727
 20
81.0952513697616979
 30
0.0
 40
0.0004194299264733
 50
90.3363218931812213
 51
126.3381723885495944
  0
ARC
  5
D165
  8
0
 10
411.1487336919653899
 20
81.0948615118254565
 30
0.0
 40
0.0008250903667453
 50
19.8959371091876314
 51
78.7657259415746864
  0
ARC
  5
D166
  8
0
 10
411.0158784168576744
 20
81.0640446781761455
 30
0.0
 40
0.1372018139211629
 50
0.7704781915501511
 51
13.1002795580148401
  0
ARC
  5
D167
  8
0
 10
410.1822579146631256
 20
81.0181386985297678
 30
0.0
 40
0.9719835567768894
 50
359.8937514024697748
 51
2.8159205043054909
  0
ARC
  5
D168
  8
0
 10
410.1154619063156019
 20
81.0155977883845111
 30
0.0
 40
1.038778156413368
 50
357.82541499943909
 51
0.0407320852927614
  0
ARC
  5
D169
  8
0
 10
410.7865142980093083
 20
80.9878916582644877
 30
0.0
 40
0.3671644609790646
 50
353.520960850051722
 51
358.1723759908355191
  0
ARC
  5
D16A
  8
0
 10
411.1231836245414115
 20
80.9485447448585091
 30
0.0
 40
0.0282271519949829
 50
343.7245691367862719
 51
355.7663834713811752
  0
ARC
  5
D16B
  8
0
 10
411.1418849693633888
 20
80.9430847929367729
 30
0.0
 40
0.0087450737399128
 50
325.9673366900159976
 51
343.7245691367601239
  0
ARC
  5
D16C
  8
0
 10
411.1486276228146721
 20
81.0557754056931543
 30
0.0
 40
0.0005497467589002
 50
107.5509580384047013
 51
168.0816001394715897
  0
ARC
  5
D16D
  8
0
 10
411.1483343170082208
 20
81.0558719130542045
 30
0.0
 40
0.0004462580640408
 50
22.1183796045532404
 51
73.3950712241210113
  0
ARC
  5
D16E
  8
0
 10
411.1255284201960762
 20
81.0483136564315174
 30
0.0
 40
0.0244710435566483
 50
9.9604685755969804
 51
18.4049870009040788
  0
ARC
  5
D16F
  8
0
 10
411.0044230718671088
 20
81.0333910612810513
 30
0.0
 40
0.1464655529433206
 50
1.6965360810015351
 51
7.5148863893471951
  0
ARC
  5
D170
  8
0
 10
410.7794384268813133
 20
81.0182224019443566
 30
0.0
 40
0.3718978328509468
 50
359.8270101080898939
 51
3.0063657803495309
  0
ARC
  5
D171
  8
0
 10
410.760647050025625
 20
81.0156014287916975
 30
0.0
 40
0.3906903869631089
 50
356.1025577191371099
 51
0.2197045151882412
  0
ARC
  5
D172
  8
0
 10
411.072856254080591
 20
80.9934903521052547
 30
0.0
 40
0.0777048461185825
 50
349.3759482794279165
 51
356.7210939641291247
  0
ARC
  5
D173
  8
0
 10
411.1440792920968761
 20
80.9801972313847358
 30
0.0
 40
0.0052523491223652
 50
331.7849908032101212
 51
348.6591233305958895
  0
ARC
  5
D174
  8
0
 10
411.148414101375181
 20
80.9779126671462137
 30
0.0
 40
0.0003543683038478
 50
277.880064498120305
 51
325.9044572877382961
  0
ARC
  5
D175
  8
0
 10
411.1484772998147719
 20
80.9777995889080699
 30
0.0
 40
0.0002383922392568
 50
223.2762548779429892
 51
266.4852917026428258
  0
ARC
  5
D176
  8
0
 10
411.1502359696531812
 20
80.9790731237116432
 30
0.0
 40
0.0024079802007807
 50
189.7423456334622927
 51
216.6373226235926097
  0
ARC
  5
D177
  8
0
 10
411.2198332732957056
 20
80.9918506647849483
 30
0.0
 40
0.0731683385036004
 50
182.1609022492042982
 51
190.3814728850641984
  0
ARC
  5
D178
  8
0
 10
411.7420552843353789
 20
81.0172871443497087
 30
0.0
 40
0.5960056133535372
 50
178.8102961012685057
 51
182.7115151398068065
  0
ARC
  5
D179
  8
0
 10
411.3465167326878031
 20
81.029561766719155
 30
0.0
 40
0.200338606201773
 50
172.7169127444605863
 51
179.9713725010533096
  0
ARC
  5
D17A
  8
0
 10
411.1534213959632211
 20
81.0536842500968788
 30
0.0
 40
0.0057695185130988
 50
157.5345077592720031
 51
167.234859868957102
  0
LINE
  5
D17B
  8
0
 10
411.1529783833840952
 20
81.3938952985122484
 30
0.0
 11
411.1529783833840952
 21
81.0956707924622435
 31
0.0
  0
LINE
  5
D17C
  8
0
 10
411.1529783833840952
 20
80.9381904774622569
 30
0.0
 11
411.1529783833840952
 21
80.8121982847479075
 31
0.0
  0
LINE
  5
D17D
  8
0
 10
411.157621574273719
 20
80.8126897635321768
 30
0.0
 11
411.1236292228841194
 21
80.8090897175122649
 31
0.0
  0
ARC
  5
D17E
  8
0
 10
411.123794013178383
 20
80.8083724947127848
 30
0.0
 40
0.0007359105823201
 50
102.939793550729803
 51
153.0478631333812984
  0
ARC
  5
D17F
  8
0
 10
411.1413463988340027
 20
80.7993774168219403
 30
0.0
 40
0.020458930833048
 50
152.8727383838462117
 51
171.5413690278473098
  0
ARC
  5
D180
  8
0
 10
412.167573271916126
 20
80.6467642134866338
 30
0.0
 40
1.0579715258737741
 50
171.541369027846514
 51
173.5632006250662016
  0
ARC
  5
D181
  8
0
 10
411.3178013183156168
 20
80.7426341002474857
 30
0.0
 40
0.2028087294930874
 50
173.5632006250677932
 51
183.5605949166431117
  0
ARC
  5
D182
  8
0
 10
411.123062599419427
 20
80.7305166341356113
 30
0.0
 40
0.0076933748377144
 50
183.5605949166177879
 51
208.7828811350499905
  0
ARC
  5
D183
  8
0
 10
411.1165425904331983
 20
80.7272121366361546
 30
0.0
 40
0.0004577156074817
 50
240.8640989190157882
 51
333.7225303371164955
  0
ARC
  5
D184
  8
0
 10
410.9331272471600869
 20
80.7781621016209641
 30
0.0
 40
0.1908101111662899
 50
344.4498808806580996
 51
356.6621235267488146
  0
ARC
  5
D185
  8
0
 10
410.8309609132109017
 20
80.7964416976051467
 30
0.0
 40
0.2941247370668871
 50
354.2653623017882865
 51
1.315669147490159
  0
ARC
  5
D186
  8
0
 10
411.1007792931736731
 20
80.8024623676564886
 30
0.0
 40
0.0242398909930283
 50
1.7320311298358271
 51
13.7551874083456394
  0
ARC
  5
D187
  8
0
 10
411.1223046440455278
 20
80.8076588120552373
 30
0.0
 40
0.0020974905481518
 50
15.6882401331115595
 51
38.2573932233181893
  0
ARC
  5
D188
  8
0
 10
411.123372489172084
 20
80.8080038118127959
 30
0.0
 40
0.0011158420080802
 50
58.73118998250564
 51
76.698176971300839
  0
ARC
  5
D189
  8
0
 10
411.1215599632947146
 20
80.7888337633375215
 30
0.0
 40
0.0007541352465256
 50
19.0382448447976103
 51
59.2294568321342112
  0
ARC
  5
D18A
  8
0
 10
411.1174882610848158
 20
80.7874287230462613
 30
0.0
 40
0.0050614426544732
 50
8.0379022432260072
 51
19.0382448448071386
  0
ARC
  5
D18B
  8
0
 10
411.0577701512823978
 20
80.7826686621142045
 30
0.0
 40
0.0649603522439927
 50
357.2736587217373767
 51
4.8283693692671319
  0
ARC
  5
D18C
  8
0
 10
410.9324225759235105
 20
80.7847498093128138
 30
0.0
 40
0.1903046673661161
 50
354.3401416621243243
 51
358.4429457760385844
  0
ARC
  5
D18D
  8
0
 10
410.9731489359779744
 20
80.7785735033728685
 30
0.0
 40
0.1491829304451227
 50
348.7152387279813865
 51
355.1580938273191919
  0
ARC
  5
D18E
  8
0
 10
411.0937089149751955
 20
80.7562029995314958
 30
0.0
 40
0.0266275973932368
 50
338.9105763718292792
 51
345.1543709648915979
  0
ARC
  5
D18F
  8
0
 10
411.1181490907936222
 20
80.7467775033933322
 30
0.0
 40
0.0004329000007487
 50
273.0099607246066853
 51
338.9105763717751074
  0
ARC
  5
D190
  8
0
 10
411.1182471753219829
 20
80.7466207282549533
 30
0.0
 40
0.0002856458949382
 50
222.5198030079332909
 51
254.7043910221669876
  0
ARC
  5
D191
  8
0
 10
411.1265500827283859
 20
80.7494733945674739
 30
0.0
 40
0.0090418515130486
 50
180.1051384266110063
 51
199.6848794975499004
  0
ARC
  5
D192
  8
0
 10
411.2801710363038978
 20
80.7527466892075978
 30
0.0
 40
0.1626960557609919
 50
173.9637802958430939
 51
181.1586603052101054
  0
ARC
  5
D193
  8
0
 10
411.2375660633575762
 20
80.7607717512020145
 30
0.0
 40
0.1195346701639068
 50
166.6785327190877979
 51
175.6418208561503889
  0
ARC
  5
D194
  8
0
 10
411.1251320565528999
 20
80.7871099089222895
 30
0.0
 40
0.0040667203025913
 50
146.4328048267315978
 51
162.7736975860198925
  0
ARC
  5
D195
  8
0
 10
411.121976396144305
 20
80.7892039213361386
 30
0.0
 40
0.0002794943252242
 50
96.2889130771172859
 51
146.4328048267909139
  0
LINE
  5
D196
  8
0
 10
411.1164634834643152
 20
80.7267613088810236
 30
0.0
 11
411.1579926153841029
 21
80.714788395812235
 31
0.0
  0
ARC
  5
D197
  8
0
 10
410.1818850423438221
 20
80.7624886322198847
 30
0.0
 40
0.9770270893520777
 50
0.0745354090973155
 51
2.9452408175191178
  0
ARC
  5
D198
  8
0
 10
410.9535740137288258
 20
80.8034713441367813
 30
0.0
 40
0.2042556883430905
 50
2.5867382151927472
 51
7.2950700134066206
  0
ARC
  5
D199
  8
0
 10
411.1421170044692985
 20
80.8276971103147588
 30
0.0
 40
0.0141629903066603
 50
6.9365674110650408
 51
20.7204148378552908
  0
ARC
  5
D19A
  8
0
 10
411.1553084061695813
 20
80.8324986107687664
 30
0.0
 40
0.0002167076353713
 50
75.161330753949315
 51
140.7188868725625071
  0
ARC
  5
D19B
  8
0
 10
411.1758525446298904
 20
80.8273907652712751
 30
0.0
 40
0.0213656860660603
 50
165.789244550068787
 51
176.819458108314393
  0
ARC
  5
D19C
  8
0
 10
411.4723258512747748
 20
80.806938724913735
 30
0.0
 40
0.3185418115220294
 50
176.1050937083008989
 51
179.0377290809097985
  0
ARC
  5
D19D
  8
0
 10
410.0382493621378899
 20
80.7602887679102537
 30
0.0
 40
1.120667317740504
 50
357.673086361096523
 51
0.1774535122881608
  0
ARC
  5
D19E
  8
0
 10
410.7835106177121816
 20
80.7300053396863575
 30
0.0
 40
0.3747910377279014
 50
354.148627531041825
 51
357.673086361096523
  0
ARC
  5
D19F
  8
0
 10
411.0496785712281849
 20
80.7093442963350043
 30
0.0
 40
0.1081041006142682
 50
348.2136993618199767
 51
350.6579858444254114
  0
ARC
  5
D1A0
  8
0
 10
411.1553631771885193
 20
80.6873955230121567
 30
0.0
 40
0.0001931419878967
 50
221.9587143530660001
 51
316.5669159556272234
  0
ARC
  5
D1A1
  8
0
 10
411.1604239239014191
 20
80.6893590727954546
 30
0.0
 40
0.0056093506855751
 50
188.4071030685682899
 51
201.9051110890227108
  0
ARC
  5
D1A2
  8
0
 10
411.4673829298164947
 20
80.7158216656858656
 30
0.0
 40
0.3136967424991342
 50
179.9619619115352975
 51
184.9894099430653966
  0
LINE
  5
D1A3
  8
0
 10
411.1653418859764884
 20
80.6871189999442464
 30
0.0
 11
411.1313495345868887
 21
80.6835189539243061
 31
0.0
  0
ARC
  5
D1A4
  8
0
 10
411.1315143248812092
 20
80.682801731124826
 30
0.0
 40
0.0007359105823201
 50
102.939793550729803
 51
153.0478631333812984
  0
ARC
  5
D1A5
  8
0
 10
411.149066710536772
 20
80.6738066532339957
 30
0.0
 40
0.020458930833048
 50
152.8727383838462117
 51
171.5413690278473098
  0
ARC
  5
D1A6
  8
0
 10
412.1752935836187817
 20
80.521193449898675
 30
0.0
 40
1.0579715258737741
 50
171.541369027846514
 51
173.5632006250662016
  0
ARC
  5
D1A7
  8
0
 10
411.3255216300182724
 20
80.6170633366595411
 30
0.0
 40
0.2028087294930874
 50
173.5632006250677932
 51
183.5605949166431117
  0
ARC
  5
D1A8
  8
0
 10
411.1307829111221963
 20
80.6049458705476667
 30
0.0
 40
0.0076933748377144
 50
183.5605949166177879
 51
208.7828811350499905
  0
ARC
  5
D1A9
  8
0
 10
411.1242629021360244
 20
80.6016413730482242
 30
0.0
 40
0.0004577156074817
 50
240.8640989190157882
 51
333.7225303371164955
  0
ARC
  5
D1AA
  8
0
 10
410.9408475588627994
 20
80.6525913380330053
 30
0.0
 40
0.1908101111662899
 50
344.4498808806580996
 51
356.6621235267488146
  0
ARC
  5
D1AB
  8
0
 10
410.8386812249137279
 20
80.6708709340172021
 30
0.0
 40
0.2941247370668871
 50
354.2653623017882865
 51
1.315669147490159
  0
ARC
  5
D1AC
  8
0
 10
411.1084996048763855
 20
80.676891604068544
 30
0.0
 40
0.0242398909930283
 50
1.7320311298358271
 51
13.7551874083456394
  0
ARC
  5
D1AD
  8
0
 10
411.1300249557481834
 20
80.6820880484672927
 30
0.0
 40
0.0020974905481518
 50
15.6882401331115595
 51
38.2573932233181893
  0
ARC
  5
D1AE
  8
0
 10
411.1310928008749102
 20
80.6824330482248655
 30
0.0
 40
0.0011158420080802
 50
58.73118998250564
 51
76.698176971300839
  0
ARC
  5
D1AF
  8
0
 10
411.1292802749974271
 20
80.6632629997495769
 30
0.0
 40
0.0007541352465256
 50
19.0382448447976103
 51
59.2294568321342112
  0
ARC
  5
D1B0
  8
0
 10
411.1252085727874146
 20
80.6618579594583167
 30
0.0
 40
0.0050614426544732
 50
8.0379022432260072
 51
19.0382448448071386
  0
ARC
  5
D1B1
  8
0
 10
411.0654904629852808
 20
80.6570978985262457
 30
0.0
 40
0.0649603522439927
 50
357.2736587217373767
 51
4.8283693692671319
  0
ARC
  5
D1B2
  8
0
 10
410.940142887626223
 20
80.6591790457248834
 30
0.0
 40
0.1903046673661161
 50
354.3401416621243243
 51
358.4429457760385844
  0
ARC
  5
D1B3
  8
0
 10
410.9808692476808005
 20
80.6530027397849238
 30
0.0
 40
0.1491829304451227
 50
348.7152387279813865
 51
355.1580938273191919
  0
ARC
  5
D1B4
  8
0
 10
411.101429226677908
 20
80.630632235943537
 30
0.0
 40
0.0266275973932368
 50
338.9105763718292792
 51
345.1543709648915979
  0
ARC
  5
D1B5
  8
0
 10
411.1258694024963916
 20
80.6212067398053875
 30
0.0
 40
0.0004329000007487
 50
273.0099607246066853
 51
338.9105763717751074
  0
ARC
  5
D1B6
  8
0
 10
411.1259674870248091
 20
80.6210499646670229
 30
0.0
 40
0.0002856458949382
 50
222.5198030079332909
 51
254.7043910221669876
  0
ARC
  5
D1B7
  8
0
 10
411.1342703944313257
 20
80.623902630979515
 30
0.0
 40
0.0090418515130486
 50
180.1051384266110063
 51
199.6848794975499004
  0
ARC
  5
D1B8
  8
0
 10
411.2878913480066103
 20
80.6271759256196532
 30
0.0
 40
0.1626960557609919
 50
173.9637802958430939
 51
181.1586603052101054
  0
ARC
  5
D1B9
  8
0
 10
411.2452863750602887
 20
80.6352009876140841
 30
0.0
 40
0.1195346701639068
 50
166.6785327190877979
 51
175.6418208561503889
  0
ARC
  5
D1BA
  8
0
 10
411.1328523682557261
 20
80.6615391453343449
 30
0.0
 40
0.0040667203025913
 50
146.4328048267315978
 51
162.7736975860198925
  0
ARC
  5
D1BB
  8
0
 10
411.1296967078470743
 20
80.663633157748194
 30
0.0
 40
0.0002794943252242
 50
96.2889130771172859
 51
146.4328048267909139
  0
LINE
  5
D1BC
  8
0
 10
411.1241837951670846
 20
80.6011905452930648
 30
0.0
 11
411.1657129270868722
 21
80.5892176322243046
 31
0.0
  0
ARC
  5
D1BD
  8
0
 10
410.1896053540464777
 20
80.6369178686319543
 30
0.0
 40
0.9770270893520777
 50
0.0745354090973155
 51
2.9452408175191178
  0
ARC
  5
D1BE
  8
0
 10
410.9612943254314814
 20
80.6779005805488367
 30
0.0
 40
0.2042556883430905
 50
2.5867382151927472
 51
7.2950700134066206
  0
ARC
  5
D1BF
  8
0
 10
411.1498373161721247
 20
80.7021263467268142
 30
0.0
 40
0.0141629903066603
 50
6.9365674110650408
 51
20.7204148378552908
  0
ARC
  5
D1C0
  8
0
 10
411.1630287178722938
 20
80.7069278471808076
 30
0.0
 40
0.0002167076353713
 50
75.161330753949315
 51
140.7188868725625071
  0
ARC
  5
D1C1
  8
0
 10
411.1835728563327166
 20
80.7018200016833305
 30
0.0
 40
0.0213656860660603
 50
165.789244550068787
 51
176.819458108314393
  0
ARC
  5
D1C2
  8
0
 10
411.4800461629774873
 20
80.6813679613257904
 30
0.0
 40
0.3185418115220294
 50
176.1050937083008989
 51
179.0377290809097985
  0
ARC
  5
D1C3
  8
0
 10
410.0459696738406024
 20
80.6347180043223233
 30
0.0
 40
1.120667317740504
 50
357.673086361096523
 51
0.1774535122881608
  0
ARC
  5
D1C4
  8
0
 10
410.7912309294150077
 20
80.6044345760984271
 30
0.0
 40
0.3747910377279014
 50
354.148627531041825
 51
357.673086361096523
  0
ARC
  5
D1C5
  8
0
 10
411.0573988829308973
 20
80.5837735327470455
 30
0.0
 40
0.1081041006142682
 50
348.2136993618199767
 51
350.6579858444254114
  0
ARC
  5
D1C6
  8
0
 10
411.163083488891175
 20
80.5618247594241836
 30
0.0
 40
0.0001931419878967
 50
221.9587143530660001
 51
316.5669159556272234
  0
ARC
  5
D1C7
  8
0
 10
411.1681442356041885
 20
80.56378830920751
 30
0.0
 40
0.0056093506855751
 50
188.4071030685682899
 51
201.9051110890227108
  0
ARC
  5
D1C8
  8
0
 10
411.4751032415192071
 20
80.5902509020979068
 30
0.0
 40
0.3136967424991342
 50
179.9619619115352975
 51
184.9894099430653966
  0
LINE
  5
D1C9
  8
0
 10
411.1576991677001729
 20
80.5603689075791607
 30
0.0
 11
411.1237068163105164
 21
80.5567688615592346
 31
0.0
  0
ARC
  5
D1CA
  8
0
 10
411.12387160660478
 20
80.5560516387597545
 30
0.0
 40
0.0007359105823201
 50
102.939793550729803
 51
153.0478631333812984
  0
ARC
  5
D1CB
  8
0
 10
411.1414239922603997
 20
80.5470565608689242
 30
0.0
 40
0.020458930833048
 50
152.8727383838462117
 51
171.5413690278473098
  0
ARC
  5
D1CC
  8
0
 10
412.167650865342523
 20
80.3944433575336035
 30
0.0
 40
1.0579715258737741
 50
171.541369027846514
 51
173.5632006250662016
  0
ARC
  5
D1CD
  8
0
 10
411.3178789117419001
 20
80.4903132442944838
 30
0.0
 40
0.2028087294930874
 50
173.5632006250677932
 51
183.5605949166431117
  0
ARC
  5
D1CE
  8
0
 10
411.123140192845824
 20
80.4781957781825952
 30
0.0
 40
0.0076933748377144
 50
183.5605949166177879
 51
208.7828811350499905
  0
ARC
  5
D1CF
  8
0
 10
411.116620183859709
 20
80.4748912806831243
 30
0.0
 40
0.0004577156074817
 50
240.8640989190157882
 51
333.7225303371164955
  0
ARC
  5
D1D0
  8
0
 10
410.9332048405864839
 20
80.525841245667948
 30
0.0
 40
0.1908101111662899
 50
344.4498808806580996
 51
356.6621235267488146
  0
ARC
  5
D1D1
  8
0
 10
410.8310385066372987
 20
80.5441208416521164
 30
0.0
 40
0.2941247370668871
 50
354.2653623017882865
 51
1.315669147490159
  0
ARC
  5
D1D2
  8
0
 10
411.1008568866000132
 20
80.5501415117034725
 30
0.0
 40
0.0242398909930283
 50
1.7320311298358271
 51
13.7551874083456394
  0
ARC
  5
D1D3
  8
0
 10
411.1223822374719248
 20
80.5553379561022069
 30
0.0
 40
0.0020974905481518
 50
15.6882401331115595
 51
38.2573932233181893
  0
ARC
  5
D1D4
  8
0
 10
411.123450082598481
 20
80.5556829558597656
 30
0.0
 40
0.0011158420080802
 50
58.73118998250564
 51
76.698176971300839
  0
ARC
  5
D1D5
  8
0
 10
411.121637556720998
 20
80.5365129073845054
 30
0.0
 40
0.0007541352465256
 50
19.0382448447976103
 51
59.2294568321342112
  0
ARC
  5
D1D6
  8
0
 10
411.1175658545112128
 20
80.5351078670932452
 30
0.0
 40
0.0050614426544732
 50
8.0379022432260072
 51
19.0382448448071386
  0
ARC
  5
D1D7
  8
0
 10
411.0578477447089085
 20
80.5303478061611884
 30
0.0
 40
0.0649603522439927
 50
357.2736587217373767
 51
4.8283693692671319
  0
ARC
  5
D1D8
  8
0
 10
410.9325001693497939
 20
80.5324289533598261
 30
0.0
 40
0.1903046673661161
 50
354.3401416621243243
 51
358.4429457760385844
  0
ARC
  5
D1D9
  8
0
 10
410.9732265294044282
 20
80.5262526474198523
 30
0.0
 40
0.1491829304451227
 50
348.7152387279813865
 51
355.1580938273191919
  0
ARC
  5
D1DA
  8
0
 10
411.0937865084015925
 20
80.5038821435784655
 30
0.0
 40
0.0266275973932368
 50
338.9105763718292792
 51
345.1543709648915979
  0
ARC
  5
D1DB
  8
0
 10
411.1182266842200193
 20
80.494456647440316
 30
0.0
 40
0.0004329000007487
 50
273.0099607246066853
 51
338.9105763717751074
  0
ARC
  5
D1DC
  8
0
 10
411.1183247687484936
 20
80.4942998723019656
 30
0.0
 40
0.0002856458949382
 50
222.5198030079332909
 51
254.7043910221669876
  0
ARC
  5
D1DD
  8
0
 10
411.1266276761548966
 20
80.4971525386144435
 30
0.0
 40
0.0090418515130486
 50
180.1051384266110063
 51
199.6848794975499004
  0
ARC
  5
D1DE
  8
0
 10
411.2802486297304085
 20
80.5004258332545959
 30
0.0
 40
0.1626960557609919
 50
173.9637802958430939
 51
181.1586603052101054
  0
ARC
  5
D1DF
  8
0
 10
411.2376436567839733
 20
80.5084508952490125
 30
0.0
 40
0.1195346701639068
 50
166.6785327190877979
 51
175.6418208561503889
  0
ARC
  5
D1E0
  8
0
 10
411.125209649979297
 20
80.5347890529692734
 30
0.0
 40
0.0040667203025913
 50
146.4328048267315978
 51
162.7736975860198925
  0
ARC
  5
D1E1
  8
0
 10
411.1220539895708157
 20
80.5368830653831225
 30
0.0
 40
0.0002794943252242
 50
96.2889130771172859
 51
146.4328048267909139
  0
LINE
  5
D1E2
  8
0
 10
411.1165410768907122
 20
80.4744404529280075
 30
0.0
 11
411.1580702088104999
 21
80.4624675398592331
 31
0.0
  0
ARC
  5
D1E3
  8
0
 10
410.1819626357702191
 20
80.5101677762668828
 30
0.0
 40
0.9770270893520777
 50
0.0745354090973155
 51
2.9452408175191178
  0
ARC
  5
D1E4
  8
0
 10
410.9536516071552228
 20
80.5511504881837652
 30
0.0
 40
0.2042556883430905
 50
2.5867382151927472
 51
7.2950700134066206
  0
ARC
  5
D1E5
  8
0
 10
411.1421945978956956
 20
80.5753762543617285
 30
0.0
 40
0.0141629903066603
 50
6.9365674110650408
 51
20.7204148378552908
  0
ARC
  5
D1E6
  8
0
 10
411.1553859995959215
 20
80.5801777548157503
 30
0.0
 40
0.0002167076353713
 50
75.161330753949315
 51
140.7188868725625071
  0
ARC
  5
D1E7
  8
0
 10
411.1759301380562874
 20
80.5750699093182448
 30
0.0
 40
0.0213656860660603
 50
165.789244550068787
 51
176.819458108314393
  0
ARC
  5
D1E8
  8
0
 10
411.4724034447011718
 20
80.5546178689607189
 30
0.0
 40
0.3185418115220294
 50
176.1050937083008989
 51
179.0377290809097985
  0
ARC
  5
D1E9
  8
0
 10
410.0383269555641732
 20
80.5079679119572518
 30
0.0
 40
1.120667317740504
 50
357.673086361096523
 51
0.1774535122881608
  0
ARC
  5
D1EA
  8
0
 10
410.7835882111386923
 20
80.4776844837333556
 30
0.0
 40
0.3747910377279014
 50
354.148627531041825
 51
357.673086361096523
  0
ARC
  5
D1EB
  8
0
 10
411.049756164654525
 20
80.4570234403819882
 30
0.0
 40
0.1081041006142682
 50
348.2136993618199767
 51
350.6579858444254114
  0
ARC
  5
D1EC
  8
0
 10
411.1554407706148027
 20
80.4350746670591263
 30
0.0
 40
0.0001931419878967
 50
221.9587143530660001
 51
316.5669159556272234
  0
ARC
  5
D1ED
  8
0
 10
411.1605015173278161
 20
80.4370382168424385
 30
0.0
 40
0.0056093506855751
 50
188.4071030685682899
 51
201.9051110890227108
  0
ARC
  5
D1EE
  8
0
 10
411.467460523242778
 20
80.4635008097328495
 30
0.0
 40
0.3136967424991342
 50
179.9619619115352975
 51
184.9894099430653966
  0
LINE
  5
D1EF
  8
0
 10
411.1653762995737225
 20
80.4340823327140839
 30
0.0
 11
411.1313839481840091
 21
80.4304822866941578
 31
0.0
  0
ARC
  5
D1F0
  8
0
 10
411.1315487384783864
 20
80.4297650638946777
 30
0.0
 40
0.0007359105823201
 50
102.939793550729803
 51
153.0478631333812984
  0
ARC
  5
D1F1
  8
0
 10
411.1491011241338924
 20
80.4207699860038332
 30
0.0
 40
0.020458930833048
 50
152.8727383838462117
 51
171.5413690278473098
  0
ARC
  5
D1F2
  8
0
 10
412.1753279972160726
 20
80.2681567826685267
 30
0.0
 40
1.0579715258737741
 50
171.541369027846514
 51
173.5632006250662016
  0
ARC
  5
D1F3
  8
0
 10
411.3255560436153928
 20
80.3640266694293786
 30
0.0
 40
0.2028087294930874
 50
173.5632006250677932
 51
183.5605949166431117
  0
ARC
  5
D1F4
  8
0
 10
411.1308173247193167
 20
80.3519092033175184
 30
0.0
 40
0.0076933748377144
 50
183.5605949166177879
 51
208.7828811350499905
  0
ARC
  5
D1F5
  8
0
 10
411.1242973157332017
 20
80.3486047058180617
 30
0.0
 40
0.0004577156074817
 50
240.8640989190157882
 51
333.7225303371164955
  0
ARC
  5
D1F6
  8
0
 10
410.9408819724599766
 20
80.3995546708028854
 30
0.0
 40
0.1908101111662899
 50
344.4498808806580996
 51
356.6621235267488146
  0
ARC
  5
D1F7
  8
0
 10
410.8387156385107915
 20
80.4178342667870538
 30
0.0
 40
0.2941247370668871
 50
354.2653623017882865
 51
1.315669147490159
  0
ARC
  5
D1F8
  8
0
 10
411.1085340184733923
 20
80.4238549368383957
 30
0.0
 40
0.0242398909930283
 50
1.7320311298358271
 51
13.7551874083456394
  0
ARC
  5
D1F9
  8
0
 10
411.1300593693454175
 20
80.4290513812371444
 30
0.0
 40
0.0020974905481518
 50
15.6882401331115595
 51
38.2573932233181893
  0
ARC
  5
D1FA
  8
0
 10
411.1311272144719737
 20
80.429396380994703
 30
0.0
 40
0.0011158420080802
 50
58.73118998250564
 51
76.698176971300839
  0
ARC
  5
D1FB
  8
0
 10
411.1293146885944907
 20
80.4102263325194286
 30
0.0
 40
0.0007541352465256
 50
19.0382448447976103
 51
59.2294568321342112
  0
ARC
  5
D1FC
  8
0
 10
411.1252429863847055
 20
80.4088212922281684
 30
0.0
 40
0.0050614426544732
 50
8.0379022432260072
 51
19.0382448448071386
  0
ARC
  5
D1FD
  8
0
 10
411.0655248765824012
 20
80.4040612312961258
 30
0.0
 40
0.0649603522439927
 50
357.2736587217373767
 51
4.8283693692671319
  0
ARC
  5
D1FE
  8
0
 10
410.9401773012232866
 20
80.4061423784947351
 30
0.0
 40
0.1903046673661161
 50
354.3401416621243243
 51
358.4429457760385844
  0
ARC
  5
D1FF
  8
0
 10
410.9809036612778073
 20
80.3999660725547756
 30
0.0
 40
0.1491829304451227
 50
348.7152387279813865
 51
355.1580938273191919
  0
ARC
  5
D200
  8
0
 10
411.1014636402750853
 20
80.3775955687133887
 30
0.0
 40
0.0266275973932368
 50
338.9105763718292792
 51
345.1543709648915979
  0
ARC
  5
D201
  8
0
 10
411.125903816093512
 20
80.368170072575225
 30
0.0
 40
0.0004329000007487
 50
273.0099607246066853
 51
338.9105763717751074
  0
ARC
  5
D202
  8
0
 10
411.1260019006219864
 20
80.3680132974368746
 30
0.0
 40
0.0002856458949382
 50
222.5198030079332909
 51
254.7043910221669876
  0
ARC
  5
D203
  8
0
 10
411.1343048080283893
 20
80.3708659637493668
 30
0.0
 40
0.0090418515130486
 50
180.1051384266110063
 51
199.6848794975499004
  0
ARC
  5
D204
  8
0
 10
411.2879257616039013
 20
80.3741392583895191
 30
0.0
 40
0.1626960557609919
 50
173.9637802958430939
 51
181.1586603052101054
  0
ARC
  5
D205
  8
0
 10
411.2453207886574091
 20
80.3821643203839358
 30
0.0
 40
0.1195346701639068
 50
166.6785327190877979
 51
175.6418208561503889
  0
ARC
  5
D206
  8
0
 10
411.1328867818529034
 20
80.4085024781041966
 30
0.0
 40
0.0040667203025913
 50
146.4328048267315978
 51
162.7736975860198925
  0
ARC
  5
D207
  8
0
 10
411.1297311214441947
 20
80.4105964905180457
 30
0.0
 40
0.0002794943252242
 50
96.2889130771172859
 51
146.4328048267909139
  0
LINE
  5
D208
  8
0
 10
411.1242182087640913
 20
80.3481538780629307
 30
0.0
 11
411.1657473406839927
 21
80.3361809649941563
 31
0.0
  0
ARC
  5
D209
  8
0
 10
410.1896397676437118
 20
80.383881201401806
 30
0.0
 40
0.9770270893520777
 50
0.0745354090973155
 51
2.9452408175191178
  0
ARC
  5
D20A
  8
0
 10
410.9613287390287155
 20
80.4248639133186742
 30
0.0
 40
0.2042556883430905
 50
2.5867382151927472
 51
7.2950700134066206
  0
ARC
  5
D20B
  8
0
 10
411.1498717297691883
 20
80.4490896794966659
 30
0.0
 40
0.0141629903066603
 50
6.9365674110650408
 51
20.7204148378552908
  0
ARC
  5
D20C
  8
0
 10
411.1630631314694142
 20
80.4538911799506735
 30
0.0
 40
0.0002167076353713
 50
75.161330753949315
 51
140.7188868725625071
  0
ARC
  5
D20D
  8
0
 10
411.1836072699297802
 20
80.4487833344531822
 30
0.0
 40
0.0213656860660603
 50
165.789244550068787
 51
176.819458108314393
  0
ARC
  5
D20E
  8
0
 10
411.4800805765747214
 20
80.4283312940956279
 30
0.0
 40
0.3185418115220294
 50
176.1050937083008989
 51
179.0377290809097985
  0
ARC
  5
D20F
  8
0
 10
410.0460040874377228
 20
80.381681337092175
 30
0.0
 40
1.120667317740504
 50
357.673086361096523
 51
0.1774535122881608
  0
ARC
  5
D210
  8
0
 10
410.791265343012185
 20
80.3513979088682788
 30
0.0
 40
0.3747910377279014
 50
354.148627531041825
 51
357.673086361096523
  0
ARC
  5
D211
  8
0
 10
411.0574332965280178
 20
80.3307368655169114
 30
0.0
 40
0.1081041006142682
 50
348.2136993618199767
 51
350.6579858444254114
  0
ARC
  5
D212
  8
0
 10
411.1631179024882954
 20
80.3087880921940496
 30
0.0
 40
0.0001931419878967
 50
221.9587143530660001
 51
316.5669159556272234
  0
ARC
  5
D213
  8
0
 10
411.1681786492011952
 20
80.3107516419773475
 30
0.0
 40
0.0056093506855751
 50
188.4071030685682899
 51
201.9051110890227108
  0
ARC
  5
D214
  8
0
 10
411.4751376551163276
 20
80.3372142348677727
 30
0.0
 40
0.3136967424991342
 50
179.9619619115352975
 51
184.9894099430653966
  0
LINE
  5
D215
  8
0
 10
411.1578305175549986
 20
80.3096206397577248
 30
0.0
 11
411.1238381661652852
 21
80.3060205937377987
 31
0.0
  0
ARC
  5
D216
  8
0
 10
411.1240029564596057
 20
80.3053033709383186
 30
0.0
 40
0.0007359105823201
 50
102.939793550729803
 51
153.0478631333812984
  0
ARC
  5
D217
  8
0
 10
411.1415553421152254
 20
80.2963082930474741
 30
0.0
 40
0.020458930833048
 50
152.8727383838462117
 51
171.5413690278473098
  0
ARC
  5
D218
  8
0
 10
412.1677822151972919
 20
80.1436950897121676
 30
0.0
 40
1.0579715258737741
 50
171.541369027846514
 51
173.5632006250662016
  0
ARC
  5
D219
  8
0
 10
411.3180102615967826
 20
80.2395649764730337
 30
0.0
 40
0.2028087294930874
 50
173.5632006250677932
 51
183.5605949166431117
  0
ARC
  5
D21A
  8
0
 10
411.1232715427005928
 20
80.2274475103611593
 30
0.0
 40
0.0076933748377144
 50
183.5605949166177879
 51
208.7828811350499905
  0
ARC
  5
D21B
  8
0
 10
411.1167515337144209
 20
80.2241430128617026
 30
0.0
 40
0.0004577156074817
 50
240.8640989190157882
 51
333.7225303371164955
  0
ARC
  5
D21C
  8
0
 10
410.9333361904413096
 20
80.2750929778465263
 30
0.0
 40
0.1908101111662899
 50
344.4498808806580996
 51
356.6621235267488146
  0
ARC
  5
D21D
  8
0
 10
410.8311698564921244
 20
80.2933725738306947
 30
0.0
 40
0.2941247370668871
 50
354.2653623017882865
 51
1.315669147490159
  0
ARC
  5
D21E
  8
0
 10
411.1009882364547252
 20
80.2993932438820366
 30
0.0
 40
0.0242398909930283
 50
1.7320311298358271
 51
13.7551874083456394
  0
ARC
  5
D21F
  8
0
 10
411.1225135873266936
 20
80.3045896882807853
 30
0.0
 40
0.0020974905481518
 50
15.6882401331115595
 51
38.2573932233181893
  0
ARC
  5
D220
  8
0
 10
411.123581432453193
 20
80.3049346880383439
 30
0.0
 40
0.0011158420080802
 50
58.73118998250564
 51
76.698176971300839
  0
ARC
  5
D221
  8
0
 10
411.1217689065758805
 20
80.2857646395630695
 30
0.0
 40
0.0007541352465256
 50
19.0382448447976103
 51
59.2294568321342112
  0
ARC
  5
D222
  8
0
 10
411.1176972043659816
 20
80.2843595992718093
 30
0.0
 40
0.0050614426544732
 50
8.0379022432260072
 51
19.0382448448071386
  0
ARC
  5
D223
  8
0
 10
411.0579790945636205
 20
80.2795995383397667
 30
0.0
 40
0.0649603522439927
 50
357.2736587217373767
 51
4.8283693692671319
  0
ARC
  5
D224
  8
0
 10
410.9326315192046195
 20
80.281680685538376
 30
0.0
 40
0.1903046673661161
 50
354.3401416621243243
 51
358.4429457760385844
  0
ARC
  5
D225
  8
0
 10
410.9733578792590833
 20
80.2755043795984164
 30
0.0
 40
0.1491829304451227
 50
348.7152387279813865
 51
355.1580938273191919
  0
ARC
  5
D226
  8
0
 10
411.0939178582563045
 20
80.2531338757570296
 30
0.0
 40
0.0266275973932368
 50
338.9105763718292792
 51
345.1543709648915979
  0
ARC
  5
D227
  8
0
 10
411.1183580340746744
 20
80.2437083796188659
 30
0.0
 40
0.0004329000007487
 50
273.0099607246066853
 51
338.9105763717751074
  0
ARC
  5
D228
  8
0
 10
411.1184561186032056
 20
80.2435516044805155
 30
0.0
 40
0.0002856458949382
 50
222.5198030079332909
 51
254.7043910221669876
  0
ARC
  5
D229
  8
0
 10
411.1267590260096085
 20
80.2464042707930076
 30
0.0
 40
0.0090418515130486
 50
180.1051384266110063
 51
199.6848794975499004
  0
ARC
  5
D22A
  8
0
 10
411.2803799795851205
 20
80.2496775654331742
 30
0.0
 40
0.1626960557609919
 50
173.9637802958430939
 51
181.1586603052101054
  0
ARC
  5
D22B
  8
0
 10
411.2377750066387989
 20
80.2577026274275767
 30
0.0
 40
0.1195346701639068
 50
166.6785327190877979
 51
175.6418208561503889
  0
ARC
  5
D22C
  8
0
 10
411.1253409998341226
 20
80.2840407851478375
 30
0.0
 40
0.0040667203025913
 50
146.4328048267315978
 51
162.7736975860198925
  0
ARC
  5
D22D
  8
0
 10
411.1221853394255277
 20
80.2861347975616866
 30
0.0
 40
0.0002794943252242
 50
96.2889130771172859
 51
146.4328048267909139
  0
LINE
  5
D22E
  8
0
 10
411.1166724267454242
 20
80.2236921851065716
 30
0.0
 11
411.1582015586653256
 21
80.211719272037783
 31
0.0
  0
ARC
  5
D22F
  8
0
 10
410.1820939856248742
 20
80.2594195084454469
 30
0.0
 40
0.9770270893520777
 50
0.0745354090973155
 51
2.9452408175191178
  0
ARC
  5
D230
  8
0
 10
410.9537829570099916
 20
80.3004022203623151
 30
0.0
 40
0.2042556883430905
 50
2.5867382151927472
 51
7.2950700134066206
  0
ARC
  5
D231
  8
0
 10
411.1423259477505212
 20
80.3246279865403068
 30
0.0
 40
0.0141629903066603
 50
6.9365674110650408
 51
20.7204148378552908
  0
ARC
  5
D232
  8
0
 10
411.1555173494506903
 20
80.3294294869943144
 30
0.0
 40
0.0002167076353713
 50
75.161330753949315
 51
140.7188868725625071
  0
ARC
  5
D233
  8
0
 10
411.1760614879111131
 20
80.3243216414968231
 30
0.0
 40
0.0213656860660603
 50
165.789244550068787
 51
176.819458108314393
  0
ARC
  5
D234
  8
0
 10
411.4725347945559975
 20
80.3038696011392688
 30
0.0
 40
0.3185418115220294
 50
176.1050937083008989
 51
179.0377290809097985
  0
ARC
  5
D235
  8
0
 10
410.0384583054188852
 20
80.2572196441358159
 30
0.0
 40
1.120667317740504
 50
357.673086361096523
 51
0.1774535122881608
  0
ARC
  5
D236
  8
0
 10
410.7837195609935179
 20
80.2269362159119339
 30
0.0
 40
0.3747910377279014
 50
354.148627531041825
 51
357.673086361096523
  0
ARC
  5
D237
  8
0
 10
411.0498875145092939
 20
80.2062751725605523
 30
0.0
 40
0.1081041006142682
 50
348.2136993618199767
 51
350.6579858444254114
  0
ARC
  5
D238
  8
0
 10
411.1555721204696283
 20
80.1843263992376905
 30
0.0
 40
0.0001931419878967
 50
221.9587143530660001
 51
316.5669159556272234
  0
ARC
  5
D239
  8
0
 10
411.1606328671825281
 20
80.1862899490209884
 30
0.0
 40
0.0056093506855751
 50
188.4071030685682899
 51
201.9051110890227108
  0
ARC
  5
D23A
  8
0
 10
411.46759187309749
 20
80.2127525419114136
 30
0.0
 40
0.3136967424991342
 50
179.9619619115352975
 51
184.9894099430653966
  0
LINE
  5
D23B
  8
0
 10
411.1653705321368761
 20
80.180861166209624
 30
0.0
 11
411.1313781807472196
 21
80.1772611201896837
 31
0.0
  0
ARC
  5
D23C
  8
0
 10
411.131542971041597
 20
80.1765438973902036
 30
0.0
 40
0.0007359105823201
 50
102.939793550729803
 51
153.0478631333812984
  0
ARC
  5
D23D
  8
0
 10
411.1490953566972166
 20
80.1675488194993875
 30
0.0
 40
0.020458930833048
 50
152.8727383838462117
 51
171.5413690278473098
  0
ARC
  5
D23E
  8
0
 10
412.1753222297792831
 20
80.0149356161640668
 30
0.0
 40
1.0579715258737741
 50
171.541369027846514
 51
173.5632006250662016
  0
ARC
  5
D23F
  8
0
 10
411.3255502761787739
 20
80.1108055029249329
 30
0.0
 40
0.2028087294930874
 50
173.5632006250677932
 51
183.5605949166431117
  0
ARC
  5
D240
  8
0
 10
411.1308115572825841
 20
80.0986880368130443
 30
0.0
 40
0.0076933748377144
 50
183.5605949166177879
 51
208.7828811350499905
  0
ARC
  5
D241
  8
0
 10
411.1242915482964122
 20
80.0953835393135876
 30
0.0
 40
0.0004577156074817
 50
240.8640989190157882
 51
333.7225303371164955
  0
ARC
  5
D242
  8
0
 10
410.9408762050231871
 20
80.1463335042984113
 30
0.0
 40
0.1908101111662899
 50
344.4498808806580996
 51
356.6621235267488146
  0
ARC
  5
D243
  8
0
 10
410.8387098710741157
 20
80.1646131002825939
 30
0.0
 40
0.2941247370668871
 50
354.2653623017882865
 51
1.315669147490159
  0
ARC
  5
D244
  8
0
 10
411.1085282510367733
 20
80.1706337703339358
 30
0.0
 40
0.0242398909930283
 50
1.7320311298358271
 51
13.7551874083456394
  0
ARC
  5
D245
  8
0
 10
411.130053601908628
 20
80.1758302147326845
 30
0.0
 40
0.0020974905481518
 50
15.6882401331115595
 51
38.2573932233181893
  0
ARC
  5
D246
  8
0
 10
411.1311214470352979
 20
80.1761752144902289
 30
0.0
 40
0.0011158420080802
 50
58.73118998250564
 51
76.698176971300839
  0
ARC
  5
D247
  8
0
 10
411.1293089211578717
 20
80.1570051660149545
 30
0.0
 40
0.0007541352465256
 50
19.0382448447976103
 51
59.2294568321342112
  0
ARC
  5
D248
  8
0
 10
411.1252372189479161
 20
80.1556001257236943
 30
0.0
 40
0.0050614426544732
 50
8.0379022432260072
 51
19.0382448448071386
  0
ARC
  5
D249
  8
0
 10
411.0655191091457255
 20
80.1508400647916517
 30
0.0
 40
0.0649603522439927
 50
357.2736587217373767
 51
4.8283693692671319
  0
ARC
  5
D24A
  8
0
 10
410.9401715337867245
 20
80.1529212119902752
 30
0.0
 40
0.1903046673661161
 50
354.3401416621243243
 51
358.4429457760385844
  0
ARC
  5
D24B
  8
0
 10
410.9808978938411883
 20
80.1467449060503156
 30
0.0
 40
0.1491829304451227
 50
348.7152387279813865
 51
355.1580938273191919
  0
ARC
  5
D24C
  8
0
 10
411.1014578728384095
 20
80.1243744022089146
 30
0.0
 40
0.0266275973932368
 50
338.9105763718292792
 51
345.1543709648915979
  0
ARC
  5
D24D
  8
0
 10
411.1258980486567793
 20
80.1149489060707793
 30
0.0
 40
0.0004329000007487
 50
273.0099607246066853
 51
338.9105763717751074
  0
ARC
  5
D24E
  8
0
 10
411.1259961331851969
 20
80.1147921309324147
 30
0.0
 40
0.0002856458949382
 50
222.5198030079332909
 51
254.7043910221669876
  0
ARC
  5
D24F
  8
0
 10
411.1342990405915998
 20
80.1176447972449068
 30
0.0
 40
0.0090418515130486
 50
180.1051384266110063
 51
199.6848794975499004
  0
ARC
  5
D250
  8
0
 10
411.2879199941671118
 20
80.1209180918850592
 30
0.0
 40
0.1626960557609919
 50
173.9637802958430939
 51
181.1586603052101054
  0
ARC
  5
D251
  8
0
 10
411.2453150212207902
 20
80.1289431538794759
 30
0.0
 40
0.1195346701639068
 50
166.6785327190877979
 51
175.6418208561503889
  0
ARC
  5
D252
  8
0
 10
411.1328810144161139
 20
80.1552813115997367
 30
0.0
 40
0.0040667203025913
 50
146.4328048267315978
 51
162.7736975860198925
  0
ARC
  5
D253
  8
0
 10
411.1297253540075189
 20
80.1573753240135858
 30
0.0
 40
0.0002794943252242
 50
96.2889130771172859
 51
146.4328048267909139
  0
LINE
  5
D254
  8
0
 10
411.1242124413274723
 20
80.0949327115584708
 30
0.0
 11
411.1657415732473169
 21
80.0829597984896964
 31
0.0
  0
ARC
  5
D255
  8
0
 10
410.1896340002069792
 20
80.1306600348973461
 30
0.0
 40
0.9770270893520777
 50
0.0745354090973155
 51
2.9452408175191178
  0
ARC
  5
D256
  8
0
 10
410.9613229715919829
 20
80.1716427468142285
 30
0.0
 40
0.2042556883430905
 50
2.5867382151927472
 51
7.2950700134066206
  0
ARC
  5
D257
  8
0
 10
411.1498659623325125
 20
80.195868512992206
 30
0.0
 40
0.0141629903066603
 50
6.9365674110650408
 51
20.7204148378552908
  0
ARC
  5
D258
  8
0
 10
411.1630573640327952
 20
80.2006700134462136
 30
0.0
 40
0.0002167076353713
 50
75.161330753949315
 51
140.7188868725625071
  0
ARC
  5
D259
  8
0
 10
411.1836015024931044
 20
80.1955621679487365
 30
0.0
 40
0.0213656860660603
 50
165.789244550068787
 51
176.819458108314393
  0
ARC
  5
D25A
  8
0
 10
411.4800748091379887
 20
80.1751101275911822
 30
0.0
 40
0.3185418115220294
 50
176.1050937083008989
 51
179.0377290809097985
  0
ARC
  5
D25B
  8
0
 10
410.0459983200009901
 20
80.1284601705877151
 30
0.0
 40
1.120667317740504
 50
357.673086361096523
 51
0.1774535122881608
  0
ARC
  5
D25C
  8
0
 10
410.7912595755753955
 20
80.0981767423638189
 30
0.0
 40
0.3747910377279014
 50
354.148627531041825
 51
357.673086361096523
  0
ARC
  5
D25D
  8
0
 10
411.0574275290913988
 20
80.0775156990124515
 30
0.0
 40
0.1081041006142682
 50
348.2136993618199767
 51
350.6579858444254114
  0
ARC
  5
D25E
  8
0
 10
411.1631121350516764
 20
80.0555669256895754
 30
0.0
 40
0.0001931419878967
 50
221.9587143530660001
 51
316.5669159556272234
  0
ARC
  5
D25F
  8
0
 10
411.1681728817645762
 20
80.0575304754729018
 30
0.0
 40
0.0056093506855751
 50
188.4071030685682899
 51
201.9051110890227108
  0
ARC
  5
D260
  8
0
 10
411.4751318876797086
 20
80.0839930683633128
 30
0.0
 40
0.3136967424991342
 50
179.9619619115352975
 51
184.9894099430653966
  0
LINE
  5
D261
  8
0
 10
411.1576488827486173
 20
80.0546375882660328
 30
0.0
 11
411.123656531358904
 21
80.0510375422461067
 31
0.0
  0
ARC
  5
D262
  8
0
 10
411.1238213216532245
 20
80.0503203194466266
 30
0.0
 40
0.0007359105823201
 50
102.939793550729803
 51
153.0478631333812984
  0
ARC
  5
D263
  8
0
 10
411.1413737073087873
 20
80.0413252415557963
 30
0.0
 40
0.020458930833048
 50
152.8727383838462117
 51
171.5413690278473098
  0
ARC
  5
D264
  8
0
 10
412.1676005803910243
 20
79.8887120382204756
 30
0.0
 40
1.0579715258737741
 50
171.541369027846514
 51
173.5632006250662016
  0
ARC
  5
D265
  8
0
 10
411.3178286267904014
 20
79.9845819249813417
 30
0.0
 40
0.2028087294930874
 50
173.5632006250677932
 51
183.5605949166431117
  0
ARC
  5
D266
  8
0
 10
411.1230899078942116
 20
79.9724644588694673
 30
0.0
 40
0.0076933748377144
 50
183.5605949166177879
 51
208.7828811350499905
  0
ARC
  5
D267
  8
0
 10
411.1165698989079829
 20
79.9691599613700106
 30
0.0
 40
0.0004577156074817
 50
240.8640989190157882
 51
333.7225303371164955
  0
ARC
  5
D268
  8
0
 10
410.9331545556349283
 20
80.0201099263548059
 30
0.0
 40
0.1908101111662899
 50
344.4498808806580996
 51
356.6621235267488146
  0
ARC
  5
D269
  8
0
 10
410.8309882216856863
 20
80.0383895223390027
 30
0.0
 40
0.2941247370668871
 50
354.2653623017882865
 51
1.315669147490159
  0
ARC
  5
D26A
  8
0
 10
411.1008066016482871
 20
80.0444101923903446
 30
0.0
 40
0.0242398909930283
 50
1.7320311298358271
 51
13.7551874083456394
  0
ARC
  5
D26B
  8
0
 10
411.1223319525203124
 20
80.0496066367890933
 30
0.0
 40
0.0020974905481518
 50
15.6882401331115595
 51
38.2573932233181893
  0
ARC
  5
D26C
  8
0
 10
411.1233997976468117
 20
80.0499516365466519
 30
0.0
 40
0.0011158420080802
 50
58.73118998250564
 51
76.698176971300839
  0
ARC
  5
D26D
  8
0
 10
411.1215872717694992
 20
80.0307815880713775
 30
0.0
 40
0.0007541352465256
 50
19.0382448447976103
 51
59.2294568321342112
  0
ARC
  5
D26E
  8
0
 10
411.1175155695596004
 20
80.0293765477801173
 30
0.0
 40
0.0050614426544732
 50
8.0379022432260072
 51
19.0382448448071386
  0
ARC
  5
D26F
  8
0
 10
411.0577974597571824
 20
80.0246164868480463
 30
0.0
 40
0.0649603522439927
 50
357.2736587217373767
 51
4.8283693692671319
  0
ARC
  5
D270
  8
0
 10
410.9324498843981814
 20
80.026697634046684
 30
0.0
 40
0.1903046673661161
 50
354.3401416621243243
 51
358.4429457760385844
  0
ARC
  5
D271
  8
0
 10
410.9731762444527021
 20
80.0205213281067245
 30
0.0
 40
0.1491829304451227
 50
348.7152387279813865
 51
355.1580938273191919
  0
ARC
  5
D272
  8
0
 10
411.0937362234499801
 20
79.9981508242653234
 30
0.0
 40
0.0266275973932368
 50
338.9105763718292792
 51
345.1543709648915979
  0
ARC
  5
D273
  8
0
 10
411.1181763992682932
 20
79.988725328127174
 30
0.0
 40
0.0004329000007487
 50
273.0099607246066853
 51
338.9105763717751074
  0
ARC
  5
D274
  8
0
 10
411.1182744837968244
 20
79.9885685529888235
 30
0.0
 40
0.0002856458949382
 50
222.5198030079332909
 51
254.7043910221669876
  0
ARC
  5
D275
  8
0
 10
411.1265773912032273
 20
79.9914212193013157
 30
0.0
 40
0.0090418515130486
 50
180.1051384266110063
 51
199.6848794975499004
  0
ARC
  5
D276
  8
0
 10
411.2801983447786824
 20
79.994694513941468
 30
0.0
 40
0.1626960557609919
 50
173.9637802958430939
 51
181.1586603052101054
  0
ARC
  5
D277
  8
0
 10
411.2375933718324177
 20
80.0027195759358847
 30
0.0
 40
0.1195346701639068
 50
166.6785327190877979
 51
175.6418208561503889
  0
ARC
  5
D278
  8
0
 10
411.1251593650276845
 20
80.0290577336561455
 30
0.0
 40
0.0040667203025913
 50
146.4328048267315978
 51
162.7736975860198925
  0
ARC
  5
D279
  8
0
 10
411.1220037046190896
 20
80.0311517460699946
 30
0.0
 40
0.0002794943252242
 50
96.2889130771172859
 51
146.4328048267909139
  0
LINE
  5
D27A
  8
0
 10
411.1164907919389861
 20
79.9687091336148796
 30
0.0
 11
411.1580199238588875
 21
79.9567362205461052
 31
0.0
  0
ARC
  5
D27B
  8
0
 10
410.181912350818493
 20
80.0044364569537549
 30
0.0
 40
0.9770270893520777
 50
0.0745354090973155
 51
2.9452408175191178
  0
ARC
  5
D27C
  8
0
 10
410.9536013222036104
 20
80.0454191688706231
 30
0.0
 40
0.2042556883430905
 50
2.5867382151927472
 51
7.2950700134066206
  0
ARC
  5
D27D
  8
0
 10
411.1421443129440831
 20
80.0696449350486148
 30
0.0
 40
0.0141629903066603
 50
6.9365674110650408
 51
20.7204148378552908
  0
ARC
  5
D27E
  8
0
 10
411.1553357146443091
 20
80.0744464355026366
 30
0.0
 40
0.0002167076353713
 50
75.161330753949315
 51
140.7188868725625071
  0
ARC
  5
D27F
  8
0
 10
411.175879853104675
 20
80.0693385900051311
 30
0.0
 40
0.0213656860660603
 50
165.789244550068787
 51
176.819458108314393
  0
ARC
  5
D280
  8
0
 10
411.4723531597496162
 20
80.048886549647591
 30
0.0
 40
0.3185418115220294
 50
176.1050937083008989
 51
179.0377290809097985
  0
ARC
  5
D281
  8
0
 10
410.0382766706125039
 20
80.0022365926441239
 30
0.0
 40
1.120667317740504
 50
357.673086361096523
 51
0.1774535122881608
  0
ARC
  5
D282
  8
0
 10
410.7835379261870798
 20
79.9719531644202277
 30
0.0
 40
0.3747910377279014
 50
354.148627531041825
 51
357.673086361096523
  0
ARC
  5
D283
  8
0
 10
411.0497058797029126
 20
79.9512921210688603
 30
0.0
 40
0.1081041006142682
 50
348.2136993618199767
 51
350.6579858444254114
  0
ARC
  5
D284
  8
0
 10
411.1553904856631902
 20
79.9293433477459985
 30
0.0
 40
0.0001931419878967
 50
221.9587143530660001
 51
316.5669159556272234
  0
ARC
  5
D285
  8
0
 10
411.16045123237609
 20
79.9313068975293106
 30
0.0
 40
0.0056093506855751
 50
188.4071030685682899
 51
201.9051110890227108
  0
ARC
  5
D286
  8
0
 10
411.4674102382911087
 20
79.9577694904197216
 30
0.0
 40
0.3136967424991342
 50
179.9619619115352975
 51
184.9894099430653966
  0
LINE
  5
D287
  8
0
 10
411.1652902797683851
 20
79.9269122954425058
 30
0.0
 11
411.1312979283787854
 21
79.9233122494225796
 31
0.0
  0
ARC
  5
D288
  8
0
 10
411.1314627186729922
 20
79.9225950266230996
 30
0.0
 40
0.0007359105823201
 50
102.939793550729803
 51
153.0478631333812984
  0
ARC
  5
D289
  8
0
 10
411.1490151043287256
 20
79.9135999487322692
 30
0.0
 40
0.020458930833048
 50
152.8727383838462117
 51
171.5413690278473098
  0
ARC
  5
D28A
  8
0
 10
412.1752419774106784
 20
79.7609867453969485
 30
0.0
 40
1.0579715258737741
 50
171.541369027846514
 51
173.5632006250662016
  0
ARC
  5
D28B
  8
0
 10
411.3254700238102259
 20
79.8568566321578146
 30
0.0
 40
0.2028087294930874
 50
173.5632006250677932
 51
183.5605949166431117
  0
ARC
  5
D28C
  8
0
 10
411.1307313049139793
 20
79.8447391660459402
 30
0.0
 40
0.0076933748377144
 50
183.5605949166177879
 51
208.7828811350499905
  0
ARC
  5
D28D
  8
0
 10
411.1242112959279211
 20
79.8414346685464835
 30
0.0
 40
0.0004577156074817
 50
240.8640989190157882
 51
333.7225303371164955
  0
ARC
  5
D28E
  8
0
 10
410.9407959526548098
 20
79.892384633531293
 30
0.0
 40
0.1908101111662899
 50
344.4498808806580996
 51
356.6621235267488146
  0
ARC
  5
D28F
  8
0
 10
410.8386296187055109
 20
79.9106642295154757
 30
0.0
 40
0.2941247370668871
 50
354.2653623017882865
 51
1.315669147490159
  0
ARC
  5
D290
  8
0
 10
411.1084479986682254
 20
79.9166848995668175
 30
0.0
 40
0.0242398909930283
 50
1.7320311298358271
 51
13.7551874083456394
  0
ARC
  5
D291
  8
0
 10
411.1299733495400801
 20
79.9218813439655662
 30
0.0
 40
0.0020974905481518
 50
15.6882401331115595
 51
38.2573932233181893
  0
ARC
  5
D292
  8
0
 10
411.1310411946666932
 20
79.9222263437231248
 30
0.0
 40
0.0011158420080802
 50
58.73118998250564
 51
76.698176971300839
  0
ARC
  5
D293
  8
0
 10
411.1292286687893238
 20
79.9030562952478505
 30
0.0
 40
0.0007541352465256
 50
19.0382448447976103
 51
59.2294568321342112
  0
ARC
  5
D294
  8
0
 10
411.125156966579425
 20
79.9016512549565903
 30
0.0
 40
0.0050614426544732
 50
8.0379022432260072
 51
19.0382448448071386
  0
ARC
  5
D295
  8
0
 10
411.0654388567771207
 20
79.8968911940245334
 30
0.0
 40
0.0649603522439927
 50
357.2736587217373767
 51
4.8283693692671319
  0
ARC
  5
D296
  8
0
 10
410.940091281418006
 20
79.8989723412231569
 30
0.0
 40
0.1903046673661161
 50
354.3401416621243243
 51
358.4429457760385844
  0
ARC
  5
D297
  8
0
 10
410.9808176414725835
 20
79.8927960352831974
 30
0.0
 40
0.1491829304451227
 50
348.7152387279813865
 51
355.1580938273191919
  0
ARC
  5
D298
  8
0
 10
411.1013776204698047
 20
79.8704255314418106
 30
0.0
 40
0.0266275973932368
 50
338.9105763718292792
 51
345.1543709648915979
  0
ARC
  5
D299
  8
0
 10
411.1258177962881746
 20
79.8610000353036611
 30
0.0
 40
0.0004329000007487
 50
273.0099607246066853
 51
338.9105763717751074
  0
ARC
  5
D29A
  8
0
 10
411.1259158808165921
 20
79.8608432601652964
 30
0.0
 40
0.0002856458949382
 50
222.5198030079332909
 51
254.7043910221669876
  0
ARC
  5
D29B
  8
0
 10
411.134218788222995
 20
79.8636959264777886
 30
0.0
 40
0.0090418515130486
 50
180.1051384266110063
 51
199.6848794975499004
  0
ARC
  5
D29C
  8
0
 10
411.2878397417983933
 20
79.8669692211179409
 30
0.0
 40
0.1626960557609919
 50
173.9637802958430939
 51
181.1586603052101054
  0
ARC
  5
D29D
  8
0
 10
411.2452347688521854
 20
79.8749942831123434
 30
0.0
 40
0.1195346701639068
 50
166.6785327190877979
 51
175.6418208561503889
  0
ARC
  5
D29E
  8
0
 10
411.1328007620475091
 20
79.9013324408326184
 30
0.0
 40
0.0040667203025913
 50
146.4328048267315978
 51
162.7736975860198925
  0
ARC
  5
D29F
  8
0
 10
411.1296451016389142
 20
79.9034264532464675
 30
0.0
 40
0.0002794943252242
 50
96.2889130771172859
 51
146.4328048267909139
  0
LINE
  5
D2A0
  8
0
 10
411.1241321889589244
 20
79.8409838407913526
 30
0.0
 11
411.1656613208785984
 21
79.8290109277225781
 31
0.0
  0
ARC
  5
D2A1
  8
0
 10
410.1895537478383744
 20
79.8767111641302137
 30
0.0
 40
0.9770270893520777
 50
0.0745354090973155
 51
2.9452408175191178
  0
ARC
  5
D2A2
  8
0
 10
410.9612427192233213
 20
79.9176938760471103
 30
0.0
 40
0.2042556883430905
 50
2.5867382151927472
 51
7.2950700134066206
  0
ARC
  5
D2A3
  8
0
 10
411.1497857099639077
 20
79.9419196422250735
 30
0.0
 40
0.0141629903066603
 50
6.9365674110650408
 51
20.7204148378552908
  0
ARC
  5
D2A4
  8
0
 10
411.1629771116641905
 20
79.9467211426790954
 30
0.0
 40
0.0002167076353713
 50
75.161330753949315
 51
140.7188868725625071
  0
ARC
  5
D2A5
  8
0
 10
411.1835212501244996
 20
79.941613297181604
 30
0.0
 40
0.0213656860660603
 50
165.789244550068787
 51
176.819458108314393
  0
ARC
  5
D2A6
  8
0
 10
411.479994556769384
 20
79.9211612568240639
 30
0.0
 40
0.3185418115220294
 50
176.1050937083008989
 51
179.0377290809097985
  0
ARC
  5
D2A7
  8
0
 10
410.0459180676323854
 20
79.8745112998205968
 30
0.0
 40
1.120667317740504
 50
357.673086361096523
 51
0.1774535122881608
  0
ARC
  5
D2A8
  8
0
 10
410.7911793232069044
 20
79.8442278715967007
 30
0.0
 40
0.3747910377279014
 50
354.148627531041825
 51
357.673086361096523
  0
ARC
  5
D2A9
  8
0
 10
411.0573472767226804
 20
79.8235668282453332
 30
0.0
 40
0.1081041006142682
 50
348.2136993618199767
 51
350.6579858444254114
  0
ARC
  5
D2AA
  8
0
 10
411.1630318826830148
 20
79.8016180549224714
 30
0.0
 40
0.0001931419878967
 50
221.9587143530660001
 51
316.5669159556272234
  0
ARC
  5
D2AB
  8
0
 10
411.1680926293960283
 20
79.8035816047057835
 30
0.0
 40
0.0056093506855751
 50
188.4071030685682899
 51
201.9051110890227108
  0
ARC
  5
D2AC
  8
0
 10
411.4750516353109902
 20
79.8300441975961945
 30
0.0
 40
0.3136967424991342
 50
179.9619619115352975
 51
184.9894099430653966
  0
LINE
  5
D2AD
  8
0
 10
411.1576073363863202
 20
79.8028091487616109
 30
0.0
 11
411.1236149849966068
 21
79.7992091027416848
 31
0.0
  0
ARC
  5
D2AE
  8
0
 10
411.1237797752909842
 20
79.7984918799422047
 30
0.0
 40
0.0007359105823201
 50
102.939793550729803
 51
153.0478631333812984
  0
ARC
  5
D2AF
  8
0
 10
411.1413321609466038
 20
79.7894968020513744
 30
0.0
 40
0.020458930833048
 50
152.8727383838462117
 51
171.5413690278473098
  0
ARC
  5
D2B0
  8
0
 10
412.1675590340287272
 20
79.6368835987160537
 30
0.0
 40
1.0579715258737741
 50
171.541369027846514
 51
173.5632006250662016
  0
ARC
  5
D2B1
  8
0
 10
411.3177870804282179
 20
79.7327534854769198
 30
0.0
 40
0.2028087294930874
 50
173.5632006250677932
 51
183.5605949166431117
  0
ARC
  5
D2B2
  8
0
 10
411.1230483615320281
 20
79.7206360193650454
 30
0.0
 40
0.0076933748377144
 50
183.5605949166177879
 51
208.7828811350499905
  0
ARC
  5
D2B3
  8
0
 10
411.1165283525457994
 20
79.7173315218655745
 30
0.0
 40
0.0004577156074817
 50
240.8640989190157882
 51
333.7225303371164955
  0
ARC
  5
D2B4
  8
0
 10
410.9331130092725743
 20
79.7682814868503982
 30
0.0
 40
0.1908101111662899
 50
344.4498808806580996
 51
356.6621235267488146
  0
ARC
  5
D2B5
  8
0
 10
410.8309466753235029
 20
79.7865610828345808
 30
0.0
 40
0.2941247370668871
 50
354.2653623017882865
 51
1.315669147490159
  0
ARC
  5
D2B6
  8
0
 10
411.1007650552862174
 20
79.7925817528859227
 30
0.0
 40
0.0242398909930283
 50
1.7320311298358271
 51
13.7551874083456394
  0
ARC
  5
D2B7
  8
0
 10
411.1222904061580152
 20
79.7977781972846714
 30
0.0
 40
0.0020974905481518
 50
15.6882401331115595
 51
38.2573932233181893
  0
ARC
  5
D2B8
  8
0
 10
411.1233582512846851
 20
79.79812319704223
 30
0.0
 40
0.0011158420080802
 50
58.73118998250564
 51
76.698176971300839
  0
ARC
  5
D2B9
  8
0
 10
411.1215457254073158
 20
79.7789531485669556
 30
0.0
 40
0.0007541352465256
 50
19.0382448447976103
 51
59.2294568321342112
  0
ARC
  5
D2BA
  8
0
 10
411.1174740231973033
 20
79.7775481082756954
 30
0.0
 40
0.0050614426544732
 50
8.0379022432260072
 51
19.0382448448071386
  0
ARC
  5
D2BB
  8
0
 10
411.057755913394999
 20
79.7727880473436386
 30
0.0
 40
0.0649603522439927
 50
357.2736587217373767
 51
4.8283693692671319
  0
ARC
  5
D2BC
  8
0
 10
410.9324083380361117
 20
79.7748691945422621
 30
0.0
 40
0.1903046673661161
 50
354.3401416621243243
 51
358.4429457760385844
  0
ARC
  5
D2BD
  8
0
 10
410.9731346980905755
 20
79.7686928886023026
 30
0.0
 40
0.1491829304451227
 50
348.7152387279813865
 51
355.1580938273191919
  0
ARC
  5
D2BE
  8
0
 10
411.0936946770877967
 20
79.7463223847609157
 30
0.0
 40
0.0266275973932368
 50
338.9105763718292792
 51
345.1543709648915979
  0
ARC
  5
D2BF
  8
0
 10
411.1181348529062234
 20
79.7368968886227663
 30
0.0
 40
0.0004329000007487
 50
273.0099607246066853
 51
338.9105763717751074
  0
ARC
  5
D2C0
  8
0
 10
411.1182329374345841
 20
79.7367401134844016
 30
0.0
 40
0.0002856458949382
 50
222.5198030079332909
 51
254.7043910221669876
  0
ARC
  5
D2C1
  8
0
 10
411.126535844840987
 20
79.7395927797968938
 30
0.0
 40
0.0090418515130486
 50
180.1051384266110063
 51
199.6848794975499004
  0
ARC
  5
D2C2
  8
0
 10
411.280156798416499
 20
79.7428660744370461
 30
0.0
 40
0.1626960557609919
 50
173.9637802958430939
 51
181.1586603052101054
  0
ARC
  5
D2C3
  8
0
 10
411.2375518254701205
 20
79.7508911364314628
 30
0.0
 40
0.1195346701639068
 50
166.6785327190877979
 51
175.6418208561503889
  0
ARC
  5
D2C4
  8
0
 10
411.1251178186655011
 20
79.7772292941517236
 30
0.0
 40
0.0040667203025913
 50
146.4328048267315978
 51
162.7736975860198925
  0
ARC
  5
D2C5
  8
0
 10
411.1219621582569062
 20
79.7793233065655727
 30
0.0
 40
0.0002794943252242
 50
96.2889130771172859
 51
146.4328048267909139
  0
LINE
  5
D2C6
  8
0
 10
411.1164492455769164
 20
79.7168806941104577
 30
0.0
 11
411.1579783774967041
 21
79.7049077810416833
 31
0.0
  0
ARC
  5
D2C7
  8
0
 10
410.1818708044564232
 20
79.752608017449333
 30
0.0
 40
0.9770270893520777
 50
0.0745354090973155
 51
2.9452408175191178
  0
ARC
  5
D2C8
  8
0
 10
410.9535597758414269
 20
79.7935907293662154
 30
0.0
 40
0.2042556883430905
 50
2.5867382151927472
 51
7.2950700134066206
  0
ARC
  5
D2C9
  8
0
 10
411.1421027665818997
 20
79.8178164955441929
 30
0.0
 40
0.0141629903066603
 50
6.9365674110650408
 51
20.7204148378552908
  0
ARC
  5
D2CA
  8
0
 10
411.1552941682821825
 20
79.8226179959982005
 30
0.0
 40
0.0002167076353713
 50
75.161330753949315
 51
140.7188868725625071
  0
ARC
  5
D2CB
  8
0
 10
411.1758383067424916
 20
79.8175101505007092
 30
0.0
 40
0.0213656860660603
 50
165.789244550068787
 51
176.819458108314393
  0
ARC
  5
D2CC
  8
0
 10
411.4723116133873759
 20
79.7970581101431691
 30
0.0
 40
0.3185418115220294
 50
176.1050937083008989
 51
179.0377290809097985
  0
ARC
  5
D2CD
  8
0
 10
410.0382351242503773
 20
79.750408153139702
 30
0.0
 40
1.120667317740504
 50
357.673086361096523
 51
0.1774535122881608
  0
ARC
  5
D2CE
  8
0
 10
410.7834963798247827
 20
79.7201247249158058
 30
0.0
 40
0.3747910377279014
 50
354.148627531041825
 51
357.673086361096523
  0
ARC
  5
D2CF
  8
0
 10
411.049664333340786
 20
79.6994636815644384
 30
0.0
 40
0.1081041006142682
 50
348.2136993618199767
 51
350.6579858444254114
  0
ARC
  5
D2D0
  8
0
 10
411.1553489393010068
 20
79.6775149082415766
 30
0.0
 40
0.0001931419878967
 50
221.9587143530660001
 51
316.5669159556272234
  0
ARC
  5
D2D1
  8
0
 10
411.1604096860140203
 20
79.6794784580248887
 30
0.0
 40
0.0056093506855751
 50
188.4071030685682899
 51
201.9051110890227108
  0
ARC
  5
D2D2
  8
0
 10
411.4673686919289821
 20
79.7059410509152997
 30
0.0
 40
0.3136967424991342
 50
179.9619619115352975
 51
184.9894099430653966
  0
LINE
  5
D2D3
  8
0
 10
411.1656538753426844
 20
79.6784544439724556
 30
0.0
 11
411.1316615239530279
 21
79.6748543979525294
 31
0.0
  0
ARC
  5
D2D4
  8
0
 10
411.1318263142472915
 20
79.6741371751530494
 30
0.0
 40
0.0007359105823201
 50
102.939793550729803
 51
153.0478631333812984
  0
ARC
  5
D2D5
  8
0
 10
411.1493786999029112
 20
79.6651420972622191
 30
0.0
 40
0.020458930833048
 50
152.8727383838462117
 51
171.5413690278473098
  0
ARC
  5
D2D6
  8
0
 10
412.1756055729850914
 20
79.5125288939268984
 30
0.0
 40
1.0579715258737741
 50
171.541369027846514
 51
173.5632006250662016
  0
ARC
  5
D2D7
  8
0
 10
411.3258336193845253
 20
79.6083987806877644
 30
0.0
 40
0.2028087294930874
 50
173.5632006250669974
 51
183.5605949166431117
  0
ARC
  5
D2D8
  8
0
 10
411.1310949004883923
 20
79.5962813145758901
 30
0.0
 40
0.0076933748377144
 50
183.5605949166177879
 51
208.7828811350499905
  0
ARC
  5
D2D9
  8
0
 10
411.1245748915022205
 20
79.5929768170764333
 30
0.0
 40
0.0004577156074817
 50
240.8640989190157882
 51
333.7225303371164955
  0
ARC
  5
D2DA
  8
0
 10
410.9411595482289954
 20
79.6439267820612429
 30
0.0
 40
0.1908101111662899
 50
344.4498808806580996
 51
356.6621235267488146
  0
ARC
  5
D2DB
  8
0
 10
410.8389932142798102
 20
79.6622063780454255
 30
0.0
 40
0.2941247370668871
 50
354.2653623017882865
 51
1.315669147490159
  0
ARC
  5
D2DC
  8
0
 10
411.1088115942425247
 20
79.6682270480967532
 30
0.0
 40
0.0242398909930283
 50
1.7320311298358271
 51
13.7551874083456394
  0
ARC
  5
D2DD
  8
0
 10
411.1303369451143794
 20
79.673423492495516
 30
0.0
 40
0.0020974905481518
 50
15.6882401331115595
 51
38.2573932233181893
  0
ARC
  5
D2DE
  8
0
 10
411.1314047902409925
 20
79.6737684922530747
 30
0.0
 40
0.0011158420080802
 50
58.73118998250564
 51
76.698176971300839
  0
ARC
  5
D2DF
  8
0
 10
411.1295922643636231
 20
79.6545984437778003
 30
0.0
 40
0.0007541352465256
 50
19.0382448447976103
 51
59.2294568321342112
  0
ARC
  5
D2E0
  8
0
 10
411.1255205621537243
 20
79.6531934034865401
 30
0.0
 40
0.0050614426544732
 50
8.0379022432260072
 51
19.0382448448071386
  0
ARC
  5
D2E1
  8
0
 10
411.06580245235142
 20
79.6484333425544833
 30
0.0
 40
0.0649603522439927
 50
357.2736587217373767
 51
4.8283693692671319
  0
ARC
  5
D2E2
  8
0
 10
410.940454876992419
 20
79.6505144897531068
 30
0.0
 40
0.1903046673661161
 50
354.3401416621243243
 51
358.4429457760385844
  0
ARC
  5
D2E3
  8
0
 10
410.9811812370468829
 20
79.6443381838131472
 30
0.0
 40
0.1491829304451227
 50
348.7152387279813865
 51
355.1580938273191919
  0
ARC
  5
D2E4
  8
0
 10
411.101741216044104
 20
79.6219676799717604
 30
0.0
 40
0.0266275973932368
 50
338.9105763718292792
 51
345.1543709648915979
  0
ARC
  5
D2E5
  8
0
 10
411.1261813918624739
 20
79.6125421838336109
 30
0.0
 40
0.0004329000007487
 50
273.0099607246066853
 51
338.9105763717751074
  0
ARC
  5
D2E6
  8
0
 10
411.1262794763908914
 20
79.6123854086952463
 30
0.0
 40
0.0002856458949382
 50
222.5198030079332909
 51
254.7043910221669876
  0
ARC
  5
D2E7
  8
0
 10
411.1345823837974081
 20
79.6152380750077384
 30
0.0
 40
0.0090418515130486
 50
180.1051384266110063
 51
199.6848794975499004
  0
ARC
  5
D2E8
  8
0
 10
411.28820333737292
 20
79.6185113696478908
 30
0.0
 40
0.1626960557609919
 50
173.9637802958430939
 51
181.1586603052101054
  0
ARC
  5
D2E9
  8
0
 10
411.2455983644264847
 20
79.6265364316422932
 30
0.0
 40
0.1195346701639068
 50
166.6785327190877979
 51
175.6418208561503889
  0
ARC
  5
D2EA
  8
0
 10
411.1331643576218084
 20
79.6528745893625683
 30
0.0
 40
0.0040667203025913
 50
146.4328048267315978
 51
162.7736975860198925
  0
ARC
  5
D2EB
  8
0
 10
411.1300086972132135
 20
79.6549686017764031
 30
0.0
 40
0.0002794943252242
 50
96.2889130771172859
 51
146.4328048267909139
  0
LINE
  5
D2EC
  8
0
 10
411.1244957845332237
 20
79.5925259893213024
 30
0.0
 11
411.1660249164531251
 21
79.5805530762525279
 31
0.0
  0
ARC
  5
D2ED
  8
0
 10
410.1899173434126737
 20
79.6282533126601635
 30
0.0
 40
0.9770270893520777
 50
0.0745354090973155
 51
2.9452408175191178
  0
ARC
  5
D2EE
  8
0
 10
410.9616063147976774
 20
79.6692360245770601
 30
0.0
 40
0.2042556883430905
 50
2.5867382151927472
 51
7.2950700134066206
  0
ARC
  5
D2EF
  8
0
 10
411.150149305538207
 20
79.6934617907550376
 30
0.0
 40
0.0141629903066603
 50
6.9365674110650408
 51
20.7204148378552908
  0
ARC
  5
D2F0
  8
0
 10
411.1633407072384898
 20
79.6982632912090452
 30
0.0
 40
0.0002167076353713
 50
75.161330753949315
 51
140.7188868725625071
  0
ARC
  5
D2F1
  8
0
 10
411.1838848456987989
 20
79.6931554457115539
 30
0.0
 40
0.0213656860660603
 50
165.789244550068787
 51
176.819458108314393
  0
ARC
  5
D2F2
  8
0
 10
411.4803581523436833
 20
79.6727034053540137
 30
0.0
 40
0.3185418115220294
 50
176.1050937083008989
 51
179.0377290809097985
  0
ARC
  5
D2F3
  8
0
 10
410.0462816632066847
 20
79.6260534483505467
 30
0.0
 40
1.120667317740504
 50
357.673086361096523
 51
0.1774535122881608
  0
ARC
  5
D2F4
  8
0
 10
410.7915429187812038
 20
79.5957700201266505
 30
0.0
 40
0.3747910377279014
 50
354.148627531041825
 51
357.673086361096523
  0
ARC
  5
D2F5
  8
0
 10
411.0577108722970934
 20
79.5751089767752831
 30
0.0
 40
0.1081041006142682
 50
348.2136993618199767
 51
350.6579858444254114
  0
ARC
  5
D2F6
  8
0
 10
411.1633954782574278
 20
79.5531602034524212
 30
0.0
 40
0.0001931419878967
 50
221.9587143530660001
 51
316.5669159556272234
  0
ARC
  5
D2F7
  8
0
 10
411.1684562249703276
 20
79.5551237532357334
 30
0.0
 40
0.0056093506855751
 50
188.4071030685682899
 51
201.9051110890227108
  0
ARC
  5
D2F8
  8
0
 10
411.4754152308852895
 20
79.5815863461261443
 30
0.0
 40
0.3136967424991342
 50
179.9619619115352975
 51
184.9894099430653966
  0
LINE
  5
D2F9
  8
0
 10
411.1574564457986867
 20
79.5505970500268944
 30
0.0
 11
411.1234640944092007
 21
79.5469970040069683
 31
0.0
  0
ARC
  5
D2FA
  8
0
 10
411.1236288847034075
 20
79.5462797812074882
 30
0.0
 40
0.0007359105823201
 50
102.939793550729803
 51
153.0478631333812984
  0
ARC
  5
D2FB
  8
0
 10
411.141181270359084
 20
79.5372847033166437
 30
0.0
 40
0.020458930833048
 50
152.8727383838462117
 51
171.5413690278473098
  0
ARC
  5
D2FC
  8
0
 10
412.1674081434410937
 20
79.3846714999813372
 30
0.0
 40
1.0579715258737741
 50
171.541369027846514
 51
173.5632006250662016
  0
ARC
  5
D2FD
  8
0
 10
411.3176361898405844
 20
79.4805413867422033
 30
0.0
 40
0.2028087294930874
 50
173.5632006250669974
 51
183.5605949166431117
  0
ARC
  5
D2FE
  8
0
 10
411.1228974709443946
 20
79.4684239206303147
 30
0.0
 40
0.0076933748377144
 50
183.5605949166177879
 51
208.7828811350499905
  0
ARC
  5
D2FF
  8
0
 10
411.1163774619582796
 20
79.4651194231308722
 30
0.0
 40
0.0004577156074817
 50
240.8640989190157882
 51
333.7225303371164955
  0
ARC
  5
D300
  8
0
 10
410.9329621186851114
 20
79.5160693881156817
 30
0.0
 40
0.1908101111662899
 50
344.4498808806580996
 51
356.6621235267488146
  0
ARC
  5
D301
  8
0
 10
410.8307957847359262
 20
79.5343489840998643
 30
0.0
 40
0.2941247370668871
 50
354.2653623017882865
 51
1.315669147490159
  0
ARC
  5
D302
  8
0
 10
411.1006141646985839
 20
79.5403696541512062
 30
0.0
 40
0.0242398909930283
 50
1.7320311298358271
 51
13.7551874083456394
  0
ARC
  5
D303
  8
0
 10
411.1221395155704954
 20
79.5455660985499549
 30
0.0
 40
0.0020974905481518
 50
15.6882401331115595
 51
38.2573932233181893
  0
ARC
  5
D304
  8
0
 10
411.1232073606971085
 20
79.5459110983075135
 30
0.0
 40
0.0011158420080802
 50
58.73118998250564
 51
76.698176971300839
  0
ARC
  5
D305
  8
0
 10
411.1213948348196823
 20
79.5267410498322249
 30
0.0
 40
0.0007541352465256
 50
19.0382448447976103
 51
59.2294568321342112
  0
ARC
  5
D306
  8
0
 10
411.1173231326097834
 20
79.5253360095409647
 30
0.0
 40
0.0050614426544732
 50
8.0379022432260072
 51
19.0382448448071386
  0
ARC
  5
D307
  8
0
 10
411.0576050228074791
 20
79.5205759486089221
 30
0.0
 40
0.0649603522439927
 50
357.2736587217373767
 51
4.8283693692671319
  0
ARC
  5
D308
  8
0
 10
410.9322574474484213
 20
79.5226570958075456
 30
0.0
 40
0.1903046673661161
 50
354.3401416621243243
 51
358.4429457760385844
  0
ARC
  5
D309
  8
0
 10
410.9729838075029988
 20
79.5164807898675861
 30
0.0
 40
0.1491829304451227
 50
348.7152387279813865
 51
355.1580938273191919
  0
ARC
  5
D30A
  8
0
 10
411.09354378650022
 20
79.4941102860261992
 30
0.0
 40
0.0266275973932368
 50
338.9105763718292792
 51
345.1543709648915979
  0
ARC
  5
D30B
  8
0
 10
411.1179839623185899
 20
79.4846847898880497
 30
0.0
 40
0.0004329000007487
 50
273.0099607246066853
 51
338.9105763717751074
  0
ARC
  5
D30C
  8
0
 10
411.1180820468470074
 20
79.4845280147496851
 30
0.0
 40
0.0002856458949382
 50
222.5198030079332909
 51
254.7043910221669876
  0
ARC
  5
D30D
  8
0
 10
411.126384954253524
 20
79.4873806810621772
 30
0.0
 40
0.0090418515130486
 50
180.1051384266110063
 51
199.6848794975499004
  0
ARC
  5
D30E
  8
0
 10
411.2800059078288086
 20
79.4906539757023296
 30
0.0
 40
0.1626960557609919
 50
173.9637802958430939
 51
181.1586603052101054
  0
ARC
  5
D30F
  8
0
 10
411.2374009348826007
 20
79.4986790376967463
 30
0.0
 40
0.1195346701639068
 50
166.6785327190877979
 51
175.6418208561503889
  0
ARC
  5
D310
  8
0
 10
411.1249669280779244
 20
79.5250171954170071
 30
0.0
 40
0.0040667203025913
 50
146.4328048267315978
 51
162.7736975860198925
  0
ARC
  5
D311
  8
0
 10
411.1218112676692726
 20
79.5271112078308562
 30
0.0
 40
0.0002794943252242
 50
96.2889130771172859
 51
146.4328048267909139
  0
LINE
  5
D312
  8
0
 10
411.1162983549892829
 20
79.4646685953757412
 30
0.0
 11
411.1578274869091274
 21
79.4526956823069668
 31
0.0
  0
ARC
  5
D313
  8
0
 10
410.1817199138687897
 20
79.5003959187146165
 30
0.0
 40
0.9770270893520777
 50
0.0745354090973155
 51
2.9452408175191178
  0
ARC
  5
D314
  8
0
 10
410.9534088852536797
 20
79.5413786306314989
 30
0.0
 40
0.2042556883430905
 50
2.5867382151927472
 51
7.2950700134066206
  0
ARC
  5
D315
  8
0
 10
411.141951875994323
 20
79.5656043968094764
 30
0.0
 40
0.0141629903066603
 50
6.9365674110650408
 51
20.7204148378552908
  0
ARC
  5
D316
  8
0
 10
411.1551432776946058
 20
79.570405897263484
 30
0.0
 40
0.0002167076353713
 50
75.161330753949315
 51
140.7188868725625071
  0
ARC
  5
D317
  8
0
 10
411.1756874161549149
 20
79.5652980517659927
 30
0.0
 40
0.0213656860660603
 50
165.789244550068787
 51
176.819458108314393
  0
ARC
  5
D318
  8
0
 10
411.4721607227996856
 20
79.5448460114084526
 30
0.0
 40
0.3185418115220294
 50
176.1050937083008989
 51
179.0377290809097985
  0
ARC
  5
D319
  8
0
 10
410.0380842336628007
 20
79.4981960544049855
 30
0.0
 40
1.120667317740504
 50
357.673086361096523
 51
0.1774535122881608
  0
ARC
  5
D31A
  8
0
 10
410.783345489237206
 20
79.4679126261810893
 30
0.0
 40
0.3747910377279014
 50
354.148627531041825
 51
357.673086361096523
  0
ARC
  5
D31B
  8
0
 10
411.0495134427532093
 20
79.4472515828297219
 30
0.0
 40
0.1081041006142682
 50
348.2136993618199767
 51
350.6579858444254114
  0
ARC
  5
D31C
  8
0
 10
411.1551980487133733
 20
79.4253028095068601
 30
0.0
 40
0.0001931419878967
 50
221.9587143530660001
 51
316.5669159556272234
  0
ARC
  5
D31D
  8
0
 10
411.1602587954263868
 20
79.4272663592901722
 30
0.0
 40
0.0056093506855751
 50
188.4071030685682899
 51
201.9051110890227108
  0
ARC
  5
D31E
  8
0
 10
411.4672178013414054
 20
79.4537289521805832
 30
0.0
 40
0.3136967424991342
 50
179.9619619115352975
 51
184.9894099430653966
  0
LINE
  5
D31F
  8
0
 10
411.1653973616358257
 20
79.4255092343925213
 30
0.0
 11
411.1314050102462261
 21
79.4219091883725952
 31
0.0
  0
ARC
  5
D320
  8
0
 10
411.1315698005404897
 20
79.4211919655731151
 30
0.0
 40
0.0007359105823201
 50
102.939793550729803
 51
153.0478631333812984
  0
ARC
  5
D321
  8
0
 10
411.1491221861962231
 20
79.4121968876822848
 30
0.0
 40
0.020458930833048
 50
152.8727383838462117
 51
171.5413690278473098
  0
ARC
  5
D322
  8
0
 10
412.1753490592782896
 20
79.2595836843469641
 30
0.0
 40
1.0579715258737741
 50
171.541369027846514
 51
173.5632006250662016
  0
ARC
  5
D323
  8
0
 10
411.3255771056777803
 20
79.3554535711078302
 30
0.0
 40
0.2028087294930874
 50
173.5632006250669974
 51
183.5605949166431117
  0
ARC
  5
D324
  8
0
 10
411.1308383867814769
 20
79.3433361049959558
 30
0.0
 40
0.0076933748377144
 50
183.5605949166177879
 51
208.7828811350499905
  0
ARC
  5
D325
  8
0
 10
411.124318377795305
 20
79.3400316074964991
 30
0.0
 40
0.0004577156074817
 50
240.8640989190157882
 51
333.7225303371164955
  0
ARC
  5
D326
  8
0
 10
410.9409030345221936
 20
79.3909815724813086
 30
0.0
 40
0.1908101111662899
 50
344.4498808806580996
 51
356.6621235267488146
  0
ARC
  5
D327
  8
0
 10
410.8387367005731221
 20
79.4092611684654912
 30
0.0
 40
0.2941247370668871
 50
354.2653623017882865
 51
1.315669147490159
  0
ARC
  5
D328
  8
0
 10
411.1085550805357229
 20
79.4152818385168331
 30
0.0
 40
0.0242398909930283
 50
1.7320311298358271
 51
13.7551874083456394
  0
ARC
  5
D329
  8
0
 10
411.1300804314075776
 20
79.4204782829155818
 30
0.0
 40
0.0020974905481518
 50
15.6882401331115595
 51
38.2573932233181893
  0
ARC
  5
D32A
  8
0
 10
411.1311482765341907
 20
79.4208232826731404
 30
0.0
 40
0.0011158420080802
 50
58.73118998250564
 51
76.698176971300839
  0
ARC
  5
D32B
  8
0
 10
411.1293357506568782
 20
79.401653234197866
 30
0.0
 40
0.0007541352465256
 50
19.0382448447976103
 51
59.2294568321342112
  0
ARC
  5
D32C
  8
0
 10
411.1252640484469225
 20
79.4002481939066058
 30
0.0
 40
0.0050614426544732
 50
8.0379022432260072
 51
19.0382448448071386
  0
ARC
  5
D32D
  8
0
 10
411.0655459386446182
 20
79.395488132974549
 30
0.0
 40
0.0649603522439927
 50
357.2736587217373767
 51
4.8283693692671319
  0
ARC
  5
D32E
  8
0
 10
410.9401983632856172
 20
79.3975692801731725
 30
0.0
 40
0.1903046673661161
 50
354.3401416621243243
 51
358.4429457760385844
  0
ARC
  5
D32F
  8
0
 10
410.9809247233401948
 20
79.391392974233213
 30
0.0
 40
0.1491829304451227
 50
348.7152387279813865
 51
355.1580938273191919
  0
ARC
  5
D330
  8
0
 10
411.1014847023373022
 20
79.3690224703918261
 30
0.0
 40
0.0266275973932368
 50
338.9105763718292792
 51
345.1543709648915979
  0
ARC
  5
D331
  8
0
 10
411.1259248781556721
 20
79.3595969742536766
 30
0.0
 40
0.0004329000007487
 50
273.0099607246066853
 51
338.9105763717751074
  0
ARC
  5
D332
  8
0
 10
411.1260229626840896
 20
79.359440199115312
 30
0.0
 40
0.0002856458949382
 50
222.5198030079332909
 51
254.7043910221669876
  0
ARC
  5
D333
  8
0
 10
411.1343258700904926
 20
79.3622928654278041
 30
0.0
 40
0.0090418515130486
 50
180.1051384266110063
 51
199.6848794975499004
  0
ARC
  5
D334
  8
0
 10
411.2879468236660045
 20
79.3655661600679565
 30
0.0
 40
0.1626960557609919
 50
173.9637802958430939
 51
181.1586603052101054
  0
ARC
  5
D335
  8
0
 10
411.245341850719683
 20
79.3735912220623732
 30
0.0
 40
0.1195346701639068
 50
166.6785327190877979
 51
175.6418208561503889
  0
ARC
  5
D336
  8
0
 10
411.1329078439150067
 20
79.399929379782634
 30
0.0
 40
0.0040667203025913
 50
146.4328048267315978
 51
162.7736975860198925
  0
ARC
  5
D337
  8
0
 10
411.1297521835065254
 20
79.4020233921964831
 30
0.0
 40
0.0002794943252242
 50
96.2889130771172859
 51
146.4328048267909139
  0
LINE
  5
D338
  8
0
 10
411.1242392708264219
 20
79.3395807797413539
 30
0.0
 11
411.1657684027462096
 21
79.3276078666725937
 31
0.0
  0
ARC
  5
D339
  8
0
 10
410.1896608297058151
 20
79.3753081030802434
 30
0.0
 40
0.9770270893520777
 50
0.0745354090973155
 51
2.9452408175191178
  0
ARC
  5
D33A
  8
0
 10
410.9613498010908756
 20
79.4162908149971258
 30
0.0
 40
0.2042556883430905
 50
2.5867382151927472
 51
7.2950700134066206
  0
ARC
  5
D33B
  8
0
 10
411.1498927918314052
 20
79.4405165811751033
 30
0.0
 40
0.0141629903066603
 50
6.9365674110650408
 51
20.7204148378552908
  0
ARC
  5
D33C
  8
0
 10
411.163084193531688
 20
79.4453180816291109
 30
0.0
 40
0.0002167076353713
 50
75.161330753949315
 51
140.7188868725625071
  0
ARC
  5
D33D
  8
0
 10
411.1836283319919971
 20
79.4402102361316196
 30
0.0
 40
0.0213656860660603
 50
165.789244550068787
 51
176.819458108314393
  0
ARC
  5
D33E
  8
0
 10
411.4801016386368815
 20
79.4197581957740653
 30
0.0
 40
0.3185418115220294
 50
176.1050937083008989
 51
179.0377290809097985
  0
ARC
  5
D33F
  8
0
 10
410.0460251494998829
 20
79.3731082387706124
 30
0.0
 40
1.120667317740504
 50
357.673086361096523
 51
0.1774535122881608
  0
ARC
  5
D340
  8
0
 10
410.791286405074402
 20
79.3428248105467162
 30
0.0
 40
0.3747910377279014
 50
354.148627531041825
 51
357.673086361096523
  0
ARC
  5
D341
  8
0
 10
411.0574543585902916
 20
79.3221637671953488
 30
0.0
 40
0.1081041006142682
 50
348.2136993618199767
 51
350.6579858444254114
  0
ARC
  5
D342
  8
0
 10
411.163138964550626
 20
79.300214993872487
 30
0.0
 40
0.0001931419878967
 50
221.9587143530660001
 51
316.5669159556272234
  0
ARC
  5
D343
  8
0
 10
411.1681997112635258
 20
79.3021785436557849
 30
0.0
 40
0.0056093506855751
 50
188.4071030685682899
 51
201.9051110890227108
  0
ARC
  5
D344
  8
0
 10
411.4751587171784877
 20
79.3286411365462101
 30
0.0
 40
0.3136967424991342
 50
179.9619619115352975
 51
184.9894099430653966
  0
LINE
  5
D345
  8
0
 10
411.1593570480616222
 20
79.3012868963701152
 30
0.0
 11
411.1253646966720225
 21
79.297686850350189
 31
0.0
  0
ARC
  5
D346
  8
0
 10
411.1255294869662862
 20
79.296969627550709
 30
0.0
 40
0.0007359105823201
 50
102.939793550729803
 51
153.0478631333812984
  0
ARC
  5
D347
  8
0
 10
411.1430818726217922
 20
79.2879745496598645
 30
0.0
 40
0.020458930833048
 50
152.8727383838462117
 51
171.5413690278473098
  0
ARC
  5
D348
  8
0
 10
412.1693087457039724
 20
79.1353613463245438
 30
0.0
 40
1.0579715258737741
 50
171.541369027846514
 51
173.5632006250662016
  0
ARC
  5
D349
  8
0
 10
411.3195367921035199
 20
79.231231233085424
 30
0.0
 40
0.2028087294930874
 50
173.5632006250669974
 51
183.5605949166431117
  0
ARC
  5
D34A
  8
0
 10
411.1247980732072165
 20
79.2191137669735497
 30
0.0
 40
0.0076933748377144
 50
183.5605949166177879
 51
208.7828811350499905
  0
ARC
  5
D34B
  8
0
 10
411.1182780642211014
 20
79.215809269474093
 30
0.0
 40
0.0004577156074817
 50
240.8640989190157882
 51
333.7225303371164955
  0
ARC
  5
D34C
  8
0
 10
410.9348627209478764
 20
79.2667592344589025
 30
0.0
 40
0.1908101111662899
 50
344.4498808806580996
 51
356.6621235267488146
  0
ARC
  5
D34D
  8
0
 10
410.8326963869988049
 20
79.2850388304430851
 30
0.0
 40
0.2941247370668871
 50
354.2653623017882865
 51
1.315669147490159
  0
ARC
  5
D34E
  8
0
 10
411.1025147669614057
 20
79.291059500494427
 30
0.0
 40
0.0242398909930283
 50
1.7320311298358271
 51
13.7551874083456394
  0
ARC
  5
D34F
  8
0
 10
411.1240401178333173
 20
79.2962559448931756
 30
0.0
 40
0.0020974905481518
 50
15.6882401331115595
 51
38.2573932233181893
  0
ARC
  5
D350
  8
0
 10
411.1251079629599872
 20
79.2966009446507343
 30
0.0
 40
0.0011158420080802
 50
58.73118998250564
 51
76.698176971300839
  0
ARC
  5
D351
  8
0
 10
411.1232954370826178
 20
79.2774308961754599
 30
0.0
 40
0.0007541352465256
 50
19.0382448447976103
 51
59.2294568321342112
  0
ARC
  5
D352
  8
0
 10
411.1192237348726053
 20
79.2760258558841997
 30
0.0
 40
0.0050614426544732
 50
8.0379022432260072
 51
19.0382448448071386
  0
ARC
  5
D353
  8
0
 10
411.059505625070301
 20
79.2712657949521429
 30
0.0
 40
0.0649603522439927
 50
357.2736587217373767
 51
4.8283693692671319
  0
ARC
  5
D354
  8
0
 10
410.9341580497114137
 20
79.2733469421507664
 30
0.0
 40
0.1903046673661161
 50
354.3401416621243243
 51
358.4429457760385844
  0
ARC
  5
D355
  8
0
 10
410.9748844097658775
 20
79.2671706362108068
 30
0.0
 40
0.1491829304451227
 50
348.7152387279813865
 51
355.1580938273191919
  0
ARC
  5
D356
  8
0
 10
411.0954443887630987
 20
79.24480013236942
 30
0.0
 40
0.0266275973932368
 50
338.9105763718292792
 51
345.1543709648915979
  0
ARC
  5
D357
  8
0
 10
411.1198845645815254
 20
79.2353746362312705
 30
0.0
 40
0.0004329000007487
 50
273.0099607246066853
 51
338.9105763717751074
  0
ARC
  5
D358
  8
0
 10
411.1199826491098861
 20
79.2352178610929059
 30
0.0
 40
0.0002856458949382
 50
222.5198030079332909
 51
254.7043910221669876
  0
ARC
  5
D359
  8
0
 10
411.128285556516289
 20
79.2380705274053838
 30
0.0
 40
0.0090418515130486
 50
180.1051384266110063
 51
199.6848794975499004
  0
ARC
  5
D35A
  8
0
 10
411.281906510091801
 20
79.2413438220455504
 30
0.0
 40
0.1626960557609919
 50
173.9637802958430939
 51
181.1586603052101054
  0
ARC
  5
D35B
  8
0
 10
411.2393015371454794
 20
79.249368884039967
 30
0.0
 40
0.1195346701639068
 50
166.6785327190877979
 51
175.6418208561503889
  0
ARC
  5
D35C
  8
0
 10
411.1268675303408031
 20
79.2757070417602279
 30
0.0
 40
0.0040667203025913
 50
146.4328048267315978
 51
162.7736975860198925
  0
ARC
  5
D35D
  8
0
 10
411.1237118699322082
 20
79.277801054174077
 30
0.0
 40
0.0002794943252242
 50
96.2889130771172859
 51
146.4328048267909139
  0
LINE
  5
D35E
  8
0
 10
411.1181989572521047
 20
79.215358441718962
 30
0.0
 11
411.1597280891720061
 21
79.2033855286501733
 31
0.0
  0
ARC
  5
D35F
  8
0
 10
410.1836205161316116
 20
79.2510857650578373
 30
0.0
 40
0.9770270893520777
 50
0.0745354090973155
 51
2.9452408175191178
  0
ARC
  5
D360
  8
0
 10
410.9553094875166721
 20
79.2920684769747055
 30
0.0
 40
0.2042556883430905
 50
2.5867382151927472
 51
7.2950700134066206
  0
ARC
  5
D361
  8
0
 10
411.1438524782572017
 20
79.3162942431526972
 30
0.0
 40
0.0141629903066603
 50
6.9365674110650408
 51
20.7204148378552908
  0
ARC
  5
D362
  8
0
 10
411.1570438799573139
 20
79.3210957436067048
 30
0.0
 40
0.0002167076353713
 50
75.161330753949315
 51
140.7188868725625071
  0
ARC
  5
D363
  8
0
 10
411.1775880184177936
 20
79.3159878981092135
 30
0.0
 40
0.0213656860660603
 50
165.789244550068787
 51
176.819458108314393
  0
ARC
  5
D364
  8
0
 10
411.474061325062678
 20
79.2955358577516733
 30
0.0
 40
0.3185418115220294
 50
176.1050937083008989
 51
179.0377290809097985
  0
ARC
  5
D365
  8
0
 10
410.0399848359256794
 20
79.2488859007482063
 30
0.0
 40
1.120667317740504
 50
357.673086361096523
 51
0.1774535122881608
  0
ARC
  5
D366
  8
0
 10
410.7852460915001984
 20
79.2186024725243101
 30
0.0
 40
0.3747910377279014
 50
354.148627531041825
 51
357.673086361096523
  0
ARC
  5
D367
  8
0
 10
411.051414045016088
 20
79.1979414291729427
 30
0.0
 40
0.1081041006142682
 50
348.2136993618199767
 51
350.6579858444254114
  0
ARC
  5
D368
  8
0
 10
411.1570986509764225
 20
79.1759926558500808
 30
0.0
 40
0.0001931419878967
 50
221.9587143530660001
 51
316.5669159556272234
  0
ARC
  5
D369
  8
0
 10
411.1621593976892086
 20
79.177956205633393
 30
0.0
 40
0.0056093506855751
 50
188.4071030685682899
 51
201.9051110890227108
  0
ARC
  5
D36A
  8
0
 10
411.4691184036042841
 20
79.204418798523804
 30
0.0
 40
0.3136967424991342
 50
179.9619619115352975
 51
184.9894099430653966
  0
LINE
  5
D36B
  8
0
 10
411.1654898463077075
 20
79.1765585425908682
 30
0.0
 11
411.1314974949181078
 21
79.1729584965709421
 31
0.0
  0
ARC
  5
D36C
  8
0
 10
411.1316622852124283
 20
79.172241273771462
 30
0.0
 40
0.0007359105823201
 50
102.939793550729803
 51
153.0478631333812984
  0
ARC
  5
D36D
  8
0
 10
411.1492146708679911
 20
79.1632461958806317
 30
0.0
 40
0.020458930833048
 50
152.8727383838462117
 51
171.5413690278473098
  0
ARC
  5
D36E
  8
0
 10
412.1754415439501145
 20
79.010632992545311
 30
0.0
 40
1.0579715258737741
 50
171.541369027846514
 51
173.5632006250662016
  0
ARC
  5
D36F
  8
0
 10
411.3256695903494915
 20
79.1065028793061771
 30
0.0
 40
0.2028087294930874
 50
173.5632006250669974
 51
183.5605949166431117
  0
ARC
  5
D370
  8
0
 10
411.1309308714534154
 20
79.0943854131943027
 30
0.0
 40
0.0076933748377144
 50
183.5605949166177879
 51
208.7828811350499905
  0
ARC
  5
D371
  8
0
 10
411.1244108624671867
 20
79.091080915694846
 30
0.0
 40
0.0004577156074817
 50
240.8640989190157882
 51
333.7225303371164955
  0
ARC
  5
D372
  8
0
 10
410.9409955191940185
 20
79.1420308806796555
 30
0.0
 40
0.1908101111662899
 50
344.4498808806580996
 51
356.6621235267488146
  0
ARC
  5
D373
  8
0
 10
410.8388291852447765
 20
79.1603104766638239
 30
0.0
 40
0.2941247370668871
 50
354.2653623017882865
 51
1.315669147490159
  0
ARC
  5
D374
  8
0
 10
411.108647565207491
 20
79.16633114671518
 30
0.0
 40
0.0242398909930283
 50
1.7320311298358271
 51
13.7551874083456394
  0
ARC
  5
D375
  8
0
 10
411.1301729160794025
 20
79.1715275911139287
 30
0.0
 40
0.0020974905481518
 50
15.6882401331115595
 51
38.2573932233181893
  0
ARC
  5
D376
  8
0
 10
411.1312407612060156
 20
79.1718725908714873
 30
0.0
 40
0.0011158420080802
 50
58.73118998250564
 51
76.698176971300839
  0
ARC
  5
D377
  8
0
 10
411.1294282353285894
 20
79.1527025423962129
 30
0.0
 40
0.0007541352465256
 50
19.0382448447976103
 51
59.2294568321342112
  0
ARC
  5
D378
  8
0
 10
411.1253565331186905
 20
79.1512975021049527
 30
0.0
 40
0.0050614426544732
 50
8.0379022432260072
 51
19.0382448448071386
  0
ARC
  5
D379
  8
0
 10
411.0656384233163863
 20
79.1465374411728959
 30
0.0
 40
0.0649603522439927
 50
357.2736587217373767
 51
4.8283693692671319
  0
ARC
  5
D37A
  8
0
 10
410.9402908479573853
 20
79.1486185883715194
 30
0.0
 40
0.1903046673661161
 50
354.3401416621243243
 51
358.4429457760385844
  0
ARC
  5
D37B
  8
0
 10
410.981017208011906
 20
79.1424422824315457
 30
0.0
 40
0.1491829304451227
 50
348.7152387279813865
 51
355.1580938273191919
  0
ARC
  5
D37C
  8
0
 10
411.1015771870091271
 20
79.120071778590173
 30
0.0
 40
0.0266275973932368
 50
338.9105763718292792
 51
345.1543709648915979
  0
ARC
  5
D37D
  8
0
 10
411.126017362827497
 20
79.1106462824520236
 30
0.0
 40
0.0004329000007487
 50
273.0099607246066853
 51
338.9105763717751074
  0
ARC
  5
D37E
  8
0
 10
411.1261154473559145
 20
79.1104895073136589
 30
0.0
 40
0.0002856458949382
 50
222.5198030079332909
 51
254.7043910221669876
  0
ARC
  5
D37F
  8
0
 10
411.1344183547623743
 20
79.1133421736261511
 30
0.0
 40
0.0090418515130486
 50
180.1051384266110063
 51
199.6848794975499004
  0
ARC
  5
D380
  8
0
 10
411.2880393083378863
 20
79.1166154682663034
 30
0.0
 40
0.1626960557609919
 50
173.9637802958430939
 51
181.1586603052101054
  0
ARC
  5
D381
  8
0
 10
411.2454343353915078
 20
79.1246405302607201
 30
0.0
 40
0.1195346701639068
 50
166.6785327190877979
 51
175.6418208561503889
  0
ARC
  5
D382
  8
0
 10
411.1330003285868884
 20
79.1509786879809809
 30
0.0
 40
0.0040667203025913
 50
146.4328048267315978
 51
162.7736975860198925
  0
ARC
  5
D383
  8
0
 10
411.1298446681781797
 20
79.15307270039483
 30
0.0
 40
0.0002794943252242
 50
96.2889130771172859
 51
146.4328048267909139
  0
LINE
  5
D384
  8
0
 10
411.12433175549819
 20
79.0906300879397151
 30
0.0
 11
411.1658608874180914
 21
79.0786571748709406
 31
0.0
  0
ARC
  5
D385
  8
0
 10
410.1897533143776968
 20
79.1263574112785903
 30
0.0
 40
0.9770270893520777
 50
0.0745354090973155
 51
2.9452408175191178
  0
ARC
  5
D386
  8
0
 10
410.9614422857627005
 20
79.1673401231954728
 30
0.0
 40
0.2042556883430905
 50
2.5867382151927472
 51
7.2950700134066206
  0
ARC
  5
D387
  8
0
 10
411.149985276503287
 20
79.1915658893734502
 30
0.0
 40
0.0141629903066603
 50
6.9365674110650408
 51
20.7204148378552908
  0
ARC
  5
D388
  8
0
 10
411.1631766782035129
 20
79.1963673898274436
 30
0.0
 40
0.0002167076353713
 50
75.161330753949315
 51
140.7188868725625071
  0
ARC
  5
D389
  8
0
 10
411.1837208166638788
 20
79.1912595443299665
 30
0.0
 40
0.0213656860660603
 50
165.789244550068787
 51
176.819458108314393
  0
ARC
  5
D38A
  8
0
 10
411.4801941233087064
 20
79.1708075039724264
 30
0.0
 40
0.3185418115220294
 50
176.1050937083008989
 51
179.0377290809097985
  0
ARC
  5
D38B
  8
0
 10
410.0461176341717078
 20
79.1241575469689593
 30
0.0
 40
1.120667317740504
 50
357.673086361096523
 51
0.1774535122881608
  0
ARC
  5
D38C
  8
0
 10
410.7913788897462268
 20
79.0938741187450631
 30
0.0
 40
0.3747910377279014
 50
354.148627531041825
 51
357.673086361096523
  0
ARC
  5
D38D
  8
0
 10
411.0575468432621165
 20
79.0732130753936957
 30
0.0
 40
0.1081041006142682
 50
348.2136993618199767
 51
350.6579858444254114
  0
ARC
  5
D38E
  8
0
 10
411.1632314492223941
 20
79.0512643020708339
 30
0.0
 40
0.0001931419878967
 50
221.9587143530660001
 51
316.5669159556272234
  0
ARC
  5
D38F
  8
0
 10
411.1682921959352939
 20
79.053227851854146
 30
0.0
 40
0.0056093506855751
 50
188.4071030685682899
 51
201.9051110890227108
  0
ARC
  5
D390
  8
0
 10
411.4752512018503126
 20
79.079690444744557
 30
0.0
 40
0.3136967424991342
 50
179.9619619115352975
 51
184.9894099430653966
  0
LINE
  5
D391
  8
0
 10
411.1573546602793954
 20
79.0474007152784139
 30
0.0
 11
411.1233623088897957
 21
79.0438006692584878
 31
0.0
  0
ARC
  5
D392
  8
0
 10
411.1235270991840025
 20
79.0430834464590077
 30
0.0
 40
0.0007359105823201
 50
102.939793550729803
 51
153.0478631333812984
  0
ARC
  5
D393
  8
0
 10
411.141079484839679
 20
79.0340883685681774
 30
0.0
 40
0.020458930833048
 50
152.8727383838462117
 51
171.5413690278473098
  0
ARC
  5
D394
  8
0
 10
412.1673063579216887
 20
78.8814751652328567
 30
0.0
 40
1.0579715258737741
 50
171.541369027846514
 51
173.5632006250662016
  0
ARC
  5
D395
  8
0
 10
411.3175344043211794
 20
78.9773450519937228
 30
0.0
 40
0.2028087294930874
 50
173.5632006250669974
 51
183.5605949166431117
  0
ARC
  5
D396
  8
0
 10
411.1227956854249896
 20
78.9652275858818484
 30
0.0
 40
0.0076933748377144
 50
183.5605949166177879
 51
208.7828811350499905
  0
ARC
  5
D397
  8
0
 10
411.1162756764388746
 20
78.9619230883823917
 30
0.0
 40
0.0004577156074817
 50
240.8640989190157882
 51
333.7225303371164955
  0
ARC
  5
D398
  8
0
 10
410.9328603331657064
 20
79.0128730533672012
 30
0.0
 40
0.1908101111662899
 50
344.4498808806580996
 51
356.6621235267488146
  0
ARC
  5
D399
  8
0
 10
410.8306939992165212
 20
79.0311526493513838
 30
0.0
 40
0.2941247370668871
 50
354.2653623017882865
 51
1.315669147490159
  0
ARC
  5
D39A
  8
0
 10
411.1005123791791789
 20
79.0371733194027257
 30
0.0
 40
0.0242398909930283
 50
1.7320311298358271
 51
13.7551874083456394
  0
ARC
  5
D39B
  8
0
 10
411.1220377300510904
 20
79.0423697638014744
 30
0.0
 40
0.0020974905481518
 50
15.6882401331115595
 51
38.2573932233181893
  0
ARC
  5
D39C
  8
0
 10
411.1231055751777035
 20
79.042714763559033
 30
0.0
 40
0.0011158420080802
 50
58.73118998250564
 51
76.698176971300839
  0
ARC
  5
D39D
  8
0
 10
411.1212930493002773
 20
79.0235447150837587
 30
0.0
 40
0.0007541352465256
 50
19.0382448447976103
 51
59.2294568321342112
  0
ARC
  5
D39E
  8
0
 10
411.1172213470903216
 20
79.0221396747924985
 30
0.0
 40
0.0050614426544732
 50
8.0379022432260072
 51
19.0382448448071386
  0
ARC
  5
D39F
  8
0
 10
411.0575032372880742
 20
79.0173796138604416
 30
0.0
 40
0.0649603522439927
 50
357.2736587217373767
 51
4.8283693692671319
  0
ARC
  5
D3A0
  8
0
 10
410.9321556619290163
 20
79.0194607610590651
 30
0.0
 40
0.1903046673661161
 50
354.3401416621243243
 51
358.4429457760385844
  0
ARC
  5
D3A1
  8
0
 10
410.9728820219835939
 20
79.0132844551191056
 30
0.0
 40
0.1491829304451227
 50
348.7152387279813865
 51
355.1580938273191919
  0
ARC
  5
D3A2
  8
0
 10
411.093442000980815
 20
78.9909139512777188
 30
0.0
 40
0.0266275973932368
 50
338.9105763718292792
 51
345.1543709648915979
  0
ARC
  5
D3A3
  8
0
 10
411.1178821767991849
 20
78.9814884551395693
 30
0.0
 40
0.0004329000007487
 50
273.0099607246066853
 51
338.9105763717751074
  0
ARC
  5
D3A4
  8
0
 10
411.1179802613277161
 20
78.9813316800012046
 30
0.0
 40
0.0002856458949382
 50
222.5198030079332909
 51
254.7043910221669876
  0
ARC
  5
D3A5
  8
0
 10
411.1262831687340054
 20
78.9841843463136968
 30
0.0
 40
0.0090418515130486
 50
180.1051384266110063
 51
199.6848794975499004
  0
ARC
  5
D3A6
  8
0
 10
411.2799041223095173
 20
78.9874576409538491
 30
0.0
 40
0.1626960557609919
 50
173.9637802958430939
 51
181.1586603052101054
  0
ARC
  5
D3A7
  8
0
 10
411.2372991493630821
 20
78.9954827029482658
 30
0.0
 40
0.1195346701639068
 50
166.6785327190877979
 51
175.6418208561503889
  0
ARC
  5
D3A8
  8
0
 10
411.1248651425585194
 20
79.0218208606685266
 30
0.0
 40
0.0040667203025913
 50
146.4328048267315978
 51
162.7736975860198925
  0
ARC
  5
D3A9
  8
0
 10
411.1217094821499245
 20
79.0239148730823757
 30
0.0
 40
0.0002794943252242
 50
96.2889130771172859
 51
146.4328048267909139
  0
LINE
  5
D3AA
  8
0
 10
411.1161965694698779
 20
78.9614722606272608
 30
0.0
 11
411.1577257013896087
 21
78.9494993475584863
 31
0.0
  0
ARC
  5
D3AB
  8
0
 10
410.1816181283493847
 20
78.9971995839661361
 30
0.0
 40
0.9770270893520777
 50
0.0745354090973155
 51
2.9452408175191178
  0
ARC
  5
D3AC
  8
0
 10
410.9533070997342747
 20
79.0381822958830185
 30
0.0
 40
0.2042556883430905
 50
2.5867382151927472
 51
7.2950700134066206
  0
ARC
  5
D3AD
  8
0
 10
411.141850090474918
 20
79.0624080620609959
 30
0.0
 40
0.0141629903066603
 50
6.9365674110650408
 51
20.7204148378552908
  0
ARC
  5
D3AE
  8
0
 10
411.1550414921752008
 20
79.0672095625150035
 30
0.0
 40
0.0002167076353713
 50
75.161330753949315
 51
140.7188868725625071
  0
ARC
  5
D3AF
  8
0
 10
411.1755856306355099
 20
79.0621017170175122
 30
0.0
 40
0.0213656860660603
 50
165.789244550068787
 51
176.819458108314393
  0
ARC
  5
D3B0
  8
0
 10
411.4720589372803943
 20
79.0416496766599721
 30
0.0
 40
0.3185418115220294
 50
176.1050937083008989
 51
179.0377290809097985
  0
ARC
  5
D3B1
  8
0
 10
410.0379824481433957
 20
78.994999719656505
 30
0.0
 40
1.120667317740504
 50
357.673086361096523
 51
0.1774535122881608
  0
ARC
  5
D3B2
  8
0
 10
410.7832437037179147
 20
78.9647162914326088
 30
0.0
 40
0.3747910377279014
 50
354.148627531041825
 51
357.673086361096523
  0
ARC
  5
D3B3
  8
0
 10
411.0494116572338044
 20
78.9440552480812414
 30
0.0
 40
0.1081041006142682
 50
348.2136993618199767
 51
350.6579858444254114
  0
ARC
  5
D3B4
  8
0
 10
411.1550962631940251
 20
78.9221064747583796
 30
0.0
 40
0.0001931419878967
 50
221.9587143530660001
 51
316.5669159556272234
  0
ARC
  5
D3B5
  8
0
 10
411.1601570099069818
 20
78.9240700245416917
 30
0.0
 40
0.0056093506855751
 50
188.4071030685682899
 51
201.9051110890227108
  0
ARC
  5
D3B6
  8
0
 10
411.4671160158220005
 20
78.9505326174321027
 30
0.0
 40
0.3136967424991342
 50
179.9619619115352975
 51
184.9894099430653966
  0
LINE
  5
D3B7
  8
0
 10
411.1650765006252755
 20
78.9193806331038985
 30
0.0
 11
411.1310841492356758
 21
78.9157805870839724
 31
0.0
  0
ARC
  5
D3B8
  8
0
 10
411.1312489395299963
 20
78.9150633642844923
 30
0.0
 40
0.0007359105823201
 50
102.939793550729803
 51
153.0478631333812984
  0
ARC
  5
D3B9
  8
0
 10
411.148801325185616
 20
78.906068286393662
 30
0.0
 40
0.020458930833048
 50
152.8727383838462117
 51
171.5413690278473098
  0
ARC
  5
D3BA
  8
0
 10
412.1750281982676256
 20
78.7534550830583413
 30
0.0
 40
1.0579715258737741
 50
171.541369027846514
 51
173.5632006250662016
  0
ARC
  5
D3BB
  8
0
 10
411.3252562446671163
 20
78.8493249698192074
 30
0.0
 40
0.2028087294930874
 50
173.5632006250669974
 51
183.5605949166431117
  0
ARC
  5
D3BC
  8
0
 10
411.1305175257709834
 20
78.837207503707333
 30
0.0
 40
0.0076933748377144
 50
183.5605949166177879
 51
208.7828811350499905
  0
ARC
  5
D3BD
  8
0
 10
411.1239975167848115
 20
78.8339030062078763
 30
0.0
 40
0.0004577156074817
 50
240.8640989190157882
 51
333.7225303371164955
  0
ARC
  5
D3BE
  8
0
 10
410.9405821735115865
 20
78.8848529711926858
 30
0.0
 40
0.1908101111662899
 50
344.4498808806580996
 51
356.6621235267488146
  0
ARC
  5
D3BF
  8
0
 10
410.8384158395624013
 20
78.9031325671768684
 30
0.0
 40
0.2941247370668871
 50
354.2653623017882865
 51
1.315669147490159
  0
ARC
  5
D3C0
  8
0
 10
411.1082342195251158
 20
78.9091532372282103
 30
0.0
 40
0.0242398909930283
 50
1.7320311298358271
 51
13.7551874083456394
  0
ARC
  5
D3C1
  8
0
 10
411.1297595703970273
 20
78.914349681626959
 30
0.0
 40
0.0020974905481518
 50
15.6882401331115595
 51
38.2573932233181893
  0
ARC
  5
D3C2
  8
0
 10
411.1308274155235836
 20
78.9146946813845176
 30
0.0
 40
0.0011158420080802
 50
58.73118998250564
 51
76.698176971300839
  0
ARC
  5
D3C3
  8
0
 10
411.1290148896462142
 20
78.8955246329092432
 30
0.0
 40
0.0007541352465256
 50
19.0382448447976103
 51
59.2294568321342112
  0
ARC
  5
D3C4
  8
0
 10
411.1249431874362017
 20
78.894119592617983
 30
0.0
 40
0.0050614426544732
 50
8.0379022432260072
 51
19.0382448448071386
  0
ARC
  5
D3C5
  8
0
 10
411.0652250776340111
 20
78.8893595316859262
 30
0.0
 40
0.0649603522439927
 50
357.2736587217373767
 51
4.8283693692671319
  0
ARC
  5
D3C6
  8
0
 10
410.9398775022750101
 20
78.8914406788845497
 30
0.0
 40
0.1903046673661161
 50
354.3401416621243243
 51
358.4429457760385844
  0
ARC
  5
D3C7
  8
0
 10
410.9806038623294739
 20
78.8852643729445901
 30
0.0
 40
0.1491829304451227
 50
348.7152387279813865
 51
355.1580938273191919
  0
ARC
  5
D3C8
  8
0
 10
411.1011638413266951
 20
78.8628938691032033
 30
0.0
 40
0.0266275973932368
 50
338.9105763718292792
 51
345.1543709648915979
  0
ARC
  5
D3C9
  8
0
 10
411.1256040171451218
 20
78.8534683729650538
 30
0.0
 40
0.0004329000007487
 50
273.0099607246066853
 51
338.9105763717751074
  0
ARC
  5
D3CA
  8
0
 10
411.1257021016735962
 20
78.8533115978266892
 30
0.0
 40
0.0002856458949382
 50
222.5198030079332909
 51
254.7043910221669876
  0
ARC
  5
D3CB
  8
0
 10
411.1340050090801128
 20
78.8561642641391813
 30
0.0
 40
0.0090418515130486
 50
180.1051384266110063
 51
199.6848794975499004
  0
ARC
  5
D3CC
  8
0
 10
411.2876259626553974
 20
78.8594375587793337
 30
0.0
 40
0.1626960557609919
 50
173.9637802958430939
 51
181.1586603052101054
  0
ARC
  5
D3CD
  8
0
 10
411.2450209897090758
 20
78.8674626207737504
 30
0.0
 40
0.1195346701639068
 50
166.6785327190877979
 51
175.6418208561503889
  0
ARC
  5
D3CE
  8
0
 10
411.1325869829043995
 20
78.8938007784940112
 30
0.0
 40
0.0040667203025913
 50
146.4328048267315978
 51
162.7736975860198925
  0
ARC
  5
D3CF
  8
0
 10
411.1294313224958046
 20
78.8958947909078603
 30
0.0
 40
0.0002794943252242
 50
96.2889130771172859
 51
146.4328048267909139
  0
LINE
  5
D3D0
  8
0
 10
411.1239184098158148
 20
78.8334521784527453
 30
0.0
 11
411.1654475417357162
 21
78.8214792653839709
 31
0.0
  0
ARC
  5
D3D1
  8
0
 10
410.1893399686953217
 20
78.8691795017916206
 30
0.0
 40
0.9770270893520777
 50
0.0745354090973155
 51
2.9452408175191178
  0
ARC
  5
D3D2
  8
0
 10
410.9610289400803254
 20
78.910162213708503
 30
0.0
 40
0.2042556883430905
 50
2.5867382151927472
 51
7.2950700134066206
  0
ARC
  5
D3D3
  8
0
 10
411.1495719308207981
 20
78.9343879798864805
 30
0.0
 40
0.0141629903066603
 50
6.9365674110650408
 51
20.7204148378552908
  0
ARC
  5
D3D4
  8
0
 10
411.1627633325210809
 20
78.9391894803404739
 30
0.0
 40
0.0002167076353713
 50
75.161330753949315
 51
140.7188868725625071
  0
ARC
  5
D3D5
  8
0
 10
411.18330747098139
 20
78.9340816348429968
 30
0.0
 40
0.0213656860660603
 50
165.789244550068787
 51
176.819458108314393
  0
ARC
  5
D3D6
  8
0
 10
411.4797807776262744
 20
78.9136295944854567
 30
0.0
 40
0.3185418115220294
 50
176.1050937083008989
 51
179.0377290809097985
  0
ARC
  5
D3D7
  8
0
 10
410.0457042884892758
 20
78.8669796374819896
 30
0.0
 40
1.120667317740504
 50
357.673086361096523
 51
0.1774535122881608
  0
ARC
  5
D3D8
  8
0
 10
410.7909655440637948
 20
78.8366962092580934
 30
0.0
 40
0.3747910377279014
 50
354.148627531041825
 51
357.673086361096523
  0
ARC
  5
D3D9
  8
0
 10
411.0571334975796276
 20
78.816035165906726
 30
0.0
 40
0.1081041006142682
 50
348.2136993618199767
 51
350.6579858444254114
  0
ARC
  5
D3DA
  8
0
 10
411.1628181035399052
 20
78.7940863925838642
 30
0.0
 40
0.0001931419878967
 50
221.9587143530660001
 51
316.5669159556272234
  0
ARC
  5
D3DB
  8
0
 10
411.1678788502529187
 20
78.7960499423671763
 30
0.0
 40
0.0056093506855751
 50
188.4071030685682899
 51
201.9051110890227108
  0
ARC
  5
D3DC
  8
0
 10
411.4748378561678805
 20
78.8225125352575731
 30
0.0
 40
0.3136967424991342
 50
179.9619619115352975
 51
184.9894099430653966
  0
LINE
  5
D3DD
  8
0
 10
411.1571557059303927
 20
78.7935849966152517
 30
0.0
 11
411.1231633545407931
 21
78.7899849505953256
 31
0.0
  0
ARC
  5
D3DE
  8
0
 10
411.1233281448351136
 20
78.7892677277958455
 30
0.0
 40
0.0007359105823201
 50
102.939793550729803
 51
153.0478631333812984
  0
ARC
  5
D3DF
  8
0
 10
411.1408805304906764
 20
78.7802726499050152
 30
0.0
 40
0.020458930833048
 50
152.8727383838462117
 51
171.5413690278473098
  0
ARC
  5
D3E0
  8
0
 10
412.1671074035726861
 20
78.6276594465696945
 30
0.0
 40
1.0579715258737741
 50
171.541369027846514
 51
173.5632006250662016
  0
ARC
  5
D3E1
  8
0
 10
411.3173354499721768
 20
78.7235293333305606
 30
0.0
 40
0.2028087294930874
 50
173.5632006250669974
 51
183.5605949166431117
  0
ARC
  5
D3E2
  8
0
 10
411.1225967310761007
 20
78.7114118672186862
 30
0.0
 40
0.0076933748377144
 50
183.5605949166177879
 51
208.7828811350499905
  0
ARC
  5
D3E3
  8
0
 10
411.116076722089872
 20
78.7081073697192295
 30
0.0
 40
0.0004577156074817
 50
240.8640989190157882
 51
333.7225303371164955
  0
ARC
  5
D3E4
  8
0
 10
410.9326613788168174
 20
78.7590573347040248
 30
0.0
 40
0.1908101111662899
 50
344.4498808806580996
 51
356.6621235267488146
  0
ARC
  5
D3E5
  8
0
 10
410.8304950448675754
 20
78.7773369306882216
 30
0.0
 40
0.2941247370668871
 50
354.2653623017882865
 51
1.315669147490159
  0
ARC
  5
D3E6
  8
0
 10
411.1003134248302899
 20
78.7833576007395635
 30
0.0
 40
0.0242398909930283
 50
1.7320311298358271
 51
13.7551874083456394
  0
ARC
  5
D3E7
  8
0
 10
411.1218387757022015
 20
78.7885540451383122
 30
0.0
 40
0.0020974905481518
 50
15.6882401331115595
 51
38.2573932233181893
  0
ARC
  5
D3E8
  8
0
 10
411.1229066208288145
 20
78.7888990448958708
 30
0.0
 40
0.0011158420080802
 50
58.73118998250564
 51
76.698176971300839
  0
ARC
  5
D3E9
  8
0
 10
411.1210940949512747
 20
78.7697289964205964
 30
0.0
 40
0.0007541352465256
 50
19.0382448447976103
 51
59.2294568321342112
  0
ARC
  5
D3EA
  8
0
 10
411.1170223927413758
 20
78.7683239561293362
 30
0.0
 40
0.0050614426544732
 50
8.0379022432260072
 51
19.0382448448071386
  0
ARC
  5
D3EB
  8
0
 10
411.0573042829391852
 20
78.7635638951972652
 30
0.0
 40
0.0649603522439927
 50
357.2736587217373767
 51
4.8283693692671319
  0
ARC
  5
D3EC
  8
0
 10
410.9319567075801274
 20
78.7656450423959029
 30
0.0
 40
0.1903046673661161
 50
354.3401416621243243
 51
358.4429457760385844
  0
ARC
  5
D3ED
  8
0
 10
410.9726830676347049
 20
78.7594687364559434
 30
0.0
 40
0.1491829304451227
 50
348.7152387279813865
 51
355.1580938273191919
  0
ARC
  5
D3EE
  8
0
 10
411.0932430466318124
 20
78.7370982326145565
 30
0.0
 40
0.0266275973932368
 50
338.9105763718292792
 51
345.1543709648915979
  0
ARC
  5
D3EF
  8
0
 10
411.1176832224502959
 20
78.7276727364764071
 30
0.0
 40
0.0004329000007487
 50
273.0099607246066853
 51
338.9105763717751074
  0
ARC
  5
D3F0
  8
0
 10
411.1177813069787135
 20
78.7275159613380424
 30
0.0
 40
0.0002856458949382
 50
222.5198030079332909
 51
254.7043910221669876
  0
ARC
  5
D3F1
  8
0
 10
411.1260842143851733
 20
78.7303686276505346
 30
0.0
 40
0.0090418515130486
 50
180.1051384266110063
 51
199.6848794975499004
  0
ARC
  5
D3F2
  8
0
 10
411.2797051679605147
 20
78.7336419222906869
 30
0.0
 40
0.1626960557609919
 50
173.9637802958430939
 51
181.1586603052101054
  0
ARC
  5
D3F3
  8
0
 10
411.2371001950141931
 20
78.7416669842851036
 30
0.0
 40
0.1195346701639068
 50
166.6785327190877979
 51
175.6418208561503889
  0
ARC
  5
D3F4
  8
0
 10
411.1246661882095736
 20
78.7680051420053644
 30
0.0
 40
0.0040667203025913
 50
146.4328048267315978
 51
162.7736975860198925
  0
ARC
  5
D3F5
  8
0
 10
411.1215105278009787
 20
78.7700991544192135
 30
0.0
 40
0.0002794943252242
 50
96.2889130771172859
 51
146.4328048267909139
  0
LINE
  5
D3F6
  8
0
 10
411.1159976151209889
 20
78.7076565419640986
 30
0.0
 11
411.1575267470407766
 21
78.6956836288953241
 31
0.0
  0
ARC
  5
D3F7
  8
0
 10
410.1814191740004958
 20
78.7433838653029738
 30
0.0
 40
0.9770270893520777
 50
0.0745354090973155
 51
2.9452408175191178
  0
ARC
  5
D3F8
  8
0
 10
410.9531081453853858
 20
78.7843665772198563
 30
0.0
 40
0.2042556883430905
 50
2.5867382151927472
 51
7.2950700134066206
  0
ARC
  5
D3F9
  8
0
 10
411.1416511361259722
 20
78.8085923433978337
 30
0.0
 40
0.0141629903066603
 50
6.9365674110650408
 51
20.7204148378552908
  0
ARC
  5
D3FA
  8
0
 10
411.1548425378261982
 20
78.8133938438518413
 30
0.0
 40
0.0002167076353713
 50
75.161330753949315
 51
140.7188868725625071
  0
ARC
  5
D3FB
  8
0
 10
411.175386676286621
 20
78.80828599835435
 30
0.0
 40
0.0213656860660603
 50
165.789244550068787
 51
176.819458108314393
  0
ARC
  5
D3FC
  8
0
 10
411.4718599829313916
 20
78.7878339579968099
 30
0.0
 40
0.3185418115220294
 50
176.1050937083008989
 51
179.0377290809097985
  0
ARC
  5
D3FD
  8
0
 10
410.0377834937945067
 20
78.7411840009933428
 30
0.0
 40
1.120667317740504
 50
357.673086361096523
 51
0.1774535122881608
  0
ARC
  5
D3FE
  8
0
 10
410.7830447493689121
 20
78.7109005727694466
 30
0.0
 40
0.3747910377279014
 50
354.148627531041825
 51
357.673086361096523
  0
ARC
  5
D3FF
  8
0
 10
411.0492127028848017
 20
78.6902395294180792
 30
0.0
 40
0.1081041006142682
 50
348.2136993618199767
 51
350.6579858444254114
  0
ARC
  5
D400
  8
0
 10
411.1548973088450794
 20
78.6682907560952174
 30
0.0
 40
0.0001931419878967
 50
221.9587143530660001
 51
316.5669159556272234
  0
ARC
  5
D401
  8
0
 10
411.1599580555580928
 20
78.6702543058785295
 30
0.0
 40
0.0056093506855751
 50
188.4071030685682899
 51
201.9051110890227108
  0
ARC
  5
D402
  8
0
 10
411.4669170614731115
 20
78.6967168987689405
 30
0.0
 40
0.3136967424991342
 50
179.9619619115352975
 51
184.9894099430653966
  0
LINE
  5
D403
  8
0
 10
411.1648850896677914
 20
78.6625474957093331
 30
0.0
 11
411.1308927382781917
 21
78.658947449689407
 31
0.0
  0
ARC
  5
D404
  8
0
 10
411.1310575285723985
 20
78.6582302268899269
 30
0.0
 40
0.0007359105823201
 50
102.939793550729803
 51
153.0478631333812984
  0
ARC
  5
D405
  8
0
 10
411.148609914228075
 20
78.6492351489990966
 30
0.0
 40
0.020458930833048
 50
152.8727383838462117
 51
171.5413690278473098
  0
ARC
  5
D406
  8
0
 10
412.1748367873100847
 20
78.4966219456637759
 30
0.0
 40
1.0579715258737741
 50
171.541369027846514
 51
173.5632006250662016
  0
ARC
  5
D407
  8
0
 10
411.3250648337095754
 20
78.592491832424642
 30
0.0
 40
0.2028087294930874
 50
173.5632006250677932
 51
183.5605949166431117
  0
ARC
  5
D408
  8
0
 10
411.1303261148133856
 20
78.5803743663127676
 30
0.0
 40
0.0076933748377144
 50
183.5605949166177879
 51
208.7828811350499905
  0
ARC
  5
D409
  8
0
 10
411.1238061058272137
 20
78.5770698688133109
 30
0.0
 40
0.0004577156074817
 50
240.8640989190157882
 51
333.7225303371164955
  0
ARC
  5
D40A
  8
0
 10
410.9403907625541024
 20
78.6280198337981204
 30
0.0
 40
0.1908101111662899
 50
344.4498808806580996
 51
356.6621235267488146
  0
ARC
  5
D40B
  8
0
 10
410.8382244286049172
 20
78.646299429782303
 30
0.0
 40
0.2941247370668871
 50
354.2653623017882865
 51
1.315669147490159
  0
ARC
  5
D40C
  8
0
 10
411.1080428085675749
 20
78.6523200998336449
 30
0.0
 40
0.0242398909930283
 50
1.7320311298358271
 51
13.7551874083456394
  0
ARC
  5
D40D
  8
0
 10
411.1295681594394864
 20
78.6575165442323936
 30
0.0
 40
0.0020974905481518
 50
15.6882401331115595
 51
38.2573932233181893
  0
ARC
  5
D40E
  8
0
 10
411.1306360045660995
 20
78.6578615439899522
 30
0.0
 40
0.0011158420080802
 50
58.73118998250564
 51
76.698176971300839
  0
ARC
  5
D40F
  8
0
 10
411.1288234786886733
 20
78.6386914955146779
 30
0.0
 40
0.0007541352465256
 50
19.0382448447976103
 51
59.2294568321342112
  0
ARC
  5
D410
  8
0
 10
411.1247517764787744
 20
78.6372864552234176
 30
0.0
 40
0.0050614426544732
 50
8.0379022432260072
 51
19.0382448448071386
  0
ARC
  5
D411
  8
0
 10
411.065033666676527
 20
78.6325263942913608
 30
0.0
 40
0.0649603522439927
 50
357.2736587217373767
 51
4.8283693692671319
  0
ARC
  5
D412
  8
0
 10
410.939686091317526
 20
78.6346075414899843
 30
0.0
 40
0.1903046673661161
 50
354.3401416621243243
 51
358.4429457760385844
  0
ARC
  5
D413
  8
0
 10
410.9804124513719898
 20
78.6284312355500248
 30
0.0
 40
0.1491829304451227
 50
348.7152387279813865
 51
355.1580938273191919
  0
ARC
  5
D414
  8
0
 10
411.1009724303690973
 20
78.6060607317086237
 30
0.0
 40
0.0266275973932368
 50
338.9105763718292792
 51
345.1543709648915979
  0
ARC
  5
D415
  8
0
 10
411.1254126061875809
 20
78.5966352355704885
 30
0.0
 40
0.0004329000007487
 50
273.0099607246066853
 51
338.9105763717751074
  0
ARC
  5
D416
  8
0
 10
411.1255106907159984
 20
78.5964784604321238
 30
0.0
 40
0.0002856458949382
 50
222.5198030079332909
 51
254.7043910221669876
  0
ARC
  5
D417
  8
0
 10
411.133813598122515
 20
78.599331126744616
 30
0.0
 40
0.0090418515130486
 50
180.1051384266110063
 51
199.6848794975499004
  0
ARC
  5
D418
  8
0
 10
411.287434551698027
 20
78.6026044213847683
 30
0.0
 40
0.1626960557609919
 50
173.9637802958430939
 51
181.1586603052101054
  0
ARC
  5
D419
  8
0
 10
411.2448295787515917
 20
78.610629483379185
 30
0.0
 40
0.1195346701639068
 50
166.6785327190877979
 51
175.6418208561503889
  0
ARC
  5
D41A
  8
0
 10
411.1323955719469154
 20
78.6369676410994458
 30
0.0
 40
0.0040667203025913
 50
146.4328048267315978
 51
162.7736975860198925
  0
ARC
  5
D41B
  8
0
 10
411.1292399115383773
 20
78.6390616535132949
 30
0.0
 40
0.0002794943252242
 50
96.2889130771172859
 51
146.4328048267909139
  0
LINE
  5
D41C
  8
0
 10
411.1237269988582739
 20
78.5766190410581657
 30
0.0
 11
411.1652561307781184
 21
78.5646461279894055
 31
0.0
  0
ARC
  5
D41D
  8
0
 10
410.1891485577377807
 20
78.6123463643970553
 30
0.0
 40
0.9770270893520777
 50
0.0745354090973155
 51
2.9452408175191178
  0
ARC
  5
D41E
  8
0
 10
410.9608375291227844
 20
78.6533290763139377
 30
0.0
 40
0.2042556883430905
 50
2.5867382151927472
 51
7.2950700134066206
  0
ARC
  5
D41F
  8
0
 10
411.149380519863314
 20
78.6775548424919151
 30
0.0
 40
0.0141629903066603
 50
6.9365674110650408
 51
20.7204148378552908
  0
ARC
  5
D420
  8
0
 10
411.1625719215635968
 20
78.6823563429459227
 30
0.0
 40
0.0002167076353713
 50
75.161330753949315
 51
140.7188868725625071
  0
ARC
  5
D421
  8
0
 10
411.1831160600239059
 20
78.6772484974484314
 30
0.0
 40
0.0213656860660603
 50
165.789244550068787
 51
176.819458108314393
  0
ARC
  5
D422
  8
0
 10
411.4795893666687903
 20
78.6567964570908913
 30
0.0
 40
0.3185418115220294
 50
176.1050937083008989
 51
179.0377290809097985
  0
ARC
  5
D423
  8
0
 10
410.0455128775319054
 20
78.6101465000874242
 30
0.0
 40
1.120667317740504
 50
357.673086361096523
 51
0.1774535122881608
  0
ARC
  5
D424
  8
0
 10
410.7907741331063107
 20
78.579863071863528
 30
0.0
 40
0.3747910377279014
 50
354.148627531041825
 51
357.673086361096523
  0
ARC
  5
D425
  8
0
 10
411.0569420866222003
 20
78.5592020285121606
 30
0.0
 40
0.1081041006142682
 50
348.2136993618199767
 51
350.6579858444254114
  0
ARC
  5
D426
  8
0
 10
411.162626692582478
 20
78.5372532551892846
 30
0.0
 40
0.0001931419878967
 50
221.9587143530660001
 51
316.5669159556272234
  0
ARC
  5
D427
  8
0
 10
411.1676874392953778
 20
78.5392168049726109
 30
0.0
 40
0.0056093506855751
 50
188.4071030685682899
 51
201.9051110890227108
  0
ARC
  5
D428
  8
0
 10
411.4746464452105101
 20
78.5656793978630219
 30
0.0
 40
0.3136967424991342
 50
179.9619619115352975
 51
184.9894099430653966
  0
LINE
  5
D429
  8
0
 10
411.1568875872678177
 20
78.5458290385093392
 30
0.0
 11
411.122895235878218
 21
78.542228992489413
 31
0.0
  0
ARC
  5
D42A
  8
0
 10
411.1230600261724248
 20
78.541511769689933
 30
0.0
 40
0.0007359105823201
 50
102.939793550729803
 51
153.0478631333812984
  0
ARC
  5
D42B
  8
0
 10
411.1406124118279877
 20
78.5325166917991027
 30
0.0
 40
0.020458930833048
 50
152.8727383838462117
 51
171.5413690278473098
  0
ARC
  5
D42C
  8
0
 10
412.1668392849102247
 20
78.379903488463782
 30
0.0
 40
1.0579715258737741
 50
171.541369027846514
 51
173.5632006250662016
  0
ARC
  5
D42D
  8
0
 10
411.3170673313097154
 20
78.475773375224648
 30
0.0
 40
0.2028087294930874
 50
173.5632006250677932
 51
183.5605949166431117
  0
ARC
  5
D42E
  8
0
 10
411.122328612413412
 20
78.4636559091127737
 30
0.0
 40
0.0076933748377144
 50
183.5605949166177879
 51
208.7828811350499905
  0
ARC
  5
D42F
  8
0
 10
411.1158086034271832
 20
78.4603514116133169
 30
0.0
 40
0.0004577156074817
 50
240.8640989190157882
 51
333.7225303371164955
  0
ARC
  5
D430
  8
0
 10
410.9323932601540719
 20
78.5113013765981265
 30
0.0
 40
0.1908101111662899
 50
344.4498808806580996
 51
356.6621235267488146
  0
ARC
  5
D431
  8
0
 10
410.8302269262050004
 20
78.5295809725822949
 30
0.0
 40
0.2941247370668871
 50
354.2653623017882865
 51
1.315669147490159
  0
ARC
  5
D432
  8
0
 10
411.1000453061676012
 20
78.535601642633651
 30
0.0
 40
0.0242398909930283
 50
1.7320311298358271
 51
13.7551874083456394
  0
ARC
  5
D433
  8
0
 10
411.1215706570395128
 20
78.5407980870323854
 30
0.0
 40
0.0020974905481518
 50
15.6882401331115595
 51
38.2573932233181893
  0
ARC
  5
D434
  8
0
 10
411.1226385021661258
 20
78.5411430867899583
 30
0.0
 40
0.0011158420080802
 50
58.73118998250564
 51
76.698176971300839
  0
ARC
  5
D435
  8
0
 10
411.1208259762888133
 20
78.5219730383146839
 30
0.0
 40
0.0007541352465256
 50
19.0382448447976103
 51
59.2294568321342112
  0
ARC
  5
D436
  8
0
 10
411.1167542740788008
 20
78.5205679980234237
 30
0.0
 40
0.0050614426544732
 50
8.0379022432260072
 51
19.0382448448071386
  0
ARC
  5
D437
  8
0
 10
411.0570361642763828
 20
78.5158079370913669
 30
0.0
 40
0.0649603522439927
 50
357.2736587217373767
 51
4.8283693692671319
  0
ARC
  5
D438
  8
0
 10
410.9316885889174955
 20
78.5178890842899904
 30
0.0
 40
0.1903046673661161
 50
354.3401416621243243
 51
358.4429457760385844
  0
ARC
  5
D439
  8
0
 10
410.9724149489720162
 20
78.5117127783500308
 30
0.0
 40
0.1491829304451227
 50
348.7152387279813865
 51
355.1580938273191919
  0
ARC
  5
D43A
  8
0
 10
411.0929749279691805
 20
78.489342274508644
 30
0.0
 40
0.0266275973932368
 50
338.9105763718292792
 51
345.1543709648915979
  0
ARC
  5
D43B
  8
0
 10
411.1174151037876072
 20
78.4799167783704945
 30
0.0
 40
0.0004329000007487
 50
273.0099607246066853
 51
338.9105763717751074
  0
ARC
  5
D43C
  8
0
 10
411.1175131883160248
 20
78.4797600032321299
 30
0.0
 40
0.0002856458949382
 50
222.5198030079332909
 51
254.7043910221669876
  0
ARC
  5
D43D
  8
0
 10
411.1258160957224845
 20
78.482612669544622
 30
0.0
 40
0.0090418515130486
 50
180.1051384266110063
 51
199.6848794975499004
  0
ARC
  5
D43E
  8
0
 10
411.2794370492978828
 20
78.4858859641847744
 30
0.0
 40
0.1626960557609919
 50
173.9637802958430939
 51
181.1586603052101054
  0
ARC
  5
D43F
  8
0
 10
411.2368320763516749
 20
78.493911026179191
 30
0.0
 40
0.1195346701639068
 50
166.6785327190877979
 51
175.6418208561503889
  0
ARC
  5
D440
  8
0
 10
411.1243980695468849
 20
78.5202491838994519
 30
0.0
 40
0.0040667203025913
 50
146.4328048267315978
 51
162.7736975860198925
  0
ARC
  5
D441
  8
0
 10
411.1212424091384037
 20
78.522343196313301
 30
0.0
 40
0.0002794943252242
 50
96.2889130771172859
 51
146.4328048267909139
  0
LINE
  5
D442
  8
0
 10
411.1157294964583002
 20
78.459900583858186
 30
0.0
 11
411.1572586283780879
 21
78.4479276707894115
 31
0.0
  0
ARC
  5
D443
  8
0
 10
410.1811510553378071
 20
78.4956279071970613
 30
0.0
 40
0.9770270893520777
 50
0.0745354090973155
 51
2.9452408175191178
  0
ARC
  5
D444
  8
0
 10
410.9528400267228108
 20
78.5366106191139437
 30
0.0
 40
0.2042556883430905
 50
2.5867382151927472
 51
7.2950700134066206
  0
ARC
  5
D445
  8
0
 10
411.1413830174632835
 20
78.5608363852919211
 30
0.0
 40
0.0141629903066603
 50
6.9365674110650408
 51
20.7204148378552908
  0
ARC
  5
D446
  8
0
 10
411.1545744191635094
 20
78.5656378857459288
 30
0.0
 40
0.0002167076353713
 50
75.161330753949315
 51
140.7188868725625071
  0
ARC
  5
D447
  8
0
 10
411.1751185576238754
 20
78.5605300402484232
 30
0.0
 40
0.0213656860660603
 50
165.789244550068787
 51
176.819458108314393
  0
ARC
  5
D448
  8
0
 10
411.4715918642688166
 20
78.5400779998908973
 30
0.0
 40
0.3185418115220294
 50
176.1050937083008989
 51
179.0377290809097985
  0
ARC
  5
D449
  8
0
 10
410.037515375131818
 20
78.4934280428874303
 30
0.0
 40
1.120667317740504
 50
357.673086361096523
 51
0.1774535122881608
  0
ARC
  5
D44A
  8
0
 10
410.7827766307062802
 20
78.4631446146635341
 30
0.0
 40
0.3747910377279014
 50
354.148627531041825
 51
357.673086361096523
  0
ARC
  5
D44B
  8
0
 10
411.0489445842222267
 20
78.4424835713121666
 30
0.0
 40
0.1081041006142682
 50
348.2136993618199767
 51
350.6579858444254114
  0
ARC
  5
D44C
  8
0
 10
411.1546291901825043
 20
78.4205347979893048
 30
0.0
 40
0.0001931419878967
 50
221.9587143530660001
 51
316.5669159556272234
  0
ARC
  5
D44D
  8
0
 10
411.1596899368954041
 20
78.422498347772617
 30
0.0
 40
0.0056093506855751
 50
188.4071030685682899
 51
201.9051110890227108
  0
ARC
  5
D44E
  8
0
 10
411.4666489428104228
 20
78.4489609406630279
 30
0.0
 40
0.3136967424991342
 50
179.9619619115352975
 51
184.9894099430653966
  0
LINE
  5
D44F
  8
0
 10
411.1650816082791948
 20
78.4175203468054463
 30
0.0
 11
411.1310892568895952
 21
78.4139203007855201
 31
0.0
  0
ARC
  5
D450
  8
0
 10
411.1312540471839156
 20
78.4132030779860401
 30
0.0
 40
0.0007359105823201
 50
102.939793550729803
 51
153.0478631333812984
  0
ARC
  5
D451
  8
0
 10
411.1488064328394785
 20
78.4042080000952097
 30
0.0
 40
0.020458930833048
 50
152.8727383838462117
 51
171.5413690278473098
  0
ARC
  5
D452
  8
0
 10
412.1750333059216018
 20
78.2515947967598748
 30
0.0
 40
1.0579715258737741
 50
171.541369027846514
 51
173.5632006250662016
  0
ARC
  5
D453
  8
0
 10
411.3252613523210925
 20
78.3474646835207551
 30
0.0
 40
0.2028087294930874
 50
173.5632006250677932
 51
183.5605949166431117
  0
ARC
  5
D454
  8
0
 10
411.1305226334247891
 20
78.3353472174088807
 30
0.0
 40
0.0076933748377144
 50
183.5605949166177879
 51
208.7828811350499905
  0
ARC
  5
D455
  8
0
 10
411.124002624438674
 20
78.332042719909424
 30
0.0
 40
0.0004577156074817
 50
240.8640989190157882
 51
333.7225303371164955
  0
ARC
  5
D456
  8
0
 10
410.9405872811655058
 20
78.3829926848942335
 30
0.0
 40
0.1908101111662899
 50
344.4498808806580996
 51
356.6621235267488146
  0
ARC
  5
D457
  8
0
 10
410.8384209472163775
 20
78.4012722808784162
 30
0.0
 40
0.2941247370668871
 50
354.2653623017882865
 51
1.315669147490159
  0
ARC
  5
D458
  8
0
 10
411.1082393271789783
 20
78.407292950929758
 30
0.0
 40
0.0242398909930283
 50
1.7320311298358271
 51
13.7551874083456394
  0
ARC
  5
D459
  8
0
 10
411.1297646780510036
 20
78.4124893953285067
 30
0.0
 40
0.0020974905481518
 50
15.6882401331115595
 51
38.2573932233181893
  0
ARC
  5
D45A
  8
0
 10
411.1308325231775029
 20
78.4128343950860653
 30
0.0
 40
0.0011158420080802
 50
58.73118998250564
 51
76.698176971300839
  0
ARC
  5
D45B
  8
0
 10
411.1290199973001904
 20
78.393664346610791
 30
0.0
 40
0.0007541352465256
 50
19.0382448447976103
 51
59.2294568321342112
  0
ARC
  5
D45C
  8
0
 10
411.1249482950901779
 20
78.3922593063195308
 30
0.0
 40
0.0050614426544732
 50
8.0379022432260072
 51
19.0382448448071386
  0
ARC
  5
D45D
  8
0
 10
411.0652301852878736
 20
78.3874992453874739
 30
0.0
 40
0.0649603522439927
 50
357.2736587217373767
 51
4.8283693692671319
  0
ARC
  5
D45E
  8
0
 10
410.9398826099288726
 20
78.3895803925860974
 30
0.0
 40
0.1903046673661161
 50
354.3401416621243243
 51
358.4429457760385844
  0
ARC
  5
D45F
  8
0
 10
410.9806089699833933
 20
78.3834040866461237
 30
0.0
 40
0.1491829304451227
 50
348.7152387279813865
 51
355.1580938273191919
  0
ARC
  5
D460
  8
0
 10
411.1011689489806145
 20
78.3610335828047511
 30
0.0
 40
0.0266275973932368
 50
338.9105763718292792
 51
345.1543709648915979
  0
ARC
  5
D461
  8
0
 10
411.125609124799098
 20
78.3516080866666016
 30
0.0
 40
0.0004329000007487
 50
273.0099607246066853
 51
338.9105763717751074
  0
ARC
  5
D462
  8
0
 10
411.1257072093275156
 20
78.3514513115282369
 30
0.0
 40
0.0002856458949382
 50
222.5198030079332909
 51
254.7043910221669876
  0
ARC
  5
D463
  8
0
 10
411.1340101167339185
 20
78.3543039778407149
 30
0.0
 40
0.0090418515130486
 50
180.1051384266110063
 51
199.6848794975499004
  0
ARC
  5
D464
  8
0
 10
411.2876310703093736
 20
78.3575772724808814
 30
0.0
 40
0.1626960557609919
 50
173.9637802958430939
 51
181.1586603052101054
  0
ARC
  5
D465
  8
0
 10
411.2450260973629952
 20
78.3656023344752981
 30
0.0
 40
0.1195346701639068
 50
166.6785327190877979
 51
175.6418208561503889
  0
ARC
  5
D466
  8
0
 10
411.1325920905583757
 20
78.3919404921955589
 30
0.0
 40
0.0040667203025913
 50
146.4328048267315978
 51
162.7736975860198925
  0
ARC
  5
D467
  8
0
 10
411.1294364301497808
 20
78.394034504609408
 30
0.0
 40
0.0002794943252242
 50
96.2889130771172859
 51
146.4328048267909139
  0
LINE
  5
D468
  8
0
 10
411.1239235174696773
 20
78.3315918921542931
 30
0.0
 11
411.1654526493895787
 21
78.3196189790855186
 31
0.0
  0
ARC
  5
D469
  8
0
 10
410.1893450763491842
 20
78.3673192154931684
 30
0.0
 40
0.9770270893520777
 50
0.0745354090973155
 51
2.9452408175191178
  0
ARC
  5
D46A
  8
0
 10
410.9610340477343016
 20
78.4083019274100508
 30
0.0
 40
0.2042556883430905
 50
2.5867382151927472
 51
7.2950700134066206
  0
ARC
  5
D46B
  8
0
 10
411.1495770384747743
 20
78.4325276935880282
 30
0.0
 40
0.0141629903066603
 50
6.9365674110650408
 51
20.7204148378552908
  0
ARC
  5
D46C
  8
0
 10
411.1627684401750003
 20
78.4373291940420359
 30
0.0
 40
0.0002167076353713
 50
75.161330753949315
 51
140.7188868725625071
  0
ARC
  5
D46D
  8
0
 10
411.1833125786354231
 20
78.4322213485445445
 30
0.0
 40
0.0213656860660603
 50
165.789244550068787
 51
176.819458108314393
  0
ARC
  5
D46E
  8
0
 10
411.4797858852803074
 20
78.4117693081870044
 30
0.0
 40
0.3185418115220294
 50
176.1050937083008989
 51
179.0377290809097985
  0
ARC
  5
D46F
  8
0
 10
410.0457093961433088
 20
78.3651193511835373
 30
0.0
 40
1.120667317740504
 50
357.673086361096523
 51
0.1774535122881608
  0
ARC
  5
D470
  8
0
 10
410.7909706517177142
 20
78.3348359229596412
 30
0.0
 40
0.3747910377279014
 50
354.148627531041825
 51
357.673086361096523
  0
ARC
  5
D471
  8
0
 10
411.0571386052336038
 20
78.3141748796082737
 30
0.0
 40
0.1081041006142682
 50
348.2136993618199767
 51
350.6579858444254114
  0
ARC
  5
D472
  8
0
 10
411.1628232111938814
 20
78.2922261062854119
 30
0.0
 40
0.0001931419878967
 50
221.9587143530660001
 51
316.5669159556272234
  0
ARC
  5
D473
  8
0
 10
411.1678839579067812
 20
78.294189656068724
 30
0.0
 40
0.0056093506855751
 50
188.4071030685682899
 51
201.9051110890227108
  0
ARC
  5
D474
  8
0
 10
411.4748429638217999
 20
78.320652248959135
 30
0.0
 40
0.3136967424991342
 50
179.9619619115352975
 51
184.9894099430653966
  0
LINE
  5
D475
  8
0
 10
411.1585751328710785
 20
78.2899419254121227
 30
0.0
 11
411.124582781481422
 21
78.2863418793921966
 31
0.0
  0
ARC
  5
D476
  8
0
 10
411.1247475717755719
 20
78.2856246565927165
 30
0.0
 40
0.0007359105823201
 50
102.939793550729803
 51
153.0478631333812984
  0
ARC
  5
D477
  8
0
 10
411.1422999574313053
 20
78.2766295787018862
 30
0.0
 40
0.020458930833048
 50
152.8727383838462117
 51
171.5413690278473098
  0
ARC
  5
D478
  8
0
 10
412.168526830513315
 20
78.1240163753665655
 30
0.0
 40
1.0579715258737741
 50
171.541369027846514
 51
173.5632006250662016
  0
ARC
  5
D479
  8
0
 10
411.3187548769128057
 20
78.2198862621274316
 30
0.0
 40
0.2028087294930874
 50
173.5632006250677932
 51
183.5605949166431117
  0
ARC
  5
D47A
  8
0
 10
411.1240161580166159
 20
78.2077687960155572
 30
0.0
 40
0.0076933748377144
 50
183.5605949166177879
 51
208.7828811350499905
  0
ARC
  5
D47B
  8
0
 10
411.1174961490305009
 20
78.2044642985161005
 30
0.0
 40
0.0004577156074817
 50
240.8640989190157882
 51
333.7225303371164955
  0
ARC
  5
D47C
  8
0
 10
410.9340808057573895
 20
78.25541426350091
 30
0.0
 40
0.1908101111662899
 50
344.4498808806580996
 51
356.6621235267488146
  0
ARC
  5
D47D
  8
0
 10
410.8319144718080906
 20
78.2736938594850926
 30
0.0
 40
0.2941247370668871
 50
354.2653623017882865
 51
1.315669147490159
  0
ARC
  5
D47E
  8
0
 10
411.1017328517708052
 20
78.2797145295364345
 30
0.0
 40
0.0242398909930283
 50
1.7320311298358271
 51
13.7551874083456394
  0
ARC
  5
D47F
  8
0
 10
411.1232582026427735
 20
78.2849109739351832
 30
0.0
 40
0.0020974905481518
 50
15.6882401331115595
 51
38.2573932233181893
  0
ARC
  5
D480
  8
0
 10
411.1243260477692729
 20
78.2852559736927418
 30
0.0
 40
0.0011158420080802
 50
58.73118998250564
 51
76.698176971300839
  0
ARC
  5
D481
  8
0
 10
411.1225135218919036
 20
78.2660859252174674
 30
0.0
 40
0.0007541352465256
 50
19.0382448447976103
 51
59.2294568321342112
  0
ARC
  5
D482
  8
0
 10
411.1184418196820047
 20
78.2646808849262072
 30
0.0
 40
0.0050614426544732
 50
8.0379022432260072
 51
19.0382448448071386
  0
ARC
  5
D483
  8
0
 10
411.0587237098797004
 20
78.2599208239941504
 30
0.0
 40
0.0649603522439927
 50
357.2736587217373767
 51
4.8283693692671319
  0
ARC
  5
D484
  8
0
 10
410.9333761345205858
 20
78.2620019711927739
 30
0.0
 40
0.1903046673661161
 50
354.3401416621243243
 51
358.4429457760385844
  0
ARC
  5
D485
  8
0
 10
410.9741024945752201
 20
78.2558256652528144
 30
0.0
 40
0.1491829304451227
 50
348.7152387279813865
 51
355.1580938273191919
  0
ARC
  5
D486
  8
0
 10
411.0946624735723844
 20
78.2334551614114133
 30
0.0
 40
0.0266275973932368
 50
338.9105763718292792
 51
345.1543709648915979
  0
ARC
  5
D487
  8
0
 10
411.1191026493908112
 20
78.2240296652732638
 30
0.0
 40
0.0004329000007487
 50
273.0099607246066853
 51
338.9105763717751074
  0
ARC
  5
D488
  8
0
 10
411.1192007339192855
 20
78.2238728901349134
 30
0.0
 40
0.0002856458949382
 50
222.5198030079332909
 51
254.7043910221669876
  0
ARC
  5
D489
  8
0
 10
411.1275036413256885
 20
78.2267255564474056
 30
0.0
 40
0.0090418515130486
 50
180.1051384266110063
 51
199.6848794975499004
  0
ARC
  5
D48A
  8
0
 10
411.2811245949012005
 20
78.2299988510875579
 30
0.0
 40
0.1626960557609919
 50
173.9637802958430939
 51
181.1586603052101054
  0
ARC
  5
D48B
  8
0
 10
411.238519621954822
 20
78.2380239130819746
 30
0.0
 40
0.1195346701639068
 50
166.6785327190877979
 51
175.6418208561503889
  0
ARC
  5
D48C
  8
0
 10
411.1260856151500889
 20
78.2643620708022354
 30
0.0
 40
0.0040667203025913
 50
146.4328048267315978
 51
162.7736975860198925
  0
ARC
  5
D48D
  8
0
 10
411.1229299547416076
 20
78.2664560832160845
 30
0.0
 40
0.0002794943252242
 50
96.2889130771172859
 51
146.4328048267909139
  0
LINE
  5
D48E
  8
0
 10
411.1174170420615042
 20
78.2040134707609695
 30
0.0
 11
411.1589461739812918
 21
78.1920405576921951
 31
0.0
  0
ARC
  5
D48F
  8
0
 10
410.182838600941011
 20
78.2397407940998448
 30
0.0
 40
0.9770270893520777
 50
0.0745354090973155
 51
2.9452408175191178
  0
ARC
  5
D490
  8
0
 10
410.9545275723260147
 20
78.280723506016713
 30
0.0
 40
0.2042556883430905
 50
2.5867382151927472
 51
7.2950700134066206
  0
ARC
  5
D491
  8
0
 10
411.1430705630664875
 20
78.3049492721947047
 30
0.0
 40
0.0141629903066603
 50
6.9365674110650408
 51
20.7204148378552908
  0
ARC
  5
D492
  8
0
 10
411.1562619647668271
 20
78.3097507726487123
 30
0.0
 40
0.0002167076353713
 50
75.161330753949315
 51
140.7188868725625071
  0
ARC
  5
D493
  8
0
 10
411.1768061032270793
 20
78.304642927151221
 30
0.0
 40
0.0213656860660603
 50
165.789244550068787
 51
176.819458108314393
  0
ARC
  5
D494
  8
0
 10
411.4732794098720206
 20
78.2841908867936809
 30
0.0
 40
0.3185418115220294
 50
176.1050937083008989
 51
179.0377290809097985
  0
ARC
  5
D495
  8
0
 10
410.039202920735022
 20
78.2375409297902138
 30
0.0
 40
1.120667317740504
 50
357.673086361096523
 51
0.1774535122881608
  0
ARC
  5
D496
  8
0
 10
410.7844641763095979
 20
78.2072575015663176
 30
0.0
 40
0.3747910377279014
 50
354.148627531041825
 51
357.673086361096523
  0
ARC
  5
D497
  8
0
 10
411.0506321298253738
 20
78.1865964582149502
 30
0.0
 40
0.1081041006142682
 50
348.2136993618199767
 51
350.6579858444254114
  0
ARC
  5
D498
  8
0
 10
411.1563167357855946
 20
78.1646476848920884
 30
0.0
 40
0.0001931419878967
 50
221.9587143530660001
 51
316.5669159556272234
  0
ARC
  5
D499
  8
0
 10
411.1613774824986081
 20
78.1666112346754005
 30
0.0
 40
0.0056093506855751
 50
188.4071030685682899
 51
201.9051110890227108
  0
ARC
  5
D49A
  8
0
 10
411.4683364884136267
 20
78.1930738275658115
 30
0.0
 40
0.3136967424991342
 50
179.9619619115352975
 51
184.9894099430653966
  0
LINE
  5
D49B
  8
0
 10
411.1648997638308174
 20
78.1643442421260062
 30
0.0
 11
411.130907412441104
 21
78.16074419610608
 31
0.0
  0
ARC
  5
D49C
  8
0
 10
411.1310722027354245
 20
78.1600269733065858
 30
0.0
 40
0.0007359105823201
 50
102.939793550729803
 51
153.0478631333812984
  0
ARC
  5
D49D
  8
0
 10
411.1486245883909874
 20
78.1510318954157697
 30
0.0
 40
0.020458930833048
 50
152.8727383838462117
 51
171.5413690278473098
  0
ARC
  5
D49E
  8
0
 10
412.1748514614731107
 20
77.9984186920804348
 30
0.0
 40
1.0579715258737741
 50
171.541369027846514
 51
173.5632006250662016
  0
ARC
  5
D49F
  8
0
 10
411.3250795078726014
 20
78.094288578841315
 30
0.0
 40
0.2028087294930874
 50
173.5632006250677932
 51
183.5605949166431117
  0
ARC
  5
D4A0
  8
0
 10
411.1303407889765253
 20
78.0821711127294407
 30
0.0
 40
0.0076933748377144
 50
183.5605949166177879
 51
208.7828811350499905
  0
ARC
  5
D4A1
  8
0
 10
411.1238207799901829
 20
78.0788666152299839
 30
0.0
 40
0.0004577156074817
 50
240.8640989190157882
 51
333.7225303371164955
  0
ARC
  5
D4A2
  8
0
 10
410.9404054367171284
 20
78.1298165802147935
 30
0.0
 40
0.1908101111662899
 50
344.4498808806580996
 51
356.6621235267488146
  0
ARC
  5
D4A3
  8
0
 10
410.8382391027678864
 20
78.1480961761989761
 30
0.0
 40
0.2941247370668871
 50
354.2653623017882865
 51
1.315669147490159
  0
ARC
  5
D4A4
  8
0
 10
411.1080574827306009
 20
78.154116846250318
 30
0.0
 40
0.0242398909930283
 50
1.7320311298358271
 51
13.7551874083456394
  0
ARC
  5
D4A5
  8
0
 10
411.1295828336023988
 20
78.1593132906490666
 30
0.0
 40
0.0020974905481518
 50
15.6882401331115595
 51
38.2573932233181893
  0
ARC
  5
D4A6
  8
0
 10
411.1306506787291823
 20
78.1596582904066253
 30
0.0
 40
0.0011158420080802
 50
58.73118998250564
 51
76.698176971300839
  0
ARC
  5
D4A7
  8
0
 10
411.1288381528516993
 20
78.1404882419313509
 30
0.0
 40
0.0007541352465256
 50
19.0382448447976103
 51
59.2294568321342112
  0
ARC
  5
D4A8
  8
0
 10
411.1247664506418005
 20
78.1390832016400907
 30
0.0
 40
0.0050614426544732
 50
8.0379022432260072
 51
19.0382448448071386
  0
ARC
  5
D4A9
  8
0
 10
411.0650483408394962
 20
78.1343231407080339
 30
0.0
 40
0.0649603522439927
 50
357.2736587217373767
 51
4.8283693692671319
  0
ARC
  5
D4AA
  8
0
 10
410.9397007654804952
 20
78.1364042879066574
 30
0.0
 40
0.1903046673661161
 50
354.3401416621243243
 51
358.4429457760385844
  0
ARC
  5
D4AB
  8
0
 10
410.9804271255350727
 20
78.1302279819666836
 30
0.0
 40
0.1491829304451227
 50
348.7152387279813865
 51
355.1580938273191919
  0
ARC
  5
D4AC
  8
0
 10
411.1009871045321802
 20
78.107857478125311
 30
0.0
 40
0.0266275973932368
 50
338.9105763718292792
 51
345.1543709648915979
  0
ARC
  5
D4AD
  8
0
 10
411.1254272803506069
 20
78.0984319819871615
 30
0.0
 40
0.0004329000007487
 50
273.0099607246066853
 51
338.9105763717751074
  0
ARC
  5
D4AE
  8
0
 10
411.1255253648790244
 20
78.0982752068487969
 30
0.0
 40
0.0002856458949382
 50
222.5198030079332909
 51
254.7043910221669876
  0
ARC
  5
D4AF
  8
0
 10
411.1338282722854842
 20
78.1011278731612748
 30
0.0
 40
0.0090418515130486
 50
180.1051384266110063
 51
199.6848794975499004
  0
ARC
  5
D4B0
  8
0
 10
411.2874492258609962
 20
78.1044011678014414
 30
0.0
 40
0.1626960557609919
 50
173.9637802958430939
 51
181.1586603052101054
  0
ARC
  5
D4B1
  8
0
 10
411.2448442529146178
 20
78.112426229795858
 30
0.0
 40
0.1195346701639068
 50
166.6785327190877979
 51
175.6418208561503889
  0
ARC
  5
D4B2
  8
0
 10
411.1324102461098846
 20
78.1387643875161189
 30
0.0
 40
0.0040667203025913
 50
146.4328048267315978
 51
162.7736975860198925
  0
ARC
  5
D4B3
  8
0
 10
411.1292545857014034
 20
78.140858399929968
 30
0.0
 40
0.0002794943252242
 50
96.2889130771172859
 51
146.4328048267909139
  0
LINE
  5
D4B4
  8
0
 10
411.1237416730212999
 20
78.078415787474853
 30
0.0
 11
411.1652708049412013
 21
78.0664428744060785
 31
0.0
  0
ARC
  5
D4B5
  8
0
 10
410.1891632319006931
 20
78.1141431108137283
 30
0.0
 40
0.9770270893520777
 50
0.0745354090973155
 51
2.9452408175191178
  0
ARC
  5
D4B6
  8
0
 10
410.9608522032858104
 20
78.1551258227306107
 30
0.0
 40
0.2042556883430905
 50
2.5867382151927472
 51
7.2950700134066206
  0
ARC
  5
D4B7
  8
0
 10
411.1493951940262832
 20
78.1793515889085739
 30
0.0
 40
0.0141629903066603
 50
6.9365674110650408
 51
20.7204148378552908
  0
ARC
  5
D4B8
  8
0
 10
411.1625865957265091
 20
78.1841530893625958
 30
0.0
 40
0.0002167076353713
 50
75.161330753949315
 51
140.7188868725625071
  0
ARC
  5
D4B9
  8
0
 10
411.1831307341868751
 20
78.1790452438651045
 30
0.0
 40
0.0213656860660603
 50
165.789244550068787
 51
176.819458108314393
  0
ARC
  5
D4BA
  8
0
 10
411.4796040408318163
 20
78.1585932035075643
 30
0.0
 40
0.3185418115220294
 50
176.1050937083008989
 51
179.0377290809097985
  0
ARC
  5
D4BB
  8
0
 10
410.0455275516948177
 20
78.1119432465040973
 30
0.0
 40
1.120667317740504
 50
357.673086361096523
 51
0.1774535122881608
  0
ARC
  5
D4BC
  8
0
 10
410.7907888072692799
 20
78.0816598182802011
 30
0.0
 40
0.3747910377279014
 50
354.148627531041825
 51
357.673086361096523
  0
ARC
  5
D4BD
  8
0
 10
411.0569567607852264
 20
78.0609987749288337
 30
0.0
 40
0.1081041006142682
 50
348.2136993618199767
 51
350.6579858444254114
  0
ARC
  5
D4BE
  8
0
 10
411.162641366745504
 20
78.0390500016059718
 30
0.0
 40
0.0001931419878967
 50
221.9587143530660001
 51
316.5669159556272234
  0
ARC
  5
D4BF
  8
0
 10
411.1677021134584038
 20
78.041013551389284
 30
0.0
 40
0.0056093506855751
 50
188.4071030685682899
 51
201.9051110890227108
  0
ARC
  5
D4C0
  8
0
 10
411.4746611193734225
 20
78.0674761442796949
 30
0.0
 40
0.3136967424991342
 50
179.9619619115352975
 51
184.9894099430653966
  0
LINE
  5
D4C1
  8
0
 10
411.1584059130238984
 20
78.0410761133533839
 30
0.0
 11
411.1244135616344124
 21
78.0374760673334436
 31
0.0
  0
ARC
  5
D4C2
  8
0
 10
411.1245783519286761
 20
78.0367588445339635
 30
0.0
 40
0.0007359105823201
 50
102.939793550729803
 51
153.0478631333812984
  0
ARC
  5
D4C3
  8
0
 10
411.142130737584182
 20
78.0277637666431474
 30
0.0
 40
0.020458930833048
 50
152.8727383838462117
 51
171.5413690278473098
  0
ARC
  5
D4C4
  8
0
 10
412.1683576106663054
 20
77.8751505633078267
 30
0.0
 40
1.0579715258737741
 50
171.541369027846514
 51
173.5632006250662016
  0
ARC
  5
D4C5
  8
0
 10
411.3185856570657961
 20
77.9710204500686928
 30
0.0
 40
0.2028087294930874
 50
173.5632006250677932
 51
183.5605949166431117
  0
ARC
  5
D4C6
  8
0
 10
411.1238469381696063
 20
77.9589029839568184
 30
0.0
 40
0.0076933748377144
 50
183.5605949166177879
 51
208.7828811350499905
  0
ARC
  5
D4C7
  8
0
 10
411.1173269291834913
 20
77.9555984864573617
 30
0.0
 40
0.0004577156074817
 50
240.8640989190157882
 51
333.7225303371164955
  0
ARC
  5
D4C8
  8
0
 10
410.9339115859103231
 20
78.0065484514421712
 30
0.0
 40
0.1908101111662899
 50
344.4498808806580996
 51
356.6621235267488146
  0
ARC
  5
D4C9
  8
0
 10
410.8317452519611948
 20
78.0248280474263538
 30
0.0
 40
0.2941247370668871
 50
354.2653623017882865
 51
1.315669147490159
  0
ARC
  5
D4CA
  8
0
 10
411.1015636319237956
 20
78.0308487174776957
 30
0.0
 40
0.0242398909930283
 50
1.7320311298358271
 51
13.7551874083456394
  0
ARC
  5
D4CB
  8
0
 10
411.1230889827957071
 20
78.0360451618764444
 30
0.0
 40
0.0020974905481518
 50
15.6882401331115595
 51
38.2573932233181893
  0
ARC
  5
D4CC
  8
0
 10
411.124156827922377
 20
78.036390161634003
 30
0.0
 40
0.0011158420080802
 50
58.73118998250564
 51
76.698176971300839
  0
ARC
  5
D4CD
  8
0
 10
411.1223443020450077
 20
78.0172201131587286
 30
0.0
 40
0.0007541352465256
 50
19.0382448447976103
 51
59.2294568321342112
  0
ARC
  5
D4CE
  8
0
 10
411.1182725998348815
 20
78.0158150728674684
 30
0.0
 40
0.0050614426544732
 50
8.0379022432260072
 51
19.0382448448071386
  0
ARC
  5
D4CF
  8
0
 10
411.0585544900326909
 20
78.0110550119354116
 30
0.0
 40
0.0649603522439927
 50
357.2736587217373767
 51
4.8283693692671319
  0
ARC
  5
D4D0
  8
0
 10
410.9332069146736899
 20
78.0131361591340351
 30
0.0
 40
0.1903046673661161
 50
354.3401416621243243
 51
358.4429457760385844
  0
ARC
  5
D4D1
  8
0
 10
410.9739332747282106
 20
78.0069598531940755
 30
0.0
 40
0.1491829304451227
 50
348.7152387279813865
 51
355.1580938273191919
  0
ARC
  5
D4D2
  8
0
 10
411.0944932537253749
 20
77.9845893493526745
 30
0.0
 40
0.0266275973932368
 50
338.9105763718292792
 51
345.1543709648915979
  0
ARC
  5
D4D3
  8
0
 10
411.1189334295438016
 20
77.9751638532145392
 30
0.0
 40
0.0004329000007487
 50
273.0099607246066853
 51
338.9105763717751074
  0
ARC
  5
D4D4
  8
0
 10
411.1190315140722191
 20
77.9750070780761746
 30
0.0
 40
0.0002856458949382
 50
222.5198030079332909
 51
254.7043910221669876
  0
ARC
  5
D4D5
  8
0
 10
411.1273344214786789
 20
77.9778597443886667
 30
0.0
 40
0.0090418515130486
 50
180.1051384266110063
 51
199.6848794975499004
  0
ARC
  5
D4D6
  8
0
 10
411.2809553750540772
 20
77.9811330390288191
 30
0.0
 40
0.1626960557609919
 50
173.9637802958430939
 51
181.1586603052101054
  0
ARC
  5
D4D7
  8
0
 10
411.2383504021078124
 20
77.9891581010232358
 30
0.0
 40
0.1195346701639068
 50
166.6785327190877979
 51
175.6418208561503889
  0
ARC
  5
D4D8
  8
0
 10
411.125916395303193
 20
78.0154962587434966
 30
0.0
 40
0.0040667203025913
 50
146.4328048267315978
 51
162.7736975860198925
  0
ARC
  5
D4D9
  8
0
 10
411.1227607348944844
 20
78.0175902711573457
 30
0.0
 40
0.0002794943252242
 50
96.2889130771172859
 51
146.4328048267909139
  0
LINE
  5
D4DA
  8
0
 10
411.1172478222144946
 20
77.9551476587022307
 30
0.0
 11
411.1587769541342823
 21
77.9431747456334563
 31
0.0
  0
ARC
  5
D4DB
  8
0
 10
410.1826693810940014
 20
77.990874982041106
 30
0.0
 40
0.9770270893520777
 50
0.0745354090973155
 51
2.9452408175191178
  0
ARC
  5
D4DC
  8
0
 10
410.9543583524790051
 20
78.0318576939579884
 30
0.0
 40
0.2042556883430905
 50
2.5867382151927472
 51
7.2950700134066206
  0
ARC
  5
D4DD
  8
0
 10
411.1429013432195916
 20
78.0560834601359659
 30
0.0
 40
0.0141629903066603
 50
6.9365674110650408
 51
20.7204148378552908
  0
ARC
  5
D4DE
  8
0
 10
411.1560927449198175
 20
78.0608849605899735
 30
0.0
 40
0.0002167076353713
 50
75.161330753949315
 51
140.7188868725625071
  0
ARC
  5
D4DF
  8
0
 10
411.1766368833801266
 20
78.0557771150924822
 30
0.0
 40
0.0213656860660603
 50
165.789244550068787
 51
176.819458108314393
  0
ARC
  5
D4E0
  8
0
 10
411.473110190025011
 20
78.0353250747349421
 30
0.0
 40
0.3185418115220294
 50
176.1050937083008989
 51
179.0377290809097985
  0
ARC
  5
D4E1
  8
0
 10
410.0390337008881261
 20
77.988675117731475
 30
0.0
 40
1.120667317740504
 50
357.673086361096523
 51
0.1774535122881608
  0
ARC
  5
D4E2
  8
0
 10
410.7842949564624746
 20
77.9583916895075788
 30
0.0
 40
0.3747910377279014
 50
354.148627531041825
 51
357.673086361096523
  0
ARC
  5
D4E3
  8
0
 10
411.0504629099784211
 20
77.9377306461562114
 30
0.0
 40
0.1081041006142682
 50
348.2136993618199767
 51
350.6579858444254114
  0
ARC
  5
D4E4
  8
0
 10
411.1561475159386987
 20
77.9157818728333353
 30
0.0
 40
0.0001931419878967
 50
221.9587143530660001
 51
316.5669159556272234
  0
ARC
  5
D4E5
  8
0
 10
411.1612082626515985
 20
77.9177454226166617
 30
0.0
 40
0.0056093506855751
 50
188.4071030685682899
 51
201.9051110890227108
  0
ARC
  5
D4E6
  8
0
 10
411.468167268566674
 20
77.9442080155070727
 30
0.0
 40
0.3136967424991342
 50
179.9619619115352975
 51
184.9894099430653966
  0
LINE
  5
D4E7
  8
0
 10
411.1529783833840952
 20
80.7162302034762433
 30
0.0
 11
411.1533718870937264
 21
80.6858512869124809
 31
0.0
  0
LINE
  5
D4E8
  8
0
 10
411.1533604422842245
 20
80.6864945223122447
 30
0.0
 11
411.1211405149841198
 21
80.6831080715122653
 31
0.0
  0
LINE
  5
D4E9
  8
0
 10
411.1211405149841198
 20
80.6831080715122653
 30
0.0
 11
411.1139347252840821
 21
80.6007455177122552
 31
0.0
  0
LINE
  5
D4EA
  8
0
 10
411.1139347252840821
 20
80.6007455177122552
 30
0.0
 11
411.1535275258709135
 21
80.5893448048663146
 31
0.0
  0
LINE
  5
D4EB
  8
0
 10
411.1535902689590216
 20
80.5927126133428118
 30
0.0
 11
411.1529783833840952
 21
80.5598689409662825
 31
0.0
  0
LINE
  5
D4EC
  8
0
 10
411.1528073753382841
 20
80.4639848229023613
 30
0.0
 11
411.1533883148310906
 21
80.4328127148443315
 31
0.0
  0
LINE
  5
D4ED
  8
0
 10
411.1533800307577167
 20
80.433357600691167
 30
0.0
 11
411.1204212538841034
 21
80.4292276707122511
 31
0.0
  0
LINE
  5
D4EE
  8
0
 10
411.1204212538841034
 20
80.4292276707122511
 30
0.0
 11
411.1146539863840985
 21
80.3467519028122439
 31
0.0
  0
LINE
  5
D4EF
  8
0
 10
411.1146539863840985
 20
80.3467519028122439
 30
0.0
 11
411.1534151020393892
 21
80.33636589310413
 31
0.0
  0
LINE
  5
D4F0
  8
0
 10
411.1529783833840952
 20
80.3091067622059853
 30
0.0
 11
411.1534688521747967
 21
80.3397208722529967
 31
0.0
  0
LINE
  5
D4F1
  8
0
 10
411.1525726466852007
 20
80.2133420960818597
 30
0.0
 11
411.153407105972974
 21
80.1795941492783015
 31
0.0
  0
LINE
  5
D4F2
  8
0
 10
411.1535165959215874
 20
80.0864842783914668
 30
0.0
 11
411.1529783833840952
 21
80.0541429472082484
 31
0.0
  0
LINE
  5
D4F3
  8
0
 10
411.1529884012967955
 20
79.9581868162955232
 30
0.0
 11
411.1534357955559926
 21
79.9256568162843308
 31
0.0
  0
LINE
  5
D4F4
  8
0
 10
411.1534165177840805
 20
79.9268833299122434
 30
0.0
 11
411.1184941491542872
 21
79.9229231453629581
 31
0.0
  0
LINE
  5
D4F5
  8
0
 10
411.1184941491542872
 20
79.9229231453629581
 30
0.0
 11
411.1160949243840719
 21
79.8388023707122443
 31
0.0
  0
LINE
  5
D4F6
  8
0
 10
411.1534615646434077
 20
79.8325281363448767
 30
0.0
 11
411.1529783833840952
 21
79.8023189077764812
 31
0.0
  0
LINE
  5
D4F7
  8
0
 10
411.153424075486214
 20
79.8301842571117817
 30
0.0
 11
411.1160949243840719
 21
79.8388023707122443
 31
0.0
  0
LINE
  5
D4F8
  8
0
 10
411.153073698734886
 20
79.7063218075269333
 30
0.0
 11
411.1533846149184797
 21
79.67715503688963
 31
0.0
  0
LINE
  5
D4F9
  8
0
 10
411.1526812919356075
 20
79.5844000638726499
 30
0.0
 11
411.1529783833840952
 21
79.5501227894913967
 31
0.0
  0
LINE
  5
D4FA
  8
0
 10
411.1514939998721729
 20
79.4545216364314371
 30
0.0
 11
411.1533989757105019
 21
79.4242385149591712
 31
0.0
  0
LINE
  5
D4FB
  8
0
 10
411.1531641549747746
 20
79.3312416908313907
 30
0.0
 11
411.1529783833840952
 21
79.3006113477409116
 31
0.0
  0
LINE
  5
D4FC
  8
0
 10
411.1528486738865809
 20
79.2053688747344466
 30
0.0
 11
411.1533525499112898
 21
79.1752731114924444
 31
0.0
  0
LINE
  5
D4FD
  8
0
 10
411.1537111637816224
 20
79.0821599590175168
 30
0.0
 11
411.1529783833840952
 21
79.0469372345960011
 31
0.0
  0
LINE
  5
D4FE
  8
0
 10
411.152643981572794
 20
78.9509644152542194
 30
0.0
 11
411.1534305628482002
 21
78.9181472405838349
 31
0.0
  0
LINE
  5
D4FF
  8
0
 10
411.1527725325271945
 20
78.825133490174693
 30
0.0
 11
411.1529783833840952
 21
78.7931425866967885
 31
0.0
  0
LINE
  5
D500
  8
0
 10
411.1527984399855882
 20
78.6970468071443321
 30
0.0
 11
411.1533414619860878
 21
78.6613249385989235
 31
0.0
  0
LINE
  5
D501
  8
0
 10
411.1517719051033168
 20
78.4495095016094837
 30
0.0
 11
411.1525421929624144
 21
78.4161923282848505
 31
0.0
  0
LINE
  5
D502
  8
0
 10
411.1513475457091999
 20
78.3236855023279617
 30
0.0
 11
411.1529783833840952
 21
78.2893491874904726
 31
0.0
  0
LINE
  5
D503
  8
0
 10
411.1526787378736003
 20
78.1938474692314429
 30
0.0
 11
411.1534177822759943
 21
78.1631282138047254
 31
0.0
  0
LINE
  5
D504
  8
0
 10
411.1532129327561051
 20
78.069919177636919
 30
0.0
 11
411.1529783833840952
 21
78.0405012970879852
 31
0.0
  0
LINE
  5
D505
  8
0
 10
411.1552929031842041
 20
77.2806356373122441
 30
0.0
 11
411.0623164405840839
 21
77.2798242440122465
 31
0.0
  0
ARC
  5
D506
  8
0
 10
411.0624195099014173
 20
77.2680136701225422
 30
0.0
 40
0.0118110236172962
 50
90.5000000019457502
 51
180.0000005350235881
  0
LINE
  5
D507
  8
0
 10
411.0506084862842044
 20
77.2680136701225422
 30
0.0
 11
411.0506094822724776
 21
76.7402478890475237
 31
0.0
  0
ARC
  5
D508
  8
0
 10
411.0624190452313087
 20
76.7402479113342793
 30
0.0
 40
0.0118095629587775
 50
180.0001081273778141
 51
269.5021930403611918
  0
LINE
  5
D509
  8
0
 10
411.0623164406638921
 20
76.728438794111554
 30
0.0
 11
411.1553002366727014
 21
76.7276308961138369
 31
0.0
  0
LINE
  5
D50A
  8
0
 10
410.326120297284092
 20
49.8464130514342187
 30
0.0
 11
411.418742273984094
 21
49.8464130514342187
 31
0.0
  0
LINE
  5
D50B
  8
0
 10
411.9895739796302792
 20
49.8464130514342187
 30
0.0
 11
413.8497509349393795
 21
49.8464130514342187
 31
0.0
  0
LINE
  5
D50C
  8
0
 10
411.418742273984094
 20
51.6968055429581312
 30
0.0
 11
410.3261114586292138
 21
51.6968055429581312
 31
0.0
  0
LINE
  5
D50D
  8
0
 10
411.9895728747027874
 20
51.6968083096595521
 30
0.0
 11
413.849985278745919
 21
51.6968055429581312
 31
0.0
  0
ENDSEC
  0
EOF
