  0
SECTION
  2
HEADER
  9
$ACADVER
  1
AC1009
  9
$INSBASE
 10
4277.6059156758592508
 20
225.6096205018369005
 30
0.0
  9
$EXTMIN
 10
4274.1216637073575839
 20
221.9378698722869956
 30
0.0
  9
$EXTMAX
 10
4277.6167498893191805
 20
229.2813711313868907
 30
0.0
  9
$LIMMIN
 10
0.0
 20
0.0
  9
$LIMMAX
 10
11.6929133858000007
 20
8.2677165353999982
  9
$ORTHOMODE
 70
     0
  9
$REGENMODE
 70
     1
  9
$FILLMODE
 70
     1
  9
$QTEXTMODE
 70
     0
  9
$MIRRTEXT
 70
     0
  9
$DRAGMODE
 70
     2
  9
$LTSCALE
 40
0.6431102362
  9
$OSMODE
 70
     7
  9
$ATTMODE
 70
     1
  9
$TEXTSIZE
 40
0.2
  9
$TRACEWID
 40
0.05
  9
$TEXTSTYLE
  7
STANDARD
  9
$CLAYER
  8
0
  9
$CELTYPE
  6
BYLAYER
  9
$CECOLOR
 62
   256
  9
$DIMSCALE
 40
1.0
  9
$DIMASZ
 40
0.1875
  9
$DIMEXO
 40
0.0625
  9
$DIMDLI
 40
0.4443307087
  9
$DIMRND
 40
0.0
  9
$DIMDLE
 40
0.0
  9
$DIMEXE
 40
0.125
  9
$DIMTP
 40
0.01
  9
$DIMTM
 40
0.01
  9
$DIMTXT
 40
2.0
  9
$DIMCEN
 40
0.1052362205
  9
$DIMTSZ
 40
0.0
  9
$DIMTOL
 70
     1
  9
$DIMLIM
 70
     0
  9
$DIMTIH
 70
     1
  9
$DIMTOH
 70
     1
  9
$DIMSE1
 70
     0
  9
$DIMSE2
 70
     0
  9
$DIMTAD
 70
     0
  9
$DIMZIN
 70
     0
  9
$DIMBLK
  1

  9
$DIMASO
 70
     1
  9
$DIMSHO
 70
     1
  9
$DIMPOST
  1
\X
  9
$DIMAPOST
  1

  9
$DIMALT
 70
     1
  9
$DIMALTD
 70
     2
  9
$DIMALTF
 40
25.3999999999999986
  9
$DIMLFAC
 40
1.0
  9
$DIMTOFL
 70
     0
  9
$DIMTVP
 40
0.0
  9
$DIMTIX
 70
     0
  9
$DIMSOXD
 70
     0
  9
$DIMSAH
 70
     0
  9
$DIMBLK1
  1

  9
$DIMBLK2
  1

  9
$DIMSTYLE
  2
STANDARD
  9
$DIMCLRD
 70
     0
  9
$DIMCLRE
 70
     0
  9
$DIMCLRT
 70
     0
  9
$DIMTFAC
 40
1.0
  9
$DIMGAP
 40
0.09
  9
$LUNITS
 70
     2
  9
$LUPREC
 70
     4
  9
$SKETCHINC
 40
0.1
  9
$FILLETRAD
 40
0.0
  9
$AUNITS
 70
     0
  9
$AUPREC
 70
     0
  9
$MENU
  1
.
  9
$ELEVATION
 40
0.0
  9
$PELEVATION
 40
0.0
  9
$THICKNESS
 40
0.0
  9
$LIMCHECK
 70
     0
  9
$BLIPMODE
 70
     0
  9
$CHAMFERA
 40
0.0
  9
$CHAMFERB
 40
0.0
  9
$SKPOLY
 70
     0
  9
$TDCREATE
 40
2458060.468368056230247
  9
$TDUPDATE
 40
2459392.9175231480039656
  9
$TDINDWG
 40
0.6370903935
  9
$TDUSRTIMER
 40
0.6370903935
  9
$USRTIMER
 70
     1
  9
$ANGBASE
 50
0.0
  9
$ANGDIR
 70
     0
  9
$PDMODE
 70
     0
  9
$PDSIZE
 40
0.3125
  9
$PLINEWID
 40
0.0
  9
$COORDS
 70
     1
  9
$SPLFRAME
 70
     0
  9
$SPLINETYPE
 70
     6
  9
$SPLINESEGS
 70
     8
  9
$ATTDIA
 70
     1
  9
$ATTREQ
 70
     1
  9
$HANDLING
 70
     1
  9
$HANDSEED
  5
13783
  9
$SURFTAB1
 70
     6
  9
$SURFTAB2
 70
     6
  9
$SURFTYPE
 70
     6
  9
$SURFU
 70
     6
  9
$SURFV
 70
     6
  9
$UCSNAME
  2

  9
$UCSORG
 10
0.0
 20
0.0
 30
0.0
  9
$UCSXDIR
 10
1.0
 20
0.0
 30
0.0
  9
$UCSYDIR
 10
0.0
 20
1.0
 30
0.0
  9
$PUCSNAME
  2

  9
$PUCSORG
 10
0.0
 20
0.0
 30
0.0
  9
$PUCSXDIR
 10
1.0
 20
0.0
 30
0.0
  9
$PUCSYDIR
 10
0.0
 20
1.0
 30
0.0
  9
$USERI1
 70
     0
  9
$USERI2
 70
     0
  9
$USERI3
 70
     0
  9
$USERI4
 70
     0
  9
$USERI5
 70
     0
  9
$USERR1
 40
0.0
  9
$USERR2
 40
0.0
  9
$USERR3
 40
0.0
  9
$USERR4
 40
0.0
  9
$USERR5
 40
0.0
  9
$WORLDVIEW
 70
     1
  9
$SHADEDGE
 70
     3
  9
$SHADEDIF
 70
    70
  9
$TILEMODE
 70
     1
  9
$MAXACTVP
 70
    64
  9
$PLIMCHECK
 70
     0
  9
$PEXTMIN
 10
1.0000000000000000E+20
 20
1.0000000000000000E+20
 30
1.0000000000000000E+20
  9
$PEXTMAX
 10
-1.0000000000000000E+20
 20
-1.0000000000000000E+20
 30
-1.0000000000000000E+20
  9
$PLIMMIN
 10
0.0
 20
0.0
  9
$PLIMMAX
 10
12.0
 20
9.0
  9
$UNITMODE
 70
     0
  9
$VISRETAIN
 70
     1
  9
$PLINEGEN
 70
     0
  9
$PSLTSCALE
 70
     1
  0
ENDSEC
  0
SECTION
  2
TABLES
  0
TABLE
  2
VPORT
 70
     1
  0
VPORT
  2
*ACTIVE
 70
     0
 10
0.0
 20
0.0
 11
1.0
 21
1.0
 12
114.3128103139637943
 22
-0.5012117125185256
 13
0.0
 23
0.0
 14
1.0
 24
1.0
 15
0.0
 25
0.0
 16
0.0
 26
0.0
 36
202.37134017897489
 17
4161.556396484375
 27
226.1108322143554972
 37
0.0
 40
7.3999174019356051
 41
2.3461538461538458
 42
50.0
 43
0.0
 44
0.0
 50
0.0
 51
0.0
 71
     0
 72
   100
 73
     1
 74
     1
 75
     0
 76
     0
 77
     0
 78
     0
  0
ENDTAB
  0
TABLE
  2
LTYPE
 70
     2
  0
LTYPE
  2
CONTINUOUS
 70
     0
  3
Solid line
 72
    65
 73
     0
 40
0.0
  0
LTYPE
  2
PHANTOM2
 70
     0
  3
___ _ _ ___ _ _ ___ _ _ ___ _ _
 72
    65
 73
     6
 40
1.25
 49
0.625
 49
-0.125
 49
0.125
 49
-0.125
 49
0.125
 49
-0.125
  0
ENDTAB
  0
TABLE
  2
LAYER
 70
     2
  0
LAYER
  2
0
 70
     0
 62
   255
  6
CONTINUOUS
  0
LAYER
  2
DEFPOINTS
 70
     0
 62
     7
  6
CONTINUOUS
  0
ENDTAB
  0
TABLE
  2
STYLE
 70
     1
  0
STYLE
  2
STANDARD
 70
     0
 40
0.0
 41
0.8
 50
0.0
 71
     0
 42
0.2
  3
txt
  4

  0
ENDTAB
  0
TABLE
  2
VIEW
 70
     0
  0
ENDTAB
  0
TABLE
  2
UCS
 70
     0
  0
ENDTAB
  0
TABLE
  2
APPID
 70
     9
  0
APPID
  2
ACAD
 70
     0
  0
APPID
  2
ACAD_MLEADERVER
 70
     0
  0
APPID
  2
ACAD_EXEMPT_FROM_CAD_STANDARDS
 70
     0
  0
APPID
  2
ACAD_NAV_VCDISPLAY
 70
     0
  0
APPID
  2
ACAECLAYERSTANDARD
 70
     0
  0
APPID
  2
ACCMTRANSPARENCY
 70
     0
  0
APPID
  2
ACAD_DSTYLE_DIMJAG
 70
     0
  0
APPID
  2
ACAD_DSTYLE_DIMTALN
 70
     0
  0
APPID
  2
ACDBATTR
 70
     0
  0
ENDTAB
  0
TABLE
  2
DIMSTYLE
 70
     1
  0
DIMSTYLE
  2
STANDARD
 70
     0
  3

  4

  5

  6

  7

 40
1.0
 41
0.1875
 42
0.0625
 43
0.38
 44
0.125
 45
0.0
 46
0.0
 47
0.01
 48
0.01
140
0.15625
141
0.09
142
0.0
143
25.3999999999999986
144
1.0
145
0.0
146
1.0
147
0.09
 71
     1
 72
     0
 73
     1
 74
     1
 75
     0
 76
     0
 77
     0
 78
     4
170
     0
171
     2
172
     0
173
     0
174
     0
175
     0
176
     0
177
     0
178
     0
  0
ENDTAB
  0
ENDSEC
  0
SECTION
  2
BLOCKS
  0
BLOCK
  8
0
  2
$MODEL_SPACE
 70
     0
 10
0.0
 20
0.0
 30
0.0
  3
$MODEL_SPACE
  1

  0
ENDBLK
  5
21
  8
0
  0
BLOCK
 67
     1
  8
0
  2
$PAPER_SPACE
 70
     0
 10
0.0
 20
0.0
 30
0.0
  3
$PAPER_SPACE
  1

  0
ENDBLK
  5
1D
 67
     1
  8
0
  0
ENDSEC
  0
SECTION
  2
ENTITIES
  0
ATTDEF
  5
12CA7
  8
DEFPOINTS
 10
4277.6060832226503408
 20
225.6130681240422859
 30
0.0
 40
0.001
  1
K-6220X-4
  3

  2
MODELNUMBER
 70
     0
1001
ACDBATTR
1070
     0
1070
     1
  0
ATTDEF
  5
12CA8
  8
DEFPOINTS
 10
4277.6060832226503408
 20
225.6114014573755924
 30
0.0
 40
0.001
  1
ARCHER
  3

  2
TRADENAME
 70
     0
1001
ACDBATTR
1070
     0
1070
     1
  0
ATTDEF
  5
12CA9
  8
DEFPOINTS
 10
4277.6060832226503408
 20
225.6097347907090125
 30
0.0
 40
0.001
  1
VALVE TRIM
  3

  2
PRODUCT
 70
     0
1001
ACDBATTR
1070
     0
1070
     1
  0
LINE
  5
13524
  8
0
 10
4277.4878054396576772
 20
221.9482031789870007
 30
0.0
 11
4277.6059156758592508
 21
221.9378698722869956
 31
0.0
  0
LINE
  5
13525
  8
0
 10
4276.7144210668584492
 20
222.6979654194869056
 30
0.0
 11
4276.7996536480577561
 21
222.6829366157869003
 31
0.0
  0
LINE
  5
13526
  8
0
 10
4274.211935093959255
 20
223.4721050207868984
 30
0.0
 11
4274.242162139357788
 21
223.4418779753870012
 31
0.0
  0
LINE
  5
13527
  8
0
 10
4274.242162139357788
 20
223.5347156717868984
 30
0.0
 11
4274.211935093959255
 21
223.5625314815870013
 31
0.0
  0
LINE
  5
13528
  8
0
 10
4274.211935093959255
 20
227.0384745655869096
 30
0.0
 11
4274.242162139357788
 21
227.0687016109870058
 31
0.0
  0
LINE
  5
13529
  8
0
 10
4274.661370490457557
 20
223.4245811316870061
 30
0.0
 11
4274.2839204137590059
 21
223.4245811316870061
 31
0.0
  0
LINE
  5
1352A
  8
0
 10
4276.2877050357592452
 20
223.6235177660869056
 30
0.0
 11
4276.2279629199601914
 21
223.6214315254869121
 31
0.0
  0
LINE
  5
1352B
  8
0
 10
4276.2279629199601914
 20
223.6491487127869959
 30
0.0
 11
4276.2877050349588899
 21
223.6507465684869089
 31
0.0
  0
LINE
  5
1352C
  8
0
 10
4276.6195009011053116
 20
223.7064276393423938
 30
0.0
 11
4276.3259944947576514
 21
223.7005575112870019
 31
0.0
  0
LINE
  5
1352D
  8
0
 10
4274.6446159809593155
 20
223.5187986111868952
 30
0.0
 11
4274.2839204137590059
 21
223.5187986111868952
 31
0.0
  0
LINE
  5
1352E
  8
0
 10
4276.1925682622586464
 20
223.6500961614869141
 30
0.0
 11
4276.2279629199601914
 21
223.6491487127869959
 31
0.0
  0
LINE
  5
1352F
  8
0
 10
4276.19128891786022
 20
223.6227122097868971
 30
0.0
 11
4276.2279629199601914
 21
223.6214315254869121
 31
0.0
  0
LINE
  5
13530
  8
0
 10
4274.1216637073575839
 20
226.9422976667869136
 30
0.0
 11
4274.1216637073575839
 21
226.3635575100869062
 31
0.0
  0
LINE
  5
13531
  8
0
 10
4274.2004038648592541
 20
227.0106276587870013
 30
0.0
 11
4274.2004038648592541
 21
223.4999486056869955
 31
0.0
  0
LINE
  5
13532
  8
0
 10
4274.172057636057616
 20
226.3159229311868899
 30
0.0
 11
4274.1704309764591017
 21
226.312433360288793
 31
0.0
  0
LINE
  5
13533
  8
0
 10
4276.2279629199601914
 20
223.7997417500868949
 30
0.0
 11
4276.2877050360575595
 21
223.8017023331869098
 31
0.0
  0
LINE
  5
13534
  8
0
 10
4276.1925680654576354
 20
223.8009029165870061
 30
0.0
 11
4276.2279629199601914
 21
223.7997417500868949
 31
0.0
  0
LINE
  5
13535
  8
0
 10
4275.3830186453587885
 20
227.7248022050868883
 30
0.0
 11
4275.1454830500588287
 21
227.1652034110869067
 31
0.0
  0
LINE
  5
13536
  8
0
 10
4276.19128891786022
 20
224.5650327307868963
 30
0.0
 11
4276.2279629199601914
 21
224.5663134151868974
 31
0.0
  0
LINE
  5
13537
  8
0
 10
4276.1925682642577158
 20
224.3868420610868952
 30
0.0
 11
4276.2279629199601914
 21
224.3880036274869951
 31
0.0
  0
LINE
  5
13538
  8
0
 10
4276.1925680593576544
 20
224.5376488225869025
 30
0.0
 11
4276.2279629199601914
 21
224.5385962277869965
 31
0.0
  0
LINE
  5
13539
  8
0
 10
4276.5946614444819716
 20
224.4818140903624055
 30
0.0
 11
4276.3259944947576514
 21
224.4871874293870064
 31
0.0
  0
LINE
  5
1353A
  8
0
 10
4276.2279629199601914
 20
224.5385962277869965
 30
0.0
 11
4276.2877050360575595
 21
224.5369983720869129
 31
0.0
  0
LINE
  5
1353B
  8
0
 10
4276.2279629199601914
 20
224.3880036274869951
 30
0.0
 11
4276.2877050349588899
 21
224.3860426074868997
 31
0.0
  0
LINE
  5
1353C
  8
0
 10
4274.8568977691602413
 20
227.0637457932868983
 30
0.0
 11
4274.8568977691602413
 21
226.242109383586893
 31
0.0
  0
LINE
  5
1353D
  8
0
 10
4275.0342297483575749
 20
226.2386081400912019
 30
0.0
 11
4275.0342297483575749
 21
227.0672470368882898
 31
0.0
  0
LINE
  5
1353E
  8
0
 10
4276.2877050357592452
 20
224.5642271745869039
 30
0.0
 11
4276.2279629199601914
 21
224.5663134151868974
 31
0.0
  0
LINE
  5
1353F
  8
0
 10
4275.1454830500588287
 20
227.1652034110869067
 30
0.0
 11
4275.1454830500588287
 21
226.1406517657869131
 31
0.0
  0
LINE
  5
13540
  8
0
 10
4275.3830186453587885
 20
225.5810529716868871
 30
0.0
 11
4275.3830186453178612
 21
227.7248022051784062
 31
0.0
  0
LINE
  5
13541
  8
0
 10
4275.3830186453587885
 20
225.5810529716868871
 30
0.0
 11
4275.1454830500588287
 21
226.1406517657869131
 31
0.0
  0
LINE
  5
13542
  8
0
 10
4275.4354809802589443
 20
225.5501502949869064
 30
0.0
 11
4276.1709654487576699
 21
225.6274528275868931
 31
0.0
  0
LINE
  5
13543
  8
0
 10
4276.1532928348578935
 20
223.6621665411869913
 30
0.0
 11
4276.1532928619590166
 21
224.5256042216869048
 31
0.0
  0
LINE
  5
13544
  8
0
 10
4276.3775692191593407
 20
225.6883606592869
 30
0.0
 11
4276.5828273893312144
 21
225.6883606592869
 31
0.0
  0
LINE
  5
13545
  8
0
 10
4276.1549405635587391
 20
223.8325066909868895
 30
0.0
 11
4276.1549328843593685
 21
223.8325626806870048
 31
0.0
  0
LINE
  5
13546
  8
0
 10
4276.1885928412593785
 20
226.6529275883868877
 30
0.0
 11
4276.1885928412593785
 21
225.6470300302869134
 31
0.0
  0
LINE
  5
13547
  8
0
 10
4276.2476479593578915
 20
227.617494517587005
 30
0.0
 11
4276.2476479593578915
 21
225.6883606592869
 31
0.0
  0
LINE
  5
13548
  8
0
 10
4276.3067030774591331
 20
223.6432026441869141
 30
0.0
 11
4276.3067030774591331
 21
223.6943828411868935
 31
0.0
  0
LINE
  5
13549
  8
0
 10
4276.3067030774591331
 20
223.8034077944869011
 30
0.0
 11
4276.3067030774591331
 21
224.3843371462868959
 31
0.0
  0
LINE
  5
1354A
  8
0
 10
4276.3067030774591331
 20
224.4933620933869065
 30
0.0
 11
4276.3067030774591331
 21
224.5445423167869023
 31
0.0
  0
LINE
  5
1354B
  8
0
 10
4276.3657581955576461
 20
225.6883606592869
 30
0.0
 11
4276.3657581955576461
 21
227.617494517587005
 31
0.0
  0
LINE
  5
1354C
  8
0
 10
4276.1546756819589064
 20
223.6830838657868981
 30
0.0
 11
4276.1546762964590016
 21
223.6830923198868959
 31
0.0
  0
LINE
  5
1354D
  8
0
 10
4274.6917116437589357
 20
223.438898217986889
 30
0.0
 11
4274.726112622657638
 21
223.4805535160868999
 31
0.0
  0
LINE
  5
1354E
  8
0
 10
4274.6747012496589377
 20
223.5320263638868994
 30
0.0
 11
4274.7092178504590265
 21
223.5707906130868992
 31
0.0
  0
LINE
  5
1354F
  8
0
 10
4276.5906932958578182
 20
224.605683493986902
 30
0.0
 11
4276.6494421142579085
 21
222.7717851727869061
 31
0.0
  0
LINE
  5
13550
  8
0
 10
4276.5823138109581123
 20
225.6588331002868983
 30
0.0
 11
4276.5906932958578182
 21
224.605683493986902
 31
0.0
  0
LINE
  5
13551
  8
0
 10
4276.6494421142579085
 20
222.7717851727869061
 30
0.0
 11
4276.6494421142579085
 21
228.447455830886895
 31
0.0
  0
LINE
  5
13552
  8
0
 10
4276.6168947499591013
 20
227.6470218016870035
 30
0.0
 11
4276.5823138109581123
 21
225.6588331002868983
 31
0.0
  0
LINE
  5
13553
  8
0
 10
4276.6168947499591013
 20
227.6470218016870035
 30
0.0
 11
4276.6494421142579085
 21
228.447455830886895
 31
0.0
  0
LINE
  5
13554
  8
0
 10
4274.1833242736602188
 20
226.3175446458868976
 30
0.0
 11
4274.1904038648590358
 21
226.3176102437869019
 31
0.0
  0
LINE
  5
13555
  8
0
 10
4274.8146763264576293
 20
226.2198567222870054
 30
0.0
 11
4274.5638961988579467
 21
226.2198567222870054
 31
0.0
  0
LINE
  5
13556
  8
0
 10
4274.8893757950590953
 20
226.259226800986994
 30
0.0
 11
4274.9996120154582968
 21
226.259226800986994
 31
0.0
  0
LINE
  5
13557
  8
0
 10
4276.1885928412593785
 20
226.6529275883868877
 30
0.0
 11
4275.6866703642590437
 21
227.7293038137869132
 31
0.0
  0
LINE
  5
13558
  8
0
 10
4276.8972542585588599
 20
222.4336267013869133
 30
0.0
 11
4276.8972542585588599
 21
228.7856143021869002
 31
0.0
  0
LINE
  5
13559
  8
0
 10
4274.1904038648590358
 20
226.9934787694868987
 30
0.0
 11
4274.1728448097601358
 21
226.9934787694868987
 31
0.0
  0
LINE
  5
1355A
  8
0
 10
4277.3000221322590733
 20
222.0859984545868997
 30
0.0
 11
4277.3000221322590733
 21
229.1332425490869014
 31
0.0
  0
LINE
  5
1355B
  8
0
 10
4274.8893757950590953
 20
227.046628375786895
 30
0.0
 11
4274.9996120154582968
 21
227.046628375786895
 31
0.0
  0
LINE
  5
1355C
  8
0
 10
4274.8146763264576293
 20
227.0859984545868997
 30
0.0
 11
4274.2839204137590059
 21
227.0859984545868997
 31
0.0
  0
LINE
  5
1355D
  8
0
 10
4277.6059156758592508
 20
221.9378698722869956
 30
0.0
 11
4277.6059156758592508
 21
229.2813711313868907
 31
0.0
  0
LINE
  5
1355E
  8
0
 10
4276.3775692191593407
 20
227.617494517587005
 30
0.0
 11
4276.6163811763681224
 21
227.617494517587005
 31
0.0
  0
LINE
  5
1355F
  8
0
 10
4275.4354809802589443
 20
227.7557048818869987
 30
0.0
 11
4275.6866703642590437
 21
227.7293038137869132
 31
0.0
  0
LINE
  5
13560
  8
0
 10
4276.7144210615397242
 20
228.5212755832210973
 30
0.0
 11
4276.7996536480577561
 21
228.5363043877869984
 31
0.0
  0
LINE
  5
13561
  8
0
 10
4277.4878054396576772
 20
229.2710378246869141
 30
0.0
 11
4277.6059156758592508
 21
229.2813711313868907
 31
0.0
  0
ARC
  5
13562
  8
0
 10
4276.799273910059128
 20
221.7880850687868985
 30
0.0
 40
0.5905511811000002
 50
37.3512720659971507
 51
74.6900098140146582
  0
ARC
  5
13563
  8
0
 10
4277.1122388249577853
 20
222.0269433364869087
 30
0.0
 40
0.1968503937
 50
17.4576031237069493
 51
37.3512720659971507
  0
ARC
  5
13564
  8
0
 10
4277.4878054396576772
 20
222.1450535726868907
 30
0.0
 40
0.1968503937
 50
197.4576031237068889
 51
269.999999999895806
  0
ARC
  5
13565
  8
0
 10
4276.7791440223545578
 20
222.5666207391857085
 30
0.0
 40
0.1181102362032629
 50
0.0
 51
80.0000007769324952
  0
ARC
  5
13566
  8
0
 10
4276.9759944161169187
 20
222.4336241912724006
 30
0.0
 40
0.0787401575975974
 50
179.9981734990680877
 51
254.6900098597785984
  0
ARC
  5
13567
  8
0
 10
4276.7280941518156396
 20
222.7755093371052908
 30
0.0
 40
0.0787401575554603
 50
182.7109233595101045
 51
259.9999999342218189
  0
ARC
  5
13568
  8
0
 10
4274.2839204137590059
 20
223.4836362498868993
 30
0.0
 40
0.0590551181
 50
224.9999999999953957
 51
270.0
  0
ARC
  5
13569
  8
0
 10
4275.4301310983591975
 20
225.6010510218870024
 30
0.0
 40
0.0511811024
 50
203.0000003567971021
 51
275.999999883084115
  0
ARC
  5
1356A
  8
0
 10
4276.192662959622794
 20
224.5256865318258122
 30
0.0
 40
0.0393701837056876
 50
92.0000617415217334
 51
180.1197867665991055
  0
ARC
  5
1356B
  8
0
 10
4276.1926630369671329
 20
223.6620585825658054
 30
0.0
 40
0.0393703600170524
 50
179.8439040404662137
 51
267.9998345912114814
  0
ARC
  5
1356C
  8
0
 10
4274.2397739451444068
 20
223.4999438714459927
 30
0.0
 40
0.0393700805697307
 50
179.9931101989502054
 51
224.9999994583409091
  0
ARC
  5
1356D
  8
0
 10
4276.287018035292931
 20
224.5445541205749862
 30
0.0
 40
0.0196850457047171
 50
359.9656436014149108
 51
87.9999925858772514
  0
ARC
  5
1356E
  8
0
 10
4276.3263881167586078
 20
224.506868532886898
 30
0.0
 40
0.0196850394
 50
180.0
 51
268.8542371618240168
  0
ARC
  5
1356F
  8
0
 10
4276.2870180352838361
 20
223.64319082012031
 30
0.0
 40
0.0196850457264001
 50
272.0000074396202194
 51
0.0344154220613919
  0
ARC
  5
13570
  8
0
 10
4276.3263881167586078
 20
223.6808764076868954
 30
0.0
 40
0.0196850394
 50
91.1457628381759832
 51
180.0
  0
ARC
  5
13571
  8
0
 10
4276.2306485672588678
 20
226.3774593781868987
 30
0.0
 40
1.1811023622000001
 50
91.0502742119189747
 51
111.1987260380778935
  0
ARC
  5
13572
  8
0
 10
4276.2306234011575725
 20
226.9268672415869048
 30
0.0
 40
1.179573600499999
 50
267.9580048515874182
 51
268.9495870522948167
  0
ARC
  5
13573
  8
0
 10
4275.0258174177579349
 20
226.0898567222868962
 30
0.0
 40
0.13
 50
22.9999984723028383
 51
72.8533979366175828
  0
ARC
  5
13574
  8
0
 10
4275.0258174177579349
 20
227.2159984545868951
 30
0.0
 40
0.13
 50
287.1466020633823746
 51
337.0000015276971794
  0
ARC
  5
13575
  8
0
 10
4274.5638967031700304
 20
226.1017469602616927
 30
0.0
 40
0.1181097620263218
 50
90.0002446443464521
 51
180.6060098919523114
  0
ARC
  5
13576
  8
0
 10
4276.3067030774591331
 20
225.6883606592869
 30
0.0
 40
0.0590551181
 50
180.0
 51
0.0
  0
ARC
  5
13577
  8
0
 10
4274.2839204137590059
 20
227.026943336486994
 30
0.0
 40
0.0590551181
 50
90.0
 51
135.0000000000046043
  0
ARC
  5
13578
  8
0
 10
4274.1728448097601358
 20
226.942297667187006
 30
0.0
 40
0.0511811024
 50
90.0
 51
180.0000004729000977
  0
ARC
  5
13579
  8
0
 10
4274.1728448097601358
 20
226.363557509686899
 30
0.0
 40
0.0511811024
 50
179.9999995270999023
 51
267.2967799309025736
  0
ARC
  5
1357A
  8
0
 10
4275.0792328127217843
 20
227.0428702143825888
 30
0.0
 40
0.0511811027390504
 50
107.1466154256957992
 51
151.5569112800974096
  0
ARC
  5
1357B
  8
0
 10
4274.8146763227578049
 20
227.034817352186991
 30
0.0
 40
0.0511811024000028
 50
34.4173777016048703
 51
89.9999958579680168
  0
ARC
  5
1357C
  8
0
 10
4274.8146763227578049
 20
226.2710378246869993
 30
0.0
 40
0.051181102400003
 50
270.0000041420320258
 51
325.582622298393801
  0
ARC
  5
1357D
  8
0
 10
4275.0792328125589847
 20
226.2629849621868914
 30
0.0
 40
0.0511811023999977
 50
208.4430884035697886
 51
252.8533846487964922
  0
ARC
  5
1357E
  8
0
 10
4276.2082778803260226
 20
225.7081283969916115
 30
0.0
 40
0.0393700789331106
 50
0.000000138701089
 51
88.9500561516224337
  0
ARC
  5
1357F
  8
0
 10
4274.2397739481466488
 20
227.0106357128217098
 30
0.0
 40
0.0393700841112775
 50
135.0000015666317097
 51
180.0117211383467009
  0
ARC
  5
13580
  8
0
 10
4274.8893757950590953
 20
226.2198567222870054
 30
0.0
 40
0.0393700787
 50
90.0
 51
145.5825969779874072
  0
ARC
  5
13581
  8
0
 10
4274.8893757950590953
 20
227.0859984545868997
 30
0.0
 40
0.0393700787
 50
214.4174030220125076
 51
270.0
  0
ARC
  5
13582
  8
0
 10
4274.9996120154100936
 20
226.2198567221084033
 30
0.0
 40
0.0393700788785277
 50
28.443115412352391
 51
89.999999928504792
  0
ARC
  5
13583
  8
0
 10
4274.9996120154582968
 20
227.0859984545868997
 30
0.0
 40
0.0393700786999869
 50
270.0
 51
331.5568849171756938
  0
ARC
  5
13584
  8
0
 10
4276.1689078018589498
 20
225.6470300302869134
 30
0.0
 40
0.0196850394
 50
275.9999999999823217
 51
0.0
  0
ARC
  5
13585
  8
0
 10
4276.3775692191593407
 20
225.7001716828868894
 30
0.0
 40
0.0118110236
 50
180.0
 51
270.0
  0
ARC
  5
13586
  8
0
 10
4274.1904038648590358
 20
226.9834787694869078
 30
0.0
 40
0.01
 50
0.0
 51
90.0
  0
ARC
  5
13587
  8
0
 10
4276.799273910059128
 20
229.4311559348869025
 30
0.0
 40
0.5905511811000002
 50
285.3099901859853276
 51
322.6487279340028067
  0
ARC
  5
13588
  8
0
 10
4277.4878054396576772
 20
229.0741874309869104
 30
0.0
 40
0.1968503937
 50
90.0000000001042082
 51
162.5423968762929974
  0
ARC
  5
13589
  8
0
 10
4277.1122388249577853
 20
229.192297667187006
 30
0.0
 40
0.1968503937
 50
322.6487279340028067
 51
342.5423968762930826
  0
ARC
  5
1358A
  8
0
 10
4276.7791440223545578
 20
228.652620264387906
 30
0.0
 40
0.1181102362029939
 50
279.9999992229617192
 51
359.9999999995342819
  0
ARC
  5
1358B
  8
0
 10
4276.9759944161169187
 20
228.7856168123014982
 30
0.0
 40
0.0787401575976011
 50
105.3099901402213021
 51
180.0018265009302922
  0
ARC
  5
1358C
  8
0
 10
4276.728094151755613
 20
228.4437316665934929
 30
0.0
 40
0.0787401574929136
 50
100.0000039588791054
 51
177.2890766564472926
  0
ARC
  5
1358D
  8
0
 10
4276.3067030774591331
 20
227.617494517587005
 30
0.0
 40
0.0590551181
 50
0.0
 51
180.0
  0
ARC
  5
1358E
  8
0
 10
4275.4301310983591975
 20
227.7048041549869026
 30
0.0
 40
0.0511811024
 50
84.0000001169158992
 51
156.9999996432028979
  0
ARC
  5
1358F
  8
0
 10
4276.2082778805342969
 20
227.5977267797975117
 30
0.0
 40
0.0393700787258747
 50
271.0499436497000829
 51
359.9999999846079959
  0
ARC
  5
13590
  8
0
 10
4276.3775692191593407
 20
227.605683493986902
 30
0.0
 40
0.0118110236
 50
90.0
 51
180.0
  0
ARC
  5
13591
  8
0
 10
4291.1343066947983971
 20
226.6521608197097066
 30
0.0
 40
16.6976286701326799
 50
181.8933058783246111
 51
190.8360950758969921
  0
LINE
  5
13592
  8
0
 10
4274.1752306925582161
 20
226.3169422368870016
 30
0.0
 11
4274.1728448097601358
 21
226.3163943972868992
 31
0.0
  0
LINE
  5
13593
  8
0
 10
4274.1728448097601358
 20
226.3163943972868992
 30
0.0
 11
4274.172057636057616
 21
226.3159229311868899
 31
0.0
  0
LINE
  5
13594
  8
0
 10
4276.1546762964590016
 20
223.6830923198868959
 30
0.0
 11
4276.1532928230590187
 21
223.6621658425868873
 31
0.0
  0
ARC
  5
13595
  8
0
 10
4276.2876419503627403
 20
223.8207722326646092
 30
0.0
 40
0.0190700038340874
 50
270.1895402638970722
 51
358.2517409972730889
  0
ARC
  5
13596
  8
0
 10
4276.1922078595425774
 20
223.8386738027190006
 30
0.0
 40
0.0377726036632571
 50
189.3106442511879948
 51
270.5463904926376131
  0
ARC
  5
13597
  8
0
 10
4276.4301050608064543
 20
223.8635080663121926
 30
0.0
 40
0.2769053733994592
 50
178.5136052176569876
 51
178.5137739782666131
  0
ARC
  5
13598
  8
0
 10
4276.4301050608064543
 20
223.8635080663121926
 30
0.0
 40
0.2769053733994592
 50
181.4862224251569103
 51
186.4281154730288961
  0
ARC
  5
13599
  8
0
 10
4275.2659514185215812
 20
223.7593709532256128
 30
0.0
 40
0.891992452956105
 50
355.0938214695754027
 51
4.7030424722859321
  0
ARC
  5
1359A
  8
0
 10
4276.194186809592793
 20
223.6953132077696864
 30
0.0
 40
0.0452460050171903
 50
226.2562436245999891
 51
267.9499688252856799
  0
ARC
  5
1359B
  8
0
 10
4276.1813670391811684
 20
223.6819334166696933
 30
0.0
 40
0.0267158904719835
 50
177.5194171845091944
 51
226.2782457979544972
  0
ARC
  5
1359C
  8
0
 10
4276.192995093783793
 20
224.3469259613040947
 30
0.0
 40
0.0399183817973641
 50
90.6126499935928251
 51
132.4379801726601897
  0
ARC
  5
1359D
  8
0
 10
4276.1904596715712614
 20
224.3500161705626113
 30
0.0
 40
0.0359275379034303
 50
132.7793967808055129
 51
165.8040946313003872
  0
ARC
  5
1359E
  8
0
 10
4276.261533302233147
 20
224.3388402139810864
 30
0.0
 40
0.1077735460589157
 50
169.3125473238368102
 51
178.4338215291136862
  0
ARC
  5
1359F
  8
0
 10
4276.6426917489034167
 20
224.3193884576319022
 30
0.0
 40
0.4894045025404664
 50
177.3769683477154047
 51
179.7256819004113026
  0
ARC
  5
135A0
  8
0
 10
4276.2876419498552423
 20
224.3669727067544102
 30
0.0
 40
0.019070005078138
 50
1.7483315353251669
 51
89.810460627661314
  0
ARC
  5
135A1
  8
0
 10
4275.1040408263834252
 20
224.3314753741040022
 30
0.0
 40
1.203823432701068
 50
2.5167566615014252
 51
4.645054699165013
  0
ARC
  5
135A2
  8
0
 10
4276.5260896980471443
 20
224.4422682095978985
 30
0.0
 40
0.2225773489791047
 50
175.5203110452850979
 51
183.4267379577233044
  0
ARC
  5
135A3
  8
0
 10
4276.9234164074332512
 20
224.4126543627041883
 30
0.0
 40
0.6210051047783218
 50
174.2204046150964132
 51
175.659637254132889
  0
ARC
  5
135A4
  8
0
 10
4276.1160910274466005
 20
224.4961466418025111
 30
0.0
 40
0.1906323879078015
 50
353.6888365671724159
 51
359.1630564577852738
  0
ARC
  5
135A5
  8
0
 10
4276.194620792227397
 20
224.4908980648220052
 30
0.0
 40
0.0467958017756905
 50
92.5141289730309211
 51
127.7382753601670942
  0
ARC
  5
135A6
  8
0
 10
4276.1850135778877302
 20
224.5034981967702947
 30
0.0
 40
0.0309514940422884
 50
127.9501433354016058
 51
160.8550487307254002
  0
ARC
  5
135A7
  8
0
 10
4276.1928830208553336
 20
224.4992102138008931
 30
0.0
 40
0.0398191183515874
 50
158.7394307643324964
 51
173.8527799235544933
  0
ARC
  5
135A8
  8
0
 10
4276.2874685953183871
 20
224.5141398993725943
 30
0.0
 40
0.0228596955153762
 50
55.8912271070323925
 51
89.4073718933430825
  0
ARC
  5
135A9
  8
0
 10
4276.2928297408634535
 20
224.521354640135911
 30
0.0
 40
0.0138852932096441
 50
2.377909790038446
 51
57.5135672221630969
  0
ARC
  5
135AA
  8
0
 10
4276.2890406403002999
 20
223.668573468090699
 30
0.0
 40
0.017876861892128
 50
265.715359904315676
 51
351.1169014240750244
  0
ARC
  5
135AB
  8
0
 10
4275.8337598454863837
 20
223.6742836656345048
 30
0.0
 40
0.4733701274126118
 50
2.4334958370281652
 51
6.0323963588345508
  0
ARC
  5
135AC
  8
0
 10
4276.5754947525292664
 20
223.7460877773349921
 30
0.0
 40
0.2718822128373292
 50
174.7761413244222979
 51
184.6534102285662868
  0
ARC
  5
135AD
  8
0
 10
4275.8989201204776691
 20
223.8116246986317037
 30
0.0
 40
0.4078657346698042
 50
354.2613640020845196
 51
358.8456353636818221
  0
ARC
  5
135AE
  8
0
 10
4274.183521376776298
 20
226.2602252069694089
 30
0.0
 40
0.0573197778036261
 50
90.1970209838183621
 51
98.3163840090198562
  0
ARC
  5
135AF
  8
0
 10
4274.1902106761690447
 20
226.3278018130515932
 30
0.0
 40
0.0101934001170822
 50
271.0859535773263929
 51
359.6309717971756186
  0
ARC
  5
135B0
  8
0
 10
4274.2352346725010648
 20
223.5884233673261008
 30
0.0
 40
0.0348318834887259
 50
180.4503243263987997
 51
228.0166005258404027
  0
ARC
  5
135B1
  8
0
 10
4274.2835501870204098
 20
223.5805620953163952
 30
0.0
 40
0.0617645937382176
 50
227.925724827978911
 51
270.3434420165531265
  0
ARC
  5
135B2
  8
0
 10
4274.6439413274547405
 20
223.5611599677820038
 30
0.0
 40
0.0423667285723514
 50
270.9124242910193061
 51
316.5553982250143008
  0
ARC
  5
135B3
  8
0
 10
4274.6838817756106437
 20
223.5948454352019041
 30
0.0
 40
0.0349363872730344
 50
316.4859805824410159
 51
1.3266895628173641
  0
ARC
  5
135B4
  8
0
 10
4274.6602626735611921
 20
223.4662372830628954
 30
0.0
 40
0.0416708795892016
 50
271.5233830537877111
 51
318.9990739971215135
  0
ARC
  5
135B5
  8
0
 10
4274.6924800715260062
 20
223.5064436175331082
 30
0.0
 40
0.0424434429399689
 50
322.4111763365327192
 51
8.8931095250886152
  0
ENDSEC
  0
EOF
