  0
SECTION
  2
HEADER
  9
$ACADVER
  1
AC1009
  9
$INSBASE
 10
3903.4879583349961649
 20
88.7179530264437943
 30
0.0
  9
$EXTMIN
 10
3899.7861711543027923
 20
88.7116821972667253
 30
-0.0000000000000058
  9
$EXTMAX
 10
3911.3568238037478295
 20
137.0103345420421022
 30
0.0000000000000104
  9
$LIMMIN
 10
0.0
 20
0.0
  9
$LIMMAX
 10
11.6929133858000007
 20
8.2677165353999982
  9
$ORTHOMODE
 70
     0
  9
$REGENMODE
 70
     1
  9
$FILLMODE
 70
     1
  9
$QTEXTMODE
 70
     0
  9
$MIRRTEXT
 70
     0
  9
$DRAGMODE
 70
     2
  9
$LTSCALE
 40
0.6431102362
  9
$OSMODE
 70
  4095
  9
$ATTMODE
 70
     1
  9
$TEXTSIZE
 40
0.2
  9
$TRACEWID
 40
0.05
  9
$TEXTSTYLE
  7
STANDARD
  9
$CLAYER
  8
0
  9
$CELTYPE
  6
BYLAYER
  9
$CECOLOR
 62
   256
  9
$DIMSCALE
 40
1.0
  9
$DIMASZ
 40
0.1875
  9
$DIMEXO
 40
0.0625
  9
$DIMDLI
 40
0.4443307087
  9
$DIMRND
 40
0.0
  9
$DIMDLE
 40
0.0
  9
$DIMEXE
 40
0.125
  9
$DIMTP
 40
0.01
  9
$DIMTM
 40
0.01
  9
$DIMTXT
 40
2.0
  9
$DIMCEN
 40
0.1052362205
  9
$DIMTSZ
 40
0.0
  9
$DIMTOL
 70
     1
  9
$DIMLIM
 70
     0
  9
$DIMTIH
 70
     1
  9
$DIMTOH
 70
     1
  9
$DIMSE1
 70
     0
  9
$DIMSE2
 70
     0
  9
$DIMTAD
 70
     0
  9
$DIMZIN
 70
     0
  9
$DIMBLK
  1

  9
$DIMASO
 70
     1
  9
$DIMSHO
 70
     1
  9
$DIMPOST
  1
\X
  9
$DIMAPOST
  1

  9
$DIMALT
 70
     1
  9
$DIMALTD
 70
     2
  9
$DIMALTF
 40
25.3999999999999986
  9
$DIMLFAC
 40
1.0
  9
$DIMTOFL
 70
     0
  9
$DIMTVP
 40
0.0
  9
$DIMTIX
 70
     0
  9
$DIMSOXD
 70
     0
  9
$DIMSAH
 70
     0
  9
$DIMBLK1
  1

  9
$DIMBLK2
  1

  9
$DIMSTYLE
  2
STANDARD
  9
$DIMCLRD
 70
     0
  9
$DIMCLRE
 70
     0
  9
$DIMCLRT
 70
     0
  9
$DIMTFAC
 40
1.0
  9
$DIMGAP
 40
0.09
  9
$LUNITS
 70
     2
  9
$LUPREC
 70
     4
  9
$SKETCHINC
 40
0.1
  9
$FILLETRAD
 40
0.0
  9
$AUNITS
 70
     0
  9
$AUPREC
 70
     0
  9
$MENU
  1
.
  9
$ELEVATION
 40
0.0
  9
$PELEVATION
 40
0.0
  9
$THICKNESS
 40
0.0
  9
$LIMCHECK
 70
     0
  9
$BLIPMODE
 70
     0
  9
$CHAMFERA
 40
0.0
  9
$CHAMFERB
 40
0.0
  9
$SKPOLY
 70
     0
  9
$TDCREATE
 40
2458060.468368056230247
  9
$TDUPDATE
 40
2459144.7539236107841134
  9
$TDINDWG
 40
0.8187917823999999
  9
$TDUSRTIMER
 40
0.8187917823999999
  9
$USRTIMER
 70
     1
  9
$ANGBASE
 50
0.0
  9
$ANGDIR
 70
     0
  9
$PDMODE
 70
     0
  9
$PDSIZE
 40
0.3125
  9
$PLINEWID
 40
0.0
  9
$COORDS
 70
     1
  9
$SPLFRAME
 70
     0
  9
$SPLINETYPE
 70
     6
  9
$SPLINESEGS
 70
     8
  9
$ATTDIA
 70
     1
  9
$ATTREQ
 70
     1
  9
$HANDLING
 70
     1
  9
$HANDSEED
  5
161D2
  9
$SURFTAB1
 70
     6
  9
$SURFTAB2
 70
     6
  9
$SURFTYPE
 70
     6
  9
$SURFU
 70
     6
  9
$SURFV
 70
     6
  9
$UCSNAME
  2

  9
$UCSORG
 10
0.0
 20
0.0
 30
0.0
  9
$UCSXDIR
 10
1.0
 20
0.0
 30
0.0
  9
$UCSYDIR
 10
0.0
 20
1.0
 30
0.0
  9
$PUCSNAME
  2

  9
$PUCSORG
 10
0.0
 20
0.0
 30
0.0
  9
$PUCSXDIR
 10
1.0
 20
0.0
 30
0.0
  9
$PUCSYDIR
 10
0.0
 20
1.0
 30
0.0
  9
$USERI1
 70
     0
  9
$USERI2
 70
     0
  9
$USERI3
 70
     0
  9
$USERI4
 70
     0
  9
$USERI5
 70
     0
  9
$USERR1
 40
0.0
  9
$USERR2
 40
0.0
  9
$USERR3
 40
0.0
  9
$USERR4
 40
0.0
  9
$USERR5
 40
0.0
  9
$WORLDVIEW
 70
     1
  9
$SHADEDGE
 70
     3
  9
$SHADEDIF
 70
    70
  9
$TILEMODE
 70
     1
  9
$MAXACTVP
 70
    64
  9
$PLIMCHECK
 70
     0
  9
$PEXTMIN
 10
1.0000000000000000E+20
 20
1.0000000000000000E+20
 30
1.0000000000000000E+20
  9
$PEXTMAX
 10
-1.0000000000000000E+20
 20
-1.0000000000000000E+20
 30
-1.0000000000000000E+20
  9
$PLIMMIN
 10
0.0
 20
0.0
  9
$PLIMMAX
 10
12.0
 20
9.0
  9
$UNITMODE
 70
     0
  9
$VISRETAIN
 70
     1
  9
$PLINEGEN
 70
     0
  9
$PSLTSCALE
 70
     1
  0
ENDSEC
  0
SECTION
  2
TABLES
  0
TABLE
  2
VPORT
 70
     1
  0
VPORT
  2
*ACTIVE
 70
     0
 10
0.0
 20
0.0
 11
1.0
 21
1.0
 12
344.9458871274628109
 22
-53.9875704535888801
 13
0.0
 23
0.0
 14
1.0
 24
1.0
 15
0.0
 25
0.0
 16
0.0
 26
0.0
 36
164.6715580216130093
 17
3560.6256103515629547
 27
166.8485788232432867
 37
0.0
 40
48.8691088685325994
 41
2.6055226824457591
 42
50.0
 43
0.0
 44
0.0
 50
0.0
 51
0.0
 71
     0
 72
  1000
 73
     1
 74
     1
 75
     0
 76
     0
 77
     0
 78
     0
  0
ENDTAB
  0
TABLE
  2
LTYPE
 70
     2
  0
LTYPE
  2
CONTINUOUS
 70
     0
  3
Solid line
 72
    65
 73
     0
 40
0.0
  0
LTYPE
  2
PHANTOM2
 70
     0
  3
___ _ _ ___ _ _ ___ _ _ ___ _ _
 72
    65
 73
     6
 40
1.25
 49
0.625
 49
-0.125
 49
0.125
 49
-0.125
 49
0.125
 49
-0.125
  0
ENDTAB
  0
TABLE
  2
LAYER
 70
     2
  0
LAYER
  2
0
 70
     0
 62
   255
  6
CONTINUOUS
  0
LAYER
  2
DEFPOINTS
 70
     0
 62
     7
  6
CONTINUOUS
  0
ENDTAB
  0
TABLE
  2
STYLE
 70
     1
  0
STYLE
  2
STANDARD
 70
     0
 40
0.0
 41
0.8
 50
0.0
 71
     0
 42
0.2
  3
txt
  4

  0
ENDTAB
  0
TABLE
  2
VIEW
 70
     0
  0
ENDTAB
  0
TABLE
  2
UCS
 70
     0
  0
ENDTAB
  0
TABLE
  2
APPID
 70
    10
  0
APPID
  2
ACAD
 70
     0
  0
APPID
  2
ACAD_MLEADERVER
 70
     0
  0
APPID
  2
ACAD_EXEMPT_FROM_CAD_STANDARDS
 70
     0
  0
APPID
  2
ACAD_NAV_VCDISPLAY
 70
     0
  0
APPID
  2
ACAECLAYERSTANDARD
 70
     0
  0
APPID
  2
ACCMTRANSPARENCY
 70
     0
  0
APPID
  2
ACAD_DSTYLE_DIMJAG
 70
     0
  0
APPID
  2
ACAD_DSTYLE_DIMTALN
 70
     0
  0
APPID
  2
ACDBATTR
 70
     0
  0
APPID
  2
ACAD_PSEXT
 70
     0
  0
ENDTAB
  0
TABLE
  2
DIMSTYLE
 70
     1
  0
DIMSTYLE
  2
STANDARD
 70
     0
  3

  4

  5

  6

  7

 40
1.0
 41
0.1875
 42
0.0625
 43
0.38
 44
0.125
 45
0.0
 46
0.0
 47
0.01
 48
0.01
140
0.15625
141
0.09
142
0.0
143
25.3999999999999986
144
1.0
145
0.0
146
1.0
147
0.09
 71
     1
 72
     0
 73
     1
 74
     1
 75
     0
 76
     0
 77
     0
 78
     4
170
     0
171
     2
172
     0
173
     0
174
     0
175
     0
176
     0
177
     0
178
     0
  0
ENDTAB
  0
ENDSEC
  0
SECTION
  2
BLOCKS
  0
BLOCK
  8
0
  2
$MODEL_SPACE
 70
     0
 10
0.0
 20
0.0
 30
0.0
  3
$MODEL_SPACE
  1

  0
ENDBLK
  5
21
  8
0
  0
BLOCK
 67
     1
  8
0
  2
$PAPER_SPACE
 70
     0
 10
0.0
 20
0.0
 30
0.0
  3
$PAPER_SPACE
  1

  0
ENDBLK
  5
1D
 67
     1
  8
0
  0
ENDSEC
  0
SECTION
  2
ENTITIES
  0
ATTDEF
  5
AA11
  8
DEFPOINTS
 10
3903.4851131994691968
 20
88.7150809736368728
 30
0.0
 40
0.001
  1
K-6281T
  3

  2
MODELNUMBER
 70
     0
1001
ACDBATTR
1070
     0
1070
     1
  0
ATTDEF
  5
AA12
  8
DEFPOINTS
 10
3903.4851131994691968
 20
88.7134143069701935
 30
0.0
 40
0.001
  1
TOUCHLESS
  3

  2
TRADENAME
 70
     0
1001
ACDBATTR
1070
     0
1070
     1
  0
ATTDEF
  5
AA13
  8
DEFPOINTS
 10
3903.4851131994691968
 20
88.7117476403035568
 30
0.0
 40
0.001
  1
IN-WALL TANK AND CARRIER SYSTEM
  3

  2
PRODUCT
 70
     0
1001
ACDBATTR
1070
     0
1070
     1
  0
LINE
  5
15FC2
  8
0
 10
3904.3541000672971677
 20
117.4580971655438049
 30
0.0
 11
3907.425203177595904
 21
117.4580971655438049
 31
0.0
  0
LINE
  5
15FC3
  8
0
 10
3904.2359898310960489
 20
128.2656022836436875
 30
0.0
 11
3905.3304780200969617
 21
128.2656022836436875
 31
0.0
  0
LINE
  5
15FC4
  8
0
 10
3905.4092181775968129
 20
128.2656022836436875
 30
0.0
 11
3908.0158031775968084
 21
128.2656022836436875
 31
0.0
  0
LINE
  5
15FC5
  8
0
 10
3904.2359898310960489
 20
129.0530038584437875
 30
0.0
 11
3907.7008425475969489
 21
129.0530038584437875
 31
0.0
  0
LINE
  5
15FC6
  8
0
 10
3904.2359898310960489
 20
128.6514290553438116
 30
0.0
 11
3904.5706355003972021
 21
128.6514290553438116
 31
0.0
  0
LINE
  5
15FC7
  8
0
 10
3902.7005567601968323
 20
89.1116538138437733
 30
0.0
 11
3904.2753599097959523
 21
89.1116538138437733
 31
0.0
  0
LINE
  5
15FC8
  8
0
 10
3904.2753599097959523
 20
89.1116538138437733
 30
0.0
 11
3904.2753599097959523
 21
88.7179530264437943
 31
0.0
  0
LINE
  5
15FC9
  8
0
 10
3904.2753599097959523
 20
88.7179530264437943
 30
0.0
 11
3902.7005567601968323
 21
88.7179530264437943
 31
0.0
  0
LINE
  5
15FCA
  8
0
 10
3902.7005567601968323
 20
88.7179530264437943
 30
0.0
 11
3902.7005567601968323
 21
89.1116538138437733
 31
0.0
  0
LINE
  5
15FCB
  8
0
 10
3904.1769347129961716
 20
94.4411420028438044
 30
0.0
 11
3904.1769347129961716
 21
89.1116538138437733
 31
0.0
  0
LINE
  5
15FCC
  8
0
 10
3902.7989819570962027
 20
89.1116538138437733
 30
0.0
 11
3902.7989819570962027
 21
94.4411420028438044
 31
0.0
  0
LINE
  5
15FCD
  8
0
 10
3904.2359898310960489
 20
94.4411420028438044
 30
0.0
 11
3902.6611866814969289
 21
94.4411420028438044
 31
0.0
  0
LINE
  5
15FCE
  8
0
 10
3902.6611866814969289
 20
94.4411420028438044
 30
0.0
 11
3902.6611866814969289
 21
137.0001971209437954
 31
0.0
  0
LINE
  5
15FCF
  8
0
 10
3902.6611866814969289
 20
137.0001971209437954
 30
0.0
 11
3904.2359898310960489
 21
137.0001971209437954
 31
0.0
  0
LINE
  5
15FD0
  8
0
 10
3904.2359898310960489
 20
137.0001971209437954
 30
0.0
 11
3904.2359898310960489
 21
94.4411420028438044
 31
0.0
  0
LINE
  5
15FD1
  8
0
 10
3902.0312851066969415
 20
104.6675199556437974
 30
0.0
 11
3902.6611866814969289
 21
104.6675199556437974
 31
0.0
  0
LINE
  5
15FD2
  8
0
 10
3902.0312851066969415
 20
99.1557089320437939
 30
0.0
 11
3902.6611866814969289
 21
99.1557089320437939
 31
0.0
  0
LINE
  5
15FD3
  8
0
 10
3901.8737851066971416
 20
99.3132089320437927
 30
0.0
 11
3901.8737851066971416
 21
104.5100199556437985
 31
0.0
  0
ARC
  5
15FD4
  8
0
 10
3902.0312851066969415
 20
99.3132089320437927
 30
0.0
 40
0.1575
 50
180.0000000000023874
 51
270.0
  0
ARC
  5
15FD5
  8
0
 10
3902.0312851066969415
 20
104.5100199556437985
 30
0.0
 40
0.1575
 50
90.0
 51
179.9999999999992042
  0
LINE
  5
15FD6
  8
0
 10
3906.0704387439468519
 20
92.4234254674438063
 30
0.0
 11
3911.1885487922459106
 21
92.4234254674438063
 31
0.0
  0
LINE
  5
15FD7
  8
0
 10
3911.1885487922459106
 20
92.3053152312437959
 30
0.0
 11
3906.0704387439468519
 21
92.3053152312437959
 31
0.0
  0
LINE
  5
15FD8
  8
0
 10
3906.0704387439468519
 20
92.3053152312437959
 30
0.0
 11
3906.0704387439468519
 21
92.4234254674438063
 31
0.0
  0
LINE
  5
15FD9
  8
0
 10
3906.0704387439468519
 20
92.9352364910437956
 30
0.0
 11
3911.1885487922459106
 21
92.9352364910437956
 31
0.0
  0
LINE
  5
15FDA
  8
0
 10
3911.1885487922459106
 20
92.8171262548437852
 30
0.0
 11
3906.0704387439468519
 21
92.8171262548437852
 31
0.0
  0
LINE
  5
15FDB
  8
0
 10
3906.0704387439468519
 20
92.8171262548437852
 30
0.0
 11
3906.0704387439468519
 21
92.9352364910437956
 31
0.0
  0
LINE
  5
15FDC
  8
0
 10
3906.0704386499469365
 20
93.4470475146437849
 30
0.0
 11
3911.1885487923468645
 21
93.4470475146437849
 31
0.0
  0
LINE
  5
15FDD
  8
0
 10
3911.1885487923468645
 20
93.3289372784437745
 30
0.0
 11
3906.0704386499469365
 21
93.3289372784437745
 31
0.0
  0
LINE
  5
15FDE
  8
0
 10
3906.0704386499469365
 20
93.3289372784437745
 30
0.0
 11
3906.0704386499469365
 21
93.4470475146437849
 31
0.0
  0
LINE
  5
15FDF
  8
0
 10
3906.4641395411458689
 20
93.6438979083437744
 30
0.0
 11
3910.7948479950468936
 21
93.6438979083437744
 31
0.0
  0
LINE
  5
15FE0
  8
0
 10
3910.7948479950468936
 20
92.0690947587437876
 30
0.0
 11
3906.4641395411458689
 21
92.0690947587437876
 31
0.0
  0
LINE
  5
15FE1
  8
0
 10
3906.4641395411458689
 20
92.0690947587437876
 30
0.0
 11
3906.4641395411458689
 21
92.3053152312437959
 31
0.0
  0
LINE
  5
15FE2
  8
0
 10
3906.4641395411458689
 20
92.4234254674438063
 30
0.0
 11
3906.4641395411458689
 21
92.8171262548437852
 31
0.0
  0
LINE
  5
15FE3
  8
0
 10
3906.4641395411458689
 20
92.9352364910437672
 30
0.0
 11
3906.4641395411458689
 21
93.3289372784437745
 31
0.0
  0
LINE
  5
15FE4
  8
0
 10
3906.4641395411458689
 20
93.4470475146437849
 30
0.0
 11
3906.4641395411458689
 21
93.6438979083437744
 31
0.0
  0
LINE
  5
15FE5
  8
0
 10
3906.8578402247458143
 20
93.6438979083437744
 30
0.0
 11
3906.8578402247458143
 21
99.7257702159736255
 31
0.0
  0
LINE
  5
15FE6
  8
0
 10
3911.1885487922459106
 20
92.3053152312437959
 30
0.0
 11
3911.1885487922459106
 21
92.4234254674438063
 31
0.0
  0
LINE
  5
15FE7
  8
0
 10
3911.1885487922459106
 20
92.8171262548437852
 30
0.0
 11
3911.1885487922459106
 21
92.9352364910437956
 31
0.0
  0
LINE
  5
15FE8
  8
0
 10
3911.188548886245826
 20
93.3289372784437745
 30
0.0
 11
3911.188548886245826
 21
93.4470475146437849
 31
0.0
  0
LINE
  5
15FE9
  8
0
 10
3910.7948479950468936
 20
92.0690947587437876
 30
0.0
 11
3910.7948479950468936
 21
92.3053152312437959
 31
0.0
  0
LINE
  5
15FEA
  8
0
 10
3910.7948479950468936
 20
92.4234254674438063
 30
0.0
 11
3910.7948479950468936
 21
92.8171262548437852
 31
0.0
  0
LINE
  5
15FEB
  8
0
 10
3910.7948479950468936
 20
92.9352364910437672
 30
0.0
 11
3910.7948479950468936
 21
93.3289372784437745
 31
0.0
  0
LINE
  5
15FEC
  8
0
 10
3910.7948479950468936
 20
93.4470475146437849
 30
0.0
 11
3910.7948479950468936
 21
93.6438979083437744
 31
0.0
  0
LINE
  5
15FED
  8
0
 10
3910.4011473114469482
 20
93.6438979083437744
 30
0.0
 11
3910.4011473114469482
 21
99.7462601131437907
 31
0.0
  0
LINE
  5
15FEE
  8
0
 10
3904.3541000672971677
 20
104.3328742863437952
 30
0.0
 11
3904.4328402247961094
 21
104.3328742863437952
 31
0.0
  0
LINE
  5
15FEF
  8
0
 10
3904.4328402247961094
 20
104.3328742863437952
 30
0.0
 11
3904.4328402247961094
 21
99.4903546012437943
 31
0.0
  0
LINE
  5
15FF0
  8
0
 10
3904.4328402247961094
 20
99.4903546012437943
 30
0.0
 11
3904.3541000672971677
 21
99.4903546012437943
 31
0.0
  0
LINE
  5
15FF1
  8
0
 10
3904.3541000672971677
 20
99.4903546012437943
 30
0.0
 11
3904.3541000672971677
 21
104.3328742863437952
 31
0.0
  0
LINE
  5
15FF2
  8
0
 10
3906.0445692918251552
 20
99.549409719443787
 30
0.0
 11
3904.4328402247961094
 21
99.549409719443787
 31
0.0
  0
LINE
  5
15FF3
  8
0
 10
3904.3541000672971677
 20
99.549409719443787
 30
0.0
 11
3904.2359898310960489
 21
99.549409719443787
 31
0.0
  0
LINE
  5
15FF4
  8
0
 10
3906.0445692917251108
 20
104.2738191682438043
 30
0.0
 11
3904.4328402247961094
 21
104.2738191682438043
 31
0.0
  0
LINE
  5
15FF5
  8
0
 10
3904.3541000672971677
 20
104.2738191682438043
 30
0.0
 11
3904.2359898310960489
 21
104.2738191682438043
 31
0.0
  0
LINE
  5
15FF6
  8
0
 10
3906.6609898310971403
 20
103.7226374395438029
 30
0.0
 11
3906.1559385905120507
 21
104.2276885055310061
 31
0.0
  0
LINE
  5
15FF7
  8
0
 10
3906.6609898310971403
 20
100.100591448082298
 30
0.0
 11
3906.1559385906148236
 21
99.5955403821607774
 31
0.0
  0
LINE
  5
15FF8
  8
0
 10
3906.6609898310971403
 20
103.7226374395438029
 30
0.0
 11
3906.6609898310971403
 21
100.100591448082298
 31
0.0
  0
ARC
  5
15FF9
  8
0
 10
3906.0445692918251552
 20
99.7069097194437859
 30
0.0
 40
0.1575
 50
270.0
 51
314.9999900985059753
  0
ARC
  5
15FFA
  8
0
 10
3906.0445692917251108
 20
104.1163191682438054
 30
0.0
 40
0.1575
 50
45.0000099036743322
 51
90.0
  0
ARC
  5
15FFB
  8
0
 10
3906.4641394373961703
 20
99.7462601131437907
 30
0.0
 40
3.9370078740000038
 50
0.0
 51
87.1340160173907208
  0
ARC
  5
15FFC
  8
0
 10
3906.4220753247200264
 20
99.7360151656236837
 30
0.0
 40
0.4358853141465096
 50
358.6532089616969188
 51
56.7623314559593979
  0
LINE
  5
15FFD
  8
0
 10
3904.2372255986961136
 20
107.4037404280438039
 30
0.0
 11
3904.6296906184970794
 21
107.4037404280438039
 31
0.0
  0
LINE
  5
15FFE
  8
0
 10
3904.6296906184970794
 20
107.4037404280438039
 30
0.0
 11
3904.6296906184970794
 21
105.2383860973438061
 31
0.0
  0
LINE
  5
15FFF
  8
0
 10
3904.6296906184970794
 20
105.2383860973438061
 30
0.0
 11
3904.2372255986961136
 21
105.2383860973438061
 31
0.0
  0
ARC
  5
16000
  8
0
 10
3904.3146898310960751
 20
107.3250404280438062
 30
0.0
 40
0.0787
 50
90.0
 51
180.0
  0
LINE
  5
16001
  8
0
 10
3902.4276674492962229
 20
108.260067415743805
 30
0.0
 11
3902.5190177235731426
 21
108.260067415743805
 31
0.0
  0
LINE
  5
16002
  8
0
 10
3902.5190177235731426
 20
108.260067415743805
 30
0.0
 11
3902.5190177235731426
 21
106.2128233212438033
 31
0.0
  0
LINE
  5
16003
  8
0
 10
3902.5190177235731426
 20
106.2128233212438033
 30
0.0
 11
3902.4276674492962229
 21
106.2128233212438033
 31
0.0
  0
LINE
  5
16004
  8
0
 10
3902.4276674492962229
 20
106.2128233212438033
 30
0.0
 11
3902.4276674492962229
 21
108.260067415743805
 31
0.0
  0
ARC
  5
16005
  8
0
 10
3902.709563058896947
 20
106.262245509443801
 30
0.0
 40
0.1968503936999987
 50
194.5405255163996969
 51
255.7737212303424883
  0
ARC
  5
16006
  8
0
 10
3902.709563058896947
 20
108.2106452276437949
 30
0.0
 40
0.1968503937000089
 50
104.2262787696576964
 51
165.4594744397971908
  0
LINE
  5
16007
  8
0
 10
3902.4276674492962229
 20
115.5041341288438019
 30
0.0
 11
3902.5190177235731426
 21
115.5041341288438019
 31
0.0
  0
LINE
  5
16008
  8
0
 10
3902.5190177235731426
 20
115.5041341288438019
 30
0.0
 11
3902.5190177235731426
 21
113.4568900343438003
 31
0.0
  0
LINE
  5
16009
  8
0
 10
3902.5190177235731426
 20
113.4568900343438003
 30
0.0
 11
3902.4276674492962229
 21
113.4568900343438003
 31
0.0
  0
LINE
  5
1600A
  8
0
 10
3902.4276674492962229
 20
113.4568900343438003
 30
0.0
 11
3902.4276674492962229
 21
115.5041341288438019
 31
0.0
  0
ARC
  5
1600B
  8
0
 10
3902.709563058896947
 20
113.5063122225437979
 30
0.0
 40
0.1968503936999987
 50
194.5405255163996969
 51
255.7737212303424883
  0
ARC
  5
1600C
  8
0
 10
3902.709563058896947
 20
115.4547119407437066
 30
0.0
 40
0.1968503937000089
 50
104.2262787696576964
 51
165.4594744397971908
  0
LINE
  5
1600D
  8
0
 10
3904.3154603286780002
 20
106.2816931839438013
 30
0.0
 11
3904.6296906184970794
 21
106.2816931839438013
 31
0.0
  0
ARC
  5
1600E
  8
0
 10
3904.3150951586171686
 20
106.3614381554764066
 30
0.0
 40
0.0797458076257764
 50
187.2665392141217069
 51
270.2623683563530221
  0
ARC
  5
1600F
  8
0
 10
3903.9918953427682027
 20
108.6143981246444952
 30
0.0
 40
2.4015748033285429
 50
285.4010491154588749
 51
0.0
  0
ARC
  5
16010
  8
0
 10
3903.9918953428968962
 20
108.6143981244437953
 30
0.0
 40
0.3543307087000009
 50
313.5422190246953846
 51
0.0
  0
LINE
  5
16011
  8
0
 10
3906.5313055790961698
 20
110.5486500929438023
 30
0.0
 11
3904.247800854696834
 21
110.5486500929438023
 31
0.0
  0
LINE
  5
16012
  8
0
 10
3904.3462260515971138
 20
108.6143981244437953
 30
0.0
 11
3904.3462260515971138
 21
110.5486500929438023
 31
0.0
  0
LINE
  5
16013
  8
0
 10
3906.3934701460971155
 20
108.6143981246444952
 30
0.0
 11
3906.3934701460971155
 21
110.5486500929438023
 31
0.0
  0
LINE
  5
16014
  8
0
 10
3906.4912044270959086
 20
110.5486500929438023
 30
0.0
 11
3906.4912044270959086
 21
114.892512715265795
 31
0.0
  0
LINE
  5
16015
  8
0
 10
3906.610005579096196
 20
110.6273500929438001
 30
0.0
 11
3906.610005579096196
 21
111.0211311952437967
 31
0.0
  0
ARC
  5
16016
  8
0
 10
3906.5313055790961698
 20
110.6273500929438001
 30
0.0
 40
0.0787
 50
270.0
 51
0.0000000000016284
  0
LINE
  5
16017
  8
0
 10
3906.5313055790961698
 20
111.0998311952437945
 30
0.0
 11
3906.4912044270959086
 21
111.0998311952437945
 31
0.0
  0
ARC
  5
16018
  8
0
 10
3906.5313055790961698
 20
111.0211311952437967
 30
0.0
 40
0.0787
 50
359.9999999999976126
 51
90.0
  0
ARC
  5
16019
  8
0
 10
3904.452435915668957
 20
115.6222863235978053
 30
0.0
 40
2.165443733419286
 50
340.3052611777582115
 51
0.012818355223488
  0
ARC
  5
1601A
  8
0
 10
3904.3442575476469756
 20
-5489.4708379448802589
 30
0.0
 40
5602.9277290252748571
 50
90.0009863660119578
 51
90.0011071503087265
  0
ARC
  5
1601B
  8
0
 10
3906.6234511073557769
 20
112.0053240548863016
 30
0.0
 40
2.8902158301869831
 50
92.6225803177444931
 51
119.7125922688242952
  0
ARC
  5
1601C
  8
0
 10
3905.5507721000849415
 20
113.9272975631838989
 30
0.0
 40
0.6895847193564721
 50
121.4559812838277963
 51
168.2634787768785998
  0
ARC
  5
1601D
  8
0
 10
3903.5560855859989715
 20
114.7960481096703944
 30
0.0
 40
1.5072539147944291
 50
297.3177265185905753
 51
331.0977476848261745
  0
LINE
  5
1601E
  8
0
 10
3904.247800854696834
 20
113.4568902501239052
 30
0.0
 11
3904.247800854696834
 21
110.5486500929438023
 31
0.0
  0
LINE
  5
1601F
  8
0
 10
3906.6178795948972038
 20
116.0013855137437986
 30
0.0
 11
3906.6178795948972038
 21
115.6227707820867039
 31
0.0
  0
LINE
  5
16020
  8
0
 10
3907.0214061002247945
 20
116.1588855137437974
 30
0.0
 11
3904.2359898310960489
 21
116.1588855137437974
 31
0.0
  0
LINE
  5
16021
  8
0
 10
3907.2280767934012147
 20
116.6313255120438015
 30
0.0
 11
3907.1771522346130041
 21
116.2929464091729983
 31
0.0
  0
LINE
  5
16022
  8
0
 10
3907.2399268389967801
 20
116.6313255120438015
 30
0.0
 11
3904.2359898310960489
 21
116.6313255120438015
 31
0.0
  0
LINE
  5
16023
  8
0
 10
3907.2399268389967801
 20
116.6313255120438015
 30
0.0
 11
3907.2543581926970546
 21
117.4580971655438049
 31
0.0
  0
ARC
  5
16024
  8
0
 10
3907.0214061002247945
 20
116.3163855137437963
 30
0.0
 40
0.1575
 50
270.0
 51
351.4414666819300237
  0
ARC
  5
16025
  8
0
 10
3906.7753795948970037
 20
116.0013855137437986
 30
0.0
 40
0.1575
 50
90.0
 51
179.9999999999974989
  0
LINE
  5
16026
  8
0
 10
3908.0158031775968084
 20
118.0486971655437998
 30
0.0
 11
3908.0158031775968084
 21
128.2656022836436875
 31
0.0
  0
ARC
  5
16027
  8
0
 10
3907.425203177595904
 20
118.0486971655437998
 30
0.0
 40
0.5906000000000001
 50
270.0
 51
0.0
  0
LINE
  5
16028
  8
0
 10
3904.3541000672971677
 20
116.985656220743806
 30
0.0
 11
3904.2359898310960489
 21
116.985656220743806
 31
0.0
  0
LINE
  5
16029
  8
0
 10
3904.3541000672971677
 20
116.985656220743806
 30
0.0
 11
3904.3541000672971677
 21
117.851797952943798
 31
0.0
  0
LINE
  5
1602A
  8
0
 10
3905.2202417995968062
 20
118.8360499214438022
 30
0.0
 11
3904.3541000672971677
 21
117.851797952943798
 31
0.0
  0
LINE
  5
1602B
  8
0
 10
3905.2202417995968062
 20
118.8360499214438022
 30
0.0
 11
3905.2202417995968062
 21
118.9541601577438001
 31
0.0
  0
LINE
  5
1602C
  8
0
 10
3905.2403954645042177
 20
118.9541601577438001
 30
0.0
 11
3904.2359898310960489
 21
118.9541601577438001
 31
0.0
  0
LINE
  5
1602D
  8
0
 10
3905.2994932141568825
 20
118.8955758959941988
 30
0.0
 11
3905.3075978033530191
 21
117.9668819646534956
 31
0.0
  0
ARC
  5
1602E
  8
0
 10
3905.2403954645042177
 20
118.8950601577437993
 30
0.0
 40
0.0591
 50
0.5000000024106503
 51
90.0
  0
LINE
  5
1602F
  8
0
 10
3904.6631551853961355
 20
117.7717993468477999
 30
0.0
 11
3906.9840213271968423
 21
117.7717993468477999
 31
0.0
  0
LINE
  5
16030
  8
0
 10
3904.6237551853960213
 20
117.6549475592437943
 30
0.0
 11
3904.3541000672971677
 21
117.6549475592437943
 31
0.0
  0
LINE
  5
16031
  8
0
 10
3904.6631551853961355
 20
117.6943475592437949
 30
0.0
 11
3904.6631551853961355
 21
118.2029969507765941
 31
0.0
  0
ARC
  5
16032
  8
0
 10
3904.6237551853960213
 20
117.6943475592436954
 30
0.0
 40
0.0394
 50
270.0
 51
0.0000000000105849
  0
ARC
  5
16033
  8
0
 10
3905.5043903098121518
 20
117.9685993468478955
 30
0.0
 40
0.1968
 50
180.5000000024097915
 51
270.0
  0
LINE
  5
16034
  8
0
 10
3905.3304780200969617
 20
117.4580971655438049
 30
0.0
 11
3905.3304780200969617
 21
117.7717993468477999
 31
0.0
  0
LINE
  5
16035
  8
0
 10
3905.4092181775968129
 20
117.4580971655438049
 30
0.0
 11
3905.4092181775968129
 21
117.7717993468477999
 31
0.0
  0
LINE
  5
16036
  8
0
 10
3905.3304780200969617
 20
119.2297507088437953
 30
0.0
 11
3904.2359898310960489
 21
119.2297507088437953
 31
0.0
  0
LINE
  5
16037
  8
0
 10
3905.4092181775968129
 20
119.2297507088437953
 30
0.0
 11
3906.708421327196902
 21
119.2297507088437953
 31
0.0
  0
LINE
  5
16038
  8
0
 10
3905.3304780200969617
 20
119.2297507088437953
 30
0.0
 11
3905.3304780200969617
 21
128.2656022836436875
 31
0.0
  0
LINE
  5
16039
  8
0
 10
3905.4092181775968129
 20
119.2297507088437953
 30
0.0
 11
3905.4092181775968129
 21
128.2656022836436875
 31
0.0
  0
LINE
  5
1603A
  8
0
 10
3906.9840213271968423
 20
117.4580971655438049
 30
0.0
 11
3906.9840213271968423
 21
118.9541507088437982
 31
0.0
  0
ARC
  5
1603B
  8
0
 10
3906.708421327196902
 20
118.9541507088437982
 30
0.0
 40
0.2756
 50
0.0
 51
90.0
  0
LINE
  5
1603C
  8
0
 10
3904.5915862285969524
 20
136.5277719070438138
 30
0.0
 11
3905.2804878033962268
 21
136.5277719070438138
 31
0.0
  0
LINE
  5
1603D
  8
0
 10
3905.3789878033958303
 20
136.5277719070438138
 30
0.0
 11
3906.5994303230968399
 21
136.553000622912009
 31
0.0
  0
LINE
  5
1603E
  8
0
 10
3904.5915862285969524
 20
135.8978506471437981
 30
0.0
 11
3905.2804878033962268
 21
135.8978506471437981
 31
0.0
  0
LINE
  5
1603F
  8
0
 10
3905.3789878033958303
 20
135.8978506471437981
 30
0.0
 11
3906.5994303230968399
 21
135.8726112431438935
 31
0.0
  0
LINE
  5
16040
  8
0
 10
3905.3395878033961708
 20
135.9372506471437987
 30
0.0
 11
3905.3395878033961708
 21
136.4883719070438133
 31
0.0
  0
LINE
  5
16041
  8
0
 10
3904.5521862285968382
 20
136.4883719070438133
 30
0.0
 11
3904.5521862285968382
 21
135.9372506471437987
 31
0.0
  0
ARC
  5
16042
  8
0
 10
3904.5915862285969524
 20
136.4883719070438133
 30
0.0
 40
0.0394
 50
90.0
 51
179.9999999999967031
  0
ARC
  5
16043
  8
0
 10
3904.5915862285969524
 20
135.9372506471437987
 30
0.0
 40
0.0394
 50
180.0000000000007958
 51
270.0
  0
ARC
  5
16044
  8
0
 10
3905.2804878033962268
 20
135.956950647143799
 30
0.0
 40
0.0591
 50
270.0
 51
359.9999999999992042
  0
ARC
  5
16045
  8
0
 10
3905.2804878033962268
 20
136.468671907043813
 30
0.0
 40
0.0591
 50
0.0
 51
90.0
  0
ARC
  5
16046
  8
0
 10
3905.3789878033958303
 20
136.4883719070438133
 30
0.0
 40
0.0394
 50
90.0
 51
180.0000000000081002
  0
ARC
  5
16047
  8
0
 10
3905.3789878033958303
 20
135.9372506471437987
 30
0.0
 40
0.0394
 50
179.9999999999926104
 51
270.0
  0
LINE
  5
16048
  8
0
 10
3905.0640271734969247
 20
136.2715997161818109
 30
0.0
 11
3905.2807998388461783
 21
136.2715997161818109
 31
0.0
  0
LINE
  5
16049
  8
0
 10
3905.0640271734969247
 20
136.1540237870815986
 30
0.0
 11
3905.2807998388461783
 21
136.1540237870815986
 31
0.0
  0
LINE
  5
1604A
  8
0
 10
3905.0246271734959009
 20
136.2564122100251041
 30
0.0
 11
3905.0246271734959009
 21
136.169185557644397
 31
0.0
  0
LINE
  5
1604B
  8
0
 10
3904.9852570946968626
 20
136.0259014903797095
 30
0.0
 11
3904.9852570946968626
 21
136.3998766194420114
 31
0.0
  0
LINE
  5
1604C
  8
0
 10
3905.012839777381032
 20
136.3236389624198068
 30
0.0
 11
3904.9852570946968626
 21
136.3998766194420114
 31
0.0
  0
LINE
  5
1604D
  8
0
 10
3905.0127886938839765
 20
136.101817779416109
 30
0.0
 11
3904.9852570946968626
 21
136.0259014903797095
 31
0.0
  0
ARC
  5
1604E
  8
0
 10
3904.8270271734959351
 20
136.2564122100251041
 30
0.0
 40
0.1976
 50
359.9999999999919282
 51
19.890056329038039
  0
ARC
  5
1604F
  8
0
 10
3904.8270271734959351
 20
136.169185557644397
 30
0.0
 40
0.1976
 50
340.0664520274576716
 51
0.0000000000065138
  0
ARC
  5
16050
  8
0
 10
3905.0640271734969247
 20
136.2321997161818103
 30
0.0
 40
0.0394
 50
90.0
 51
180.0000000000129887
  0
ARC
  5
16051
  8
0
 10
3905.0640271734969247
 20
136.1934237870815991
 30
0.0
 40
0.0394
 50
179.9999999999926104
 51
270.0
  0
ARC
  5
16052
  8
0
 10
3905.2807998388461783
 20
136.2128117516317047
 30
0.0
 40
0.0587879645500844
 50
270.0
 51
90.0
  0
LINE
  5
16053
  8
0
 10
3904.5521862285968382
 20
136.4096616707437875
 30
0.0
 11
3904.2359898310960489
 21
136.4096616707437875
 31
0.0
  0
LINE
  5
16054
  8
0
 10
3904.5521862285968382
 20
136.0159608833438085
 30
0.0
 11
3904.2359898310960489
 21
136.0159608833438085
 31
0.0
  0
LINE
  5
16055
  8
0
 10
3906.6781303230968661
 20
134.7954727115437947
 30
0.0
 11
3908.4891941025957749
 21
134.7954727115437095
 31
0.0
  0
LINE
  5
16056
  8
0
 10
3906.5994303230968399
 20
136.7824410504740911
 30
0.0
 11
3906.5994303230968399
 21
134.8741727115437925
 31
0.0
  0
LINE
  5
16057
  8
0
 10
3908.4104941025962034
 20
136.7639766485438031
 30
0.0
 11
3906.5994303230968399
 21
136.7639766485438031
 31
0.0
  0
LINE
  5
16058
  8
0
 10
3908.4891941025957749
 20
133.5935042075437877
 30
0.0
 11
3908.4891941025957749
 21
136.6852766485436916
 31
0.0
  0
LINE
  5
16059
  8
0
 10
3908.4104539450959237
 20
133.5935042075437877
 30
0.0
 11
3908.4104539450959237
 21
134.7954727115437947
 31
0.0
  0
LINE
  5
1605A
  8
0
 10
3908.4104539450959237
 20
133.5935042075437877
 30
0.0
 11
3908.4891941025957749
 21
133.5935042075437877
 31
0.0
  0
ARC
  5
1605B
  8
0
 10
3908.4104941025962034
 20
136.6852766485436916
 30
0.0
 40
0.0787
 50
359.9999999999976126
 51
90.0
  0
ARC
  5
1605C
  8
0
 10
3906.6781303230968661
 20
134.8741727115437925
 30
0.0
 40
0.0787
 50
180.0
 51
270.0
  0
LINE
  5
1605D
  8
0
 10
3908.0158031775968084
 20
133.6537404280437897
 30
0.0
 11
3908.4104539450959237
 21
133.6537404280437897
 31
0.0
  0
LINE
  5
1605E
  8
0
 10
3908.0158031775968084
 20
133.6537404280437897
 30
0.0
 11
3907.8595798876131084
 21
134.7954727115437095
 31
0.0
  0
LINE
  5
1605F
  8
0
 10
3904.8779251710598146
 20
136.8425634605455059
 30
0.0
 11
3904.2372255986961136
 21
136.8425634605455059
 31
0.0
  0
LINE
  5
16060
  8
0
 10
3904.8779251710598146
 20
136.8642387801388907
 30
0.0
 11
3905.9408439375588387
 21
136.8380498100023885
 31
0.0
  0
LINE
  5
16061
  8
0
 10
3905.9408439375588387
 20
136.8380498100023885
 30
0.0
 11
3905.9408439375588387
 21
136.7986677833229123
 31
0.0
  0
LINE
  5
16062
  8
0
 10
3907.3488358776071436
 20
136.7639766485438031
 30
0.0
 11
3904.2359898310960489
 21
136.8406732251893061
 31
0.0
  0
LINE
  5
16063
  8
0
 10
3904.8779251710598146
 20
136.8642387801388907
 30
0.0
 11
3904.8779251710598146
 21
136.8248567529747106
 31
0.0
  0
LINE
  5
16064
  8
0
 10
3907.9957963664969611
 20
136.8426960802495103
 30
0.0
 11
3905.7522680671017952
 21
136.8426960802495103
 31
0.0
  0
LINE
  5
16065
  8
0
 10
3907.9957963664969611
 20
136.8426960802495103
 30
0.0
 11
3907.9957963664969611
 21
136.7874183887784056
 31
0.0
  0
ARC
  5
16066
  8
0
 10
3909.4049404535039685
 20
127.6662880157156934
 30
0.0
 40
1.972343916352254
 50
151.1353655316760864
 51
162.3104737695501001
  0
ARC
  5
16067
  8
0
 10
3907.5137531590780782
 20
128.7086875724938011
 30
0.0
 40
0.1870972746716424
 50
331.153973549786997
 51
0.5260633590646974
  0
LINE
  5
16068
  8
0
 10
3907.7008425475969489
 20
128.2656022836438012
 30
0.0
 11
3907.7008425475969489
 21
129.0530038584437875
 31
0.0
  0
LINE
  5
16069
  8
0
 10
3904.2372255986961136
 20
128.7774133073438065
 30
0.0
 11
3904.5706355003972021
 21
128.7774133073438065
 31
0.0
  0
LINE
  5
1606A
  8
0
 10
3904.5706355003972021
 20
128.7774133073438065
 30
0.0
 11
3904.5706355003972021
 21
128.4219816916437935
 31
0.0
  0
LINE
  5
1606B
  8
0
 10
3904.5706355003972021
 20
128.4219816916437935
 30
0.0
 11
3904.2372255986961136
 21
128.4219816916437935
 31
0.0
  0
LINE
  5
1606C
  8
0
 10
3904.2497693586969945
 20
130.8438837801438126
 30
0.0
 11
3904.2497693586969945
 21
132.4975475596438059
 31
0.0
  0
LINE
  5
1606D
  8
0
 10
3904.3284693586961112
 20
130.7651837801437864
 30
0.0
 11
3905.5490221145969372
 21
130.7651837801437864
 31
0.0
  0
LINE
  5
1606E
  8
0
 10
3905.6277221145969634
 20
130.6077436226437953
 30
0.0
 11
3905.6277221145969634
 21
130.8438837801436989
 31
0.0
  0
ARC
  5
1606F
  8
0
 10
3904.3284693586961112
 20
130.8438837801438126
 30
0.0
 40
0.0787
 50
180.0
 51
270.0
  0
ARC
  5
16070
  8
0
 10
3905.5490221145969372
 20
130.8438837801436989
 30
0.0
 40
0.0787
 50
270.0
 51
0.0000000000048853
  0
LINE
  5
16071
  8
0
 10
3905.5490221145969372
 20
130.6864436226437931
 30
0.0
 11
3904.2359898310960489
 21
130.6864436226437931
 31
0.0
  0
ARC
  5
16072
  8
0
 10
3905.5490221145969372
 20
130.6077436226437953
 30
0.0
 40
0.0787
 50
0.0
 51
90.0
  0
LINE
  5
16073
  8
0
 10
3905.6277221145969634
 20
130.6077436226437953
 30
0.0
 11
3904.2359898310960489
 21
130.6077436226437953
 31
0.0
  0
LINE
  5
16074
  8
0
 10
3905.6277221145969634
 20
130.8438837801436989
 30
0.0
 11
3904.2497693586969945
 21
130.8438837801436989
 31
0.0
  0
LINE
  5
16075
  8
0
 10
3904.3284693586961112
 20
132.57624755964369
 30
0.0
 11
3905.5490221145969372
 21
132.57624755964369
 31
0.0
  0
LINE
  5
16076
  8
0
 10
3905.6277221145969634
 20
132.7336877171437948
 30
0.0
 11
3905.6277221145969634
 21
132.4975475596438059
 31
0.0
  0
ARC
  5
16077
  8
0
 10
3904.3284693586961112
 20
132.4975475596438059
 30
0.0
 40
0.0787
 50
90.0
 51
180.0
  0
ARC
  5
16078
  8
0
 10
3905.5490221145969372
 20
132.4975475596438059
 30
0.0
 40
0.0787
 50
359.9999999999943157
 51
90.0
  0
LINE
  5
16079
  8
0
 10
3905.5490221145969372
 20
132.654987717143797
 30
0.0
 11
3904.2359898310960489
 21
132.654987717143797
 31
0.0
  0
ARC
  5
1607A
  8
0
 10
3905.5490221145969372
 20
132.7336877171437948
 30
0.0
 40
0.0787
 50
270.0
 51
0.0
  0
LINE
  5
1607B
  8
0
 10
3905.6277221145969634
 20
132.7336877171437948
 30
0.0
 11
3904.2359898310960489
 21
132.7336877171437948
 31
0.0
  0
LINE
  5
1607C
  8
0
 10
3905.6277221145969634
 20
132.4975475596438059
 30
0.0
 11
3904.2497693586969945
 21
132.4975475596438059
 31
0.0
  0
LINE
  5
1607D
  8
0
 10
3904.4466197523961455
 20
128.7774133073438065
 30
0.0
 11
3904.4466197523961455
 21
128.6514290553438116
 31
0.0
  0
LINE
  5
1607E
  8
0
 10
3902.3658751066968762
 20
130.0491188191438141
 30
0.0
 11
3902.3658751066968762
 21
134.9861266931438024
 31
0.0
  0
LINE
  5
1607F
  8
0
 10
3902.3658751066968762
 20
130.0491188191438141
 30
0.0
 11
3902.3855601460968501
 21
130.0491188191438141
 31
0.0
  0
LINE
  5
16080
  8
0
 10
3902.3855601460968501
 20
130.0491188191438141
 30
0.0
 11
3902.5627255003969367
 21
130.143607008143789
 31
0.0
  0
LINE
  5
16081
  8
0
 10
3902.3855601460968501
 20
130.2216524861437961
 30
0.0
 11
3902.5477932752869492
 21
130.135643154748692
 31
0.0
  0
LINE
  5
16082
  8
0
 10
3902.3658751066968762
 20
130.2216524861437961
 30
0.0
 11
3902.3855601460968501
 21
130.2216524861437961
 31
0.0
  0
LINE
  5
16083
  8
0
 10
3902.5627255003969367
 20
134.9861266931438024
 30
0.0
 11
3902.6611866814969289
 21
134.9861266931438024
 31
0.0
  0
LINE
  5
16084
  8
0
 10
3902.6611866814969289
 20
130.0491188191438141
 30
0.0
 11
3902.5627255003969367
 21
130.0491188191438141
 31
0.0
  0
LINE
  5
16085
  8
0
 10
3902.5627255003969367
 20
130.0491188191438141
 30
0.0
 11
3902.5627255003969367
 21
134.9861266931438024
 31
0.0
  0
LINE
  5
16086
  8
0
 10
3902.3855601460968501
 20
130.2216524861437961
 30
0.0
 11
3902.3855601460968501
 21
134.813593026143792
 31
0.0
  0
LINE
  5
16087
  8
0
 10
3902.3658751066968762
 20
134.9861266931438024
 30
0.0
 11
3902.3855601460968501
 21
134.9861266931438024
 31
0.0
  0
LINE
  5
16088
  8
0
 10
3902.3855601460968501
 20
134.9861266931438024
 30
0.0
 11
3902.5627255003969367
 21
134.8916385041437138
 31
0.0
  0
LINE
  5
16089
  8
0
 10
3902.3855601460968501
 20
134.813593026143792
 30
0.0
 11
3902.5477932752869492
 21
134.8996023575388108
 31
0.0
  0
LINE
  5
1608A
  8
0
 10
3902.3658751066968762
 20
134.813593026143792
 30
0.0
 11
3902.3855601460968501
 21
134.813593026143792
 31
0.0
  0
LINE
  5
1608B
  8
0
 10
3902.1690247129968157
 20
130.0491188191438141
 30
0.0
 11
3902.1690247129968157
 21
134.9861266931438024
 31
0.0
  0
LINE
  5
1608C
  8
0
 10
3902.1690247129968157
 20
130.0491188191438141
 30
0.0
 11
3902.1887097523967896
 21
130.0491188191438141
 31
0.0
  0
LINE
  5
1608D
  8
0
 10
3902.1887097523967896
 20
130.0491188191438141
 30
0.0
 11
3902.3658751066968762
 21
130.143607008143789
 31
0.0
  0
LINE
  5
1608E
  8
0
 10
3902.1887097523967896
 20
130.2216524861437961
 30
0.0
 11
3902.3509428815868887
 21
130.135643154748692
 31
0.0
  0
LINE
  5
1608F
  8
0
 10
3902.1690247129968157
 20
130.2216524861437961
 30
0.0
 11
3902.1887097523967896
 21
130.2216524861437961
 31
0.0
  0
LINE
  5
16090
  8
0
 10
3902.1887097523967896
 20
130.2216524861437961
 30
0.0
 11
3902.1887097523967896
 21
134.813593026143792
 31
0.0
  0
LINE
  5
16091
  8
0
 10
3902.1690247129968157
 20
134.9861266931438024
 30
0.0
 11
3902.1887097523967896
 21
134.9861266931438024
 31
0.0
  0
LINE
  5
16092
  8
0
 10
3902.1887097523967896
 20
134.9861266931438024
 30
0.0
 11
3902.3658751066968762
 21
134.8916385041437138
 31
0.0
  0
LINE
  5
16093
  8
0
 10
3902.1887097523967896
 20
134.813593026143792
 30
0.0
 11
3902.3509428815868887
 21
134.8996023575388108
 31
0.0
  0
LINE
  5
16094
  8
0
 10
3902.1690247129968157
 20
134.813593026143792
 30
0.0
 11
3902.1887097523967896
 21
134.813593026143792
 31
0.0
  0
LINE
  5
16095
  8
0
 10
3901.9721743192972099
 20
130.0491188191438141
 30
0.0
 11
3901.9721743192972099
 21
134.9861266931438024
 31
0.0
  0
LINE
  5
16096
  8
0
 10
3901.9721743192972099
 20
130.0491188191438141
 30
0.0
 11
3901.9918593586971838
 21
130.0491188191438141
 31
0.0
  0
LINE
  5
16097
  8
0
 10
3901.9918593586971838
 20
130.0491188191438141
 30
0.0
 11
3902.1690247129968157
 21
130.143607008143789
 31
0.0
  0
LINE
  5
16098
  8
0
 10
3901.9918593586971838
 20
130.2216524861437961
 30
0.0
 11
3902.1540924878868282
 21
130.135643154748692
 31
0.0
  0
LINE
  5
16099
  8
0
 10
3901.9721743192972099
 20
130.2216524861437961
 30
0.0
 11
3901.9918593586971838
 21
130.2216524861437961
 31
0.0
  0
LINE
  5
1609A
  8
0
 10
3901.9918593586971838
 20
130.2216524861437961
 30
0.0
 11
3901.9918593586971838
 21
134.813593026143792
 31
0.0
  0
LINE
  5
1609B
  8
0
 10
3901.9721743192972099
 20
134.9861266931438024
 30
0.0
 11
3901.9918593586971838
 21
134.9861266931438024
 31
0.0
  0
LINE
  5
1609C
  8
0
 10
3901.9918593586971838
 20
134.9861266931438024
 30
0.0
 11
3902.1690247129968157
 21
134.8916385041437138
 31
0.0
  0
LINE
  5
1609D
  8
0
 10
3901.9918593586971838
 20
134.813593026143792
 30
0.0
 11
3902.1540924878868282
 21
134.8996023575388108
 31
0.0
  0
LINE
  5
1609E
  8
0
 10
3901.9721743192972099
 20
134.813593026143792
 30
0.0
 11
3901.9918593586971838
 21
134.813593026143792
 31
0.0
  0
LINE
  5
1609F
  8
0
 10
3901.7753239255957851
 20
130.0491188191438141
 30
0.0
 11
3901.7753239255957851
 21
134.9861266931438024
 31
0.0
  0
LINE
  5
160A0
  8
0
 10
3901.7753239255957851
 20
130.0491188191438141
 30
0.0
 11
3901.7950089649971233
 21
130.0491188191438141
 31
0.0
  0
LINE
  5
160A1
  8
0
 10
3901.7950089649971233
 20
130.0491188191438141
 30
0.0
 11
3901.9721743192972099
 21
130.143607008143789
 31
0.0
  0
LINE
  5
160A2
  8
0
 10
3901.7950089649971233
 20
130.2216524861437961
 30
0.0
 11
3901.9572420941872224
 21
130.135643154748692
 31
0.0
  0
LINE
  5
160A3
  8
0
 10
3901.7753239255957851
 20
130.2216524861437961
 30
0.0
 11
3901.7950089649971233
 21
130.2216524861437961
 31
0.0
  0
LINE
  5
160A4
  8
0
 10
3901.7950089649971233
 20
130.2216524861437961
 30
0.0
 11
3901.7950089649971233
 21
134.813593026143792
 31
0.0
  0
LINE
  5
160A5
  8
0
 10
3901.7753239255957851
 20
134.9861266931438024
 30
0.0
 11
3901.7950089649971233
 21
134.9861266931438024
 31
0.0
  0
LINE
  5
160A6
  8
0
 10
3901.7950089649971233
 20
134.9861266931438024
 30
0.0
 11
3901.9721743192972099
 21
134.8916385041437138
 31
0.0
  0
LINE
  5
160A7
  8
0
 10
3901.7950089649971233
 20
134.813593026143792
 30
0.0
 11
3901.9572420941872224
 21
134.8996023575388108
 31
0.0
  0
LINE
  5
160A8
  8
0
 10
3901.7753239255957851
 20
134.813593026143792
 30
0.0
 11
3901.7950089649971233
 21
134.813593026143792
 31
0.0
  0
LINE
  5
160A9
  8
0
 10
3901.5784735318961793
 20
130.0491188191438141
 30
0.0
 11
3901.5784735318961793
 21
134.9861266931438024
 31
0.0
  0
LINE
  5
160AA
  8
0
 10
3901.5784735318961793
 20
130.0491188191438141
 30
0.0
 11
3901.5981585712961532
 21
130.0491188191438141
 31
0.0
  0
LINE
  5
160AB
  8
0
 10
3901.5981585712961532
 20
130.0491188191438141
 30
0.0
 11
3901.7753239255957851
 21
130.143607008143789
 31
0.0
  0
LINE
  5
160AC
  8
0
 10
3901.5981585712961532
 20
130.2216524861437961
 30
0.0
 11
3901.7603917004871619
 21
130.135643154748692
 31
0.0
  0
LINE
  5
160AD
  8
0
 10
3901.5784735318961793
 20
130.2216524861437961
 30
0.0
 11
3901.5981585712961532
 21
130.2216524861437961
 31
0.0
  0
LINE
  5
160AE
  8
0
 10
3901.5981585712961532
 20
130.2216524861437961
 30
0.0
 11
3901.5981585712961532
 21
134.813593026143792
 31
0.0
  0
LINE
  5
160AF
  8
0
 10
3901.5784735318961793
 20
134.9861266931438024
 30
0.0
 11
3901.5981585712961532
 21
134.9861266931438024
 31
0.0
  0
LINE
  5
160B0
  8
0
 10
3901.5981585712961532
 20
134.9861266931438024
 30
0.0
 11
3901.7753239255957851
 21
134.8916385041437138
 31
0.0
  0
LINE
  5
160B1
  8
0
 10
3901.5981585712961532
 20
134.813593026143792
 30
0.0
 11
3901.7603917004871619
 21
134.8996023575388108
 31
0.0
  0
LINE
  5
160B2
  8
0
 10
3901.5784735318961793
 20
134.813593026143792
 30
0.0
 11
3901.5981585712961532
 21
134.813593026143792
 31
0.0
  0
LINE
  5
160B3
  8
0
 10
3901.3816231381961188
 20
130.0491188191438141
 30
0.0
 11
3901.3816231381961188
 21
134.9861266931438024
 31
0.0
  0
LINE
  5
160B4
  8
0
 10
3901.3816231381961188
 20
130.0491188191438141
 30
0.0
 11
3901.4013081775970022
 21
130.0491188191438141
 31
0.0
  0
LINE
  5
160B5
  8
0
 10
3901.4013081775970022
 20
130.0491188191438141
 30
0.0
 11
3901.5784735318961793
 21
130.143607008143789
 31
0.0
  0
LINE
  5
160B6
  8
0
 10
3901.4013081775970022
 20
130.2216524861437961
 30
0.0
 11
3901.5635413067871013
 21
130.135643154748692
 31
0.0
  0
LINE
  5
160B7
  8
0
 10
3901.3816231381961188
 20
130.2216524861437961
 30
0.0
 11
3901.4013081775970022
 21
130.2216524861437961
 31
0.0
  0
LINE
  5
160B8
  8
0
 10
3901.4013081775970022
 20
130.2216524861437961
 30
0.0
 11
3901.4013081775970022
 21
134.813593026143792
 31
0.0
  0
LINE
  5
160B9
  8
0
 10
3901.3816231381961188
 20
134.9861266931438024
 30
0.0
 11
3901.4013081775970022
 21
134.9861266931438024
 31
0.0
  0
LINE
  5
160BA
  8
0
 10
3901.4013081775970022
 20
134.9861266931438024
 30
0.0
 11
3901.5784735318961793
 21
134.8916385041437138
 31
0.0
  0
LINE
  5
160BB
  8
0
 10
3901.4013081775970022
 20
134.813593026143792
 30
0.0
 11
3901.5635413067871013
 21
134.8996023575388108
 31
0.0
  0
LINE
  5
160BC
  8
0
 10
3901.3816231381961188
 20
134.813593026143792
 30
0.0
 11
3901.4013081775970022
 21
134.813593026143792
 31
0.0
  0
LINE
  5
160BD
  8
0
 10
3901.1847727444960583
 20
130.0521449761129134
 30
0.0
 11
3901.1847727444960583
 21
134.9891528501129017
 31
0.0
  0
LINE
  5
160BE
  8
0
 10
3901.1847727444960583
 20
130.0521449761129134
 30
0.0
 11
3901.2044577838960322
 21
130.0521449761129134
 31
0.0
  0
LINE
  5
160BF
  8
0
 10
3901.2044577838960322
 20
130.0521449761129134
 30
0.0
 11
3901.3816231381961188
 21
130.1466331651128883
 31
0.0
  0
LINE
  5
160C0
  8
0
 10
3901.2044577838960322
 20
130.2246786431128953
 30
0.0
 11
3901.3666909130870408
 21
130.1386693117177913
 31
0.0
  0
LINE
  5
160C1
  8
0
 10
3901.1847727444960583
 20
130.2246786431128953
 30
0.0
 11
3901.2044577838960322
 21
130.2246786431128953
 31
0.0
  0
LINE
  5
160C2
  8
0
 10
3901.2044577838960322
 20
130.2246786431128953
 30
0.0
 11
3901.2044577838960322
 21
134.8166191831128913
 31
0.0
  0
LINE
  5
160C3
  8
0
 10
3901.1847727444960583
 20
134.9891528501129017
 30
0.0
 11
3901.2044577838960322
 21
134.9891528501129017
 31
0.0
  0
LINE
  5
160C4
  8
0
 10
3901.2044577838960322
 20
134.9891528501129017
 30
0.0
 11
3901.3816231381961188
 21
134.8946646611128131
 31
0.0
  0
LINE
  5
160C5
  8
0
 10
3901.2044577838960322
 20
134.8166191831128913
 30
0.0
 11
3901.3666909130870408
 21
134.90262851450791
 31
0.0
  0
LINE
  5
160C6
  8
0
 10
3901.1847727444960583
 20
134.8166191831128913
 30
0.0
 11
3901.2044577838960322
 21
134.8166191831128913
 31
0.0
  0
LINE
  5
160C7
  8
0
 10
3900.9879223507969073
 20
130.0491188191438141
 30
0.0
 11
3900.9879223507969073
 21
134.9861266931438024
 31
0.0
  0
LINE
  5
160C8
  8
0
 10
3900.9879223507969073
 20
130.0491188191438141
 30
0.0
 11
3901.0076073901968812
 21
130.0491188191438141
 31
0.0
  0
LINE
  5
160C9
  8
0
 10
3901.0076073901968812
 20
130.0491188191438141
 30
0.0
 11
3901.1847727444960583
 21
130.143607008143789
 31
0.0
  0
LINE
  5
160CA
  8
0
 10
3901.0076073901968812
 20
130.2216524861437961
 30
0.0
 11
3901.1698405193869803
 21
130.135643154748692
 31
0.0
  0
LINE
  5
160CB
  8
0
 10
3900.9879223507969073
 20
130.2216524861437961
 30
0.0
 11
3901.0076073901968812
 21
130.2216524861437961
 31
0.0
  0
LINE
  5
160CC
  8
0
 10
3901.0076073901968812
 20
130.2216524861437961
 30
0.0
 11
3901.0076073901968812
 21
134.813593026143792
 31
0.0
  0
LINE
  5
160CD
  8
0
 10
3900.9879223507969073
 20
134.9861266931438024
 30
0.0
 11
3901.0076073901968812
 21
134.9861266931438024
 31
0.0
  0
LINE
  5
160CE
  8
0
 10
3901.0076073901968812
 20
134.9861266931438024
 30
0.0
 11
3901.1847727444960583
 21
134.8916385041437138
 31
0.0
  0
LINE
  5
160CF
  8
0
 10
3901.0076073901968812
 20
134.813593026143792
 30
0.0
 11
3901.1698405193869803
 21
134.8996023575388108
 31
0.0
  0
LINE
  5
160D0
  8
0
 10
3900.9879223507969073
 20
134.813593026143792
 30
0.0
 11
3901.0076073901968812
 21
134.813593026143792
 31
0.0
  0
LINE
  5
160D1
  8
0
 10
3900.7910719570968467
 20
130.0491188191438141
 30
0.0
 11
3900.7910719570968467
 21
134.9861266931438024
 31
0.0
  0
LINE
  5
160D2
  8
0
 10
3900.7910719570968467
 20
130.0491188191438141
 30
0.0
 11
3900.8107569964968206
 21
130.0491188191438141
 31
0.0
  0
LINE
  5
160D3
  8
0
 10
3900.8107569964968206
 20
130.0491188191438141
 30
0.0
 11
3900.9879223507969073
 21
130.143607008143789
 31
0.0
  0
LINE
  5
160D4
  8
0
 10
3900.8107569964968206
 20
130.2216524861437961
 30
0.0
 11
3900.9729901256869198
 21
130.135643154748692
 31
0.0
  0
LINE
  5
160D5
  8
0
 10
3900.7910719570968467
 20
130.2216524861437961
 30
0.0
 11
3900.8107569964968206
 21
130.2216524861437961
 31
0.0
  0
LINE
  5
160D6
  8
0
 10
3900.8107569964968206
 20
130.2216524861437961
 30
0.0
 11
3900.8107569964968206
 21
134.813593026143792
 31
0.0
  0
LINE
  5
160D7
  8
0
 10
3900.7910719570968467
 20
134.9861266931438024
 30
0.0
 11
3900.8107569964968206
 21
134.9861266931438024
 31
0.0
  0
LINE
  5
160D8
  8
0
 10
3900.8107569964968206
 20
134.9861266931438024
 30
0.0
 11
3900.9879223507969073
 21
134.8916385041437138
 31
0.0
  0
LINE
  5
160D9
  8
0
 10
3900.8107569964968206
 20
134.813593026143792
 30
0.0
 11
3900.9729901256869198
 21
134.8996023575388108
 31
0.0
  0
LINE
  5
160DA
  8
0
 10
3900.7910719570968467
 20
134.813593026143792
 30
0.0
 11
3900.8107569964968206
 21
134.813593026143792
 31
0.0
  0
LINE
  5
160DB
  8
0
 10
3900.5942215633967862
 20
130.0491188191438141
 30
0.0
 11
3900.5942215633967862
 21
134.9861266931438024
 31
0.0
  0
LINE
  5
160DC
  8
0
 10
3900.5942215633967862
 20
130.0491188191438141
 30
0.0
 11
3900.6139066027958506
 21
130.0491188191438141
 31
0.0
  0
LINE
  5
160DD
  8
0
 10
3900.6139066027958506
 20
130.0491188191438141
 30
0.0
 11
3900.7910719570968467
 21
130.143607008143789
 31
0.0
  0
LINE
  5
160DE
  8
0
 10
3900.6139066027958506
 20
130.2216524861437961
 30
0.0
 11
3900.7761397319868593
 21
130.135643154748692
 31
0.0
  0
LINE
  5
160DF
  8
0
 10
3900.5942215633967862
 20
130.2216524861437961
 30
0.0
 11
3900.6139066027958506
 21
130.2216524861437961
 31
0.0
  0
LINE
  5
160E0
  8
0
 10
3900.6139066027958506
 20
130.2216524861437961
 30
0.0
 11
3900.6139066027958506
 21
134.813593026143792
 31
0.0
  0
LINE
  5
160E1
  8
0
 10
3900.5942215633967862
 20
134.9861266931438024
 30
0.0
 11
3900.6139066027958506
 21
134.9861266931438024
 31
0.0
  0
LINE
  5
160E2
  8
0
 10
3900.6139066027958506
 20
134.9861266931438024
 30
0.0
 11
3900.7910719570968467
 21
134.8916385041437138
 31
0.0
  0
LINE
  5
160E3
  8
0
 10
3900.6139066027958506
 20
134.813593026143792
 30
0.0
 11
3900.7761397319868593
 21
134.8996023575388108
 31
0.0
  0
LINE
  5
160E4
  8
0
 10
3900.5942215633967862
 20
134.813593026143792
 30
0.0
 11
3900.6139066027958506
 21
134.813593026143792
 31
0.0
  0
LINE
  5
160E5
  8
0
 10
3900.3304420357972049
 20
135.3476913179437986
 30
0.0
 11
3900.3304420357972049
 21
129.5602897431438123
 31
0.0
  0
LINE
  5
160E6
  8
0
 10
3900.4170562089962004
 20
130.0491188191438141
 30
0.0
 11
3900.5942215633967862
 21
130.143607008143789
 31
0.0
  0
LINE
  5
160E7
  8
0
 10
3900.3304420357972049
 20
130.0491188191438141
 30
0.0
 11
3900.4170562089962004
 21
130.0491188191438141
 31
0.0
  0
LINE
  5
160E8
  8
0
 10
3900.4170562089962004
 20
130.2216524861437961
 30
0.0
 11
3900.5792893382831608
 21
130.1356431547509942
 31
0.0
  0
LINE
  5
160E9
  8
0
 10
3900.3304420357972049
 20
130.2216524861437961
 30
0.0
 11
3900.4170562089962004
 21
130.2216524861437961
 31
0.0
  0
LINE
  5
160EA
  8
0
 10
3900.2274854485071955
 20
129.5602897431438123
 30
0.0
 11
3900.3304420357972049
 21
129.5602897431438123
 31
0.0
  0
LINE
  5
160EB
  8
0
 10
3900.2279360203860961
 20
135.3476913179437133
 30
0.0
 11
3900.3304420357972049
 21
135.3476913179437986
 31
0.0
  0
ARC
  5
160EC
  8
0
 10
3915.0497305405619954
 20
132.7092375383946887
 30
0.0
 40
15.1680302974627796
 50
187.7300224152241981
 51
191.924095550724104
  0
ARC
  5
160ED
  8
0
 10
3900.915842970077847
 20
130.7907190274029006
 30
0.0
 40
0.9045282333787845
 50
179.9284782132550049
 51
187.7300224152241981
  0
ARC
  5
160EE
  8
0
 10
3906.7754056260350808
 20
130.7834045862356902
 30
0.0
 40
6.7640954546119927
 50
176.6034669799107917
 51
179.9284782132542091
  0
ARC
  5
160EF
  8
0
 10
3900.0657663367228452
 20
131.1816231775881931
 30
0.0
 40
0.0426493721685897
 50
134.8204551668274007
 51
176.6034669799099959
  0
ARC
  5
160F0
  8
0
 10
3899.6941300790181231
 20
131.3777752709225126
 30
0.0
 40
0.3797303255456934
 50
334.0944323968129197
 51
348.7361230687959051
  0
ARC
  5
160F1
  8
0
 10
3898.0746095789531864
 20
131.7073216139745
 30
0.0
 40
2.032436786779745
 50
348.5427022816710974
 51
1.079619857774073
  0
ARC
  5
160F2
  8
0
 10
3898.1789479248441239
 20
131.723916106942994
 30
0.0
 40
1.927859772210621
 50
0.6449437526938718
 51
12.6387121308491999
  0
ARC
  5
160F3
  8
0
 10
3899.6875069147818067
 20
132.0636919290982974
 30
0.0
 40
0.3815134420786104
 50
12.4185210116954892
 51
34.3400622376989517
  0
ARC
  5
160F4
  8
0
 10
3900.0451686399669597
 20
132.3167818024616906
 30
0.0
 40
0.0570368910044844
 50
180.2654631799962033
 51
221.6114266074299906
  0
ARC
  5
160F5
  8
0
 10
3853.6358901837488702
 20
126.2624623636131957
 30
0.0
 40
46.7459296511278168
 50
7.4412654426764719
 51
7.9512872468871034
  0
ARC
  5
160F6
  8
0
 10
3900.3950954378387905
 20
132.7835606994790965
 30
0.0
 40
0.4659092539527567
 50
174.8092961436086057
 51
186.7400249848479064
  0
ARC
  5
160F7
  8
0
 10
3916.2236914611139582
 20
132.285737021004195
 30
0.0
 40
16.3015401905123589
 50
169.2286863271685036
 51
178.101777748109896
  0
ARC
  5
160F8
  8
0
 10
3900.2274854485071955
 20
129.579189743143786
 30
0.0
 40
0.0189
 50
191.9240955507258093
 51
270.0
  0
ARC
  5
160F9
  8
0
 10
3900.2279360203860961
 20
135.3287913179437965
 30
0.0
 40
0.0189
 50
89.9999999999478888
 51
169.2286863272373125
  0
LINE
  5
160FA
  8
0
 10
3900.2119837466971148
 20
129.5799897431438126
 30
0.0
 11
3900.2119837466971148
 21
135.3279913179437983
 31
0.0
  0
ARC
  5
160FB
  8
0
 10
3900.2316837466960351
 20
129.5799897431438126
 30
0.0
 40
0.0197
 50
180.0000000000104876
 51
269.9999999999739089
  0
ARC
  5
160FC
  8
0
 10
3900.2316837466960351
 20
135.3279913179437983
 30
0.0
 40
0.0197
 50
90.0000000000260485
 51
180.0000000000104876
  0
ARC
  5
160FD
  8
0
 10
3900.2686362394038042
 20
131.0314257989346913
 30
0.0
 40
0.3224746013320676
 50
183.801484313791093
 51
217.1250876518793973
  0
ARC
  5
160FE
  8
0
 10
3912.9875276024840787
 20
132.1549299641920072
 30
0.0
 40
13.0908166324575603
 50
181.8032471896628977
 51
185.0173295696255025
  0
ARC
  5
160FF
  8
0
 10
3917.1465798898680077
 20
132.1773856911677001
 30
0.0
 40
17.2488567018327892
 50
179.0785086598602902
 51
181.4430713767596899
  0
ARC
  5
16100
  8
0
 10
3900.2414236974241248
 20
132.4712120474808046
 30
0.0
 40
0.341864472011737
 50
150.2503351441852999
 51
182.7536808152167964
  0
ARC
  5
16101
  8
0
 10
3900.0477405274600642
 20
131.4022512088446888
 30
0.0
 40
0.1761525827690197
 50
251.9211701685374862
 51
268.2266654537078239
  0
ARC
  5
16102
  8
0
 10
3900.0028213665509611
 20
131.2646487128725994
 30
0.0
 40
0.0314039112224145
 50
212.6674410087223919
 51
251.921170168537401
  0
ARC
  5
16103
  8
0
 10
3900.0354283866518017
 20
131.2855558911116987
 30
0.0
 40
0.0701379771309111
 50
178.2810785116755028
 51
212.6674410087209992
  0
ARC
  5
16104
  8
0
 10
3900.0428992077982002
 20
132.3729002825106136
 30
0.0
 40
1.1001099820754441
 50
267.7364335767289276
 51
270.8434588274366206
  0
ARC
  5
16105
  8
0
 10
3899.9956904946047871
 20
131.3130615493732876
 30
0.0
 40
0.0395916333819782
 50
208.043488062701698
 51
275.4471216710139174
  0
ARC
  5
16106
  8
0
 10
3900.5226731617090081
 20
131.5117587110196951
 30
0.0
 40
0.6024821168708813
 50
181.9002948425907107
 51
201.1427364424745861
  0
ARC
  5
16107
  8
0
 10
3902.4455368492231173
 20
131.7893883512288937
 30
0.0
 40
2.5424926079904582
 50
182.0730662436392038
 51
186.7220929485116017
  0
ARC
  5
16108
  8
0
 10
3900.0221272566359403
 20
132.0890528884428932
 30
0.0
 40
0.1761525827690197
 50
93.4090683866846234
 51
108.0788298314624001
  0
ARC
  5
16109
  8
0
 10
3899.9772080957268372
 20
132.226655384415011
 30
0.0
 40
0.0314039112224145
 50
108.0788298314626985
 51
147.3325589912776081
  0
ARC
  5
1610A
  8
0
 10
3900.0098151158281325
 20
132.205748206175798
 30
0.0
 40
0.0701379771309111
 50
147.3325589912790008
 51
181.7189214883244119
  0
ARC
  5
1610B
  8
0
 10
3900.0172859369740763
 20
131.1184038147769968
 30
0.0
 40
1.1001099820754441
 50
89.0113984085460146
 51
92.2635664232710866
  0
ARC
  5
1610C
  8
0
 10
3899.9700772237811179
 20
132.1782425479142944
 30
0.0
 40
0.0395916333819782
 50
84.5528783289860257
 51
151.956511937298302
  0
ARC
  5
1610D
  8
0
 10
3900.5375346196719875
 20
132.0105432908831062
 30
0.0
 40
0.6305545254306282
 50
162.8139933274175064
 51
179.1757055007367114
  0
ARC
  5
1610E
  8
0
 10
3897.429705974585886
 20
132.0486986423186124
 30
0.0
 40
2.4775100918138659
 50
355.7870522516747087
 51
359.3273754209960771
  0
LINE
  5
1610F
  8
0
 10
3900.5204026656369933
 20
130.1042369293438128
 30
0.0
 11
3900.5942215633967862
 21
130.1042369293438128
 31
0.0
  0
LINE
  5
16110
  8
0
 10
3900.7172530593779811
 20
130.1042369293438128
 30
0.0
 11
3900.7910719570968467
 21
130.1042369293438128
 31
0.0
  0
LINE
  5
16111
  8
0
 10
3900.9141034530780416
 20
130.1042369293438128
 30
0.0
 11
3900.9879223507969073
 21
130.1042369293438128
 31
0.0
  0
LINE
  5
16112
  8
0
 10
3901.1109538467781022
 20
130.1042369293438128
 30
0.0
 11
3901.1847727444960583
 21
130.1042369293438128
 31
0.0
  0
LINE
  5
16113
  8
0
 10
3901.3021301961630343
 20
130.1042369293438128
 30
0.0
 11
3901.3816231381961188
 21
130.1042369293438128
 31
0.0
  0
LINE
  5
16114
  8
0
 10
3901.5046546341782232
 20
130.1042369293438128
 30
0.0
 11
3901.5784735318961793
 21
130.1042369293438128
 31
0.0
  0
LINE
  5
16115
  8
0
 10
3901.7015050278769195
 20
130.1042369293438128
 30
0.0
 11
3901.7753239255957851
 21
130.1042369293438128
 31
0.0
  0
LINE
  5
16116
  8
0
 10
3901.89835542157698
 20
130.1042369293438128
 30
0.0
 11
3901.9721743192972099
 21
130.1042369293438128
 31
0.0
  0
LINE
  5
16117
  8
0
 10
3902.0952058152770405
 20
130.1042369293438128
 30
0.0
 11
3902.1690247129968157
 21
130.1042369293438128
 31
0.0
  0
LINE
  5
16118
  8
0
 10
3902.2920562089780105
 20
130.1042369293438128
 30
0.0
 11
3902.3658751066968762
 21
130.1042369293438128
 31
0.0
  0
LINE
  5
16119
  8
0
 10
3902.4889066026780711
 20
130.1042369293438128
 30
0.0
 11
3902.5627255003969367
 21
130.1042369293438128
 31
0.0
  0
LINE
  5
1611A
  8
0
 10
3900.4170562089962004
 20
134.9861266931438024
 30
0.0
 11
3900.5942215633967862
 21
134.8916385041437991
 31
0.0
  0
LINE
  5
1611B
  8
0
 10
3900.3304420357972049
 20
134.9861266931438024
 30
0.0
 11
3900.4170562089962004
 21
134.9861266931438024
 31
0.0
  0
LINE
  5
1611C
  8
0
 10
3900.4170562089962004
 20
134.813593026143792
 30
0.0
 11
3900.5792893382831608
 21
134.8996023575365939
 31
0.0
  0
LINE
  5
1611D
  8
0
 10
3900.3304420357972049
 20
134.813593026143792
 30
0.0
 11
3900.4170562089962004
 21
134.813593026143792
 31
0.0
  0
LINE
  5
1611E
  8
0
 10
3900.5204026656369933
 20
134.9310085829438037
 30
0.0
 11
3900.5942215633967862
 21
134.9310085829438037
 31
0.0
  0
LINE
  5
1611F
  8
0
 10
3900.7172530593779811
 20
134.9310085829438037
 30
0.0
 11
3900.7910719570968467
 21
134.9310085829438037
 31
0.0
  0
LINE
  5
16120
  8
0
 10
3900.9141034530780416
 20
134.9310085829438037
 30
0.0
 11
3900.9879223507969073
 21
134.9310085829438037
 31
0.0
  0
LINE
  5
16121
  8
0
 10
3901.1109538467781022
 20
134.9310085829438037
 30
0.0
 11
3901.1847727444960583
 21
134.9310085829438037
 31
0.0
  0
LINE
  5
16122
  8
0
 10
3901.3134782847928363
 20
134.9310085829438037
 30
0.0
 11
3901.3816231381961188
 21
134.9310085829438037
 31
0.0
  0
LINE
  5
16123
  8
0
 10
3901.5046546341782232
 20
134.9310085829438037
 30
0.0
 11
3901.5784735318961793
 21
134.9310085829438037
 31
0.0
  0
LINE
  5
16124
  8
0
 10
3901.7015050278769195
 20
134.9310085829438037
 30
0.0
 11
3901.7753239255957851
 21
134.9310085829438037
 31
0.0
  0
LINE
  5
16125
  8
0
 10
3901.89835542157698
 20
134.9310085829438037
 30
0.0
 11
3901.9721743192972099
 21
134.9310085829438037
 31
0.0
  0
LINE
  5
16126
  8
0
 10
3902.0952058152770405
 20
134.9310085829438037
 30
0.0
 11
3902.1690247129968157
 21
134.9310085829438037
 31
0.0
  0
LINE
  5
16127
  8
0
 10
3902.2920562089780105
 20
134.9310085829438037
 30
0.0
 11
3902.3658751066968762
 21
134.9310085829438037
 31
0.0
  0
LINE
  5
16128
  8
0
 10
3902.4889066026780711
 20
134.9310085829438037
 30
0.0
 11
3902.5627255003969367
 21
134.9310085829438037
 31
0.0
  0
LINE
  5
16129
  8
0
 10
3900.4170562089962004
 20
134.813593026143792
 30
0.0
 11
3900.4170562089962004
 21
130.2216524861437961
 31
0.0
  0
LINE
  5
1612A
  8
0
 10
3902.4889066026971705
 20
132.5766778742438134
 30
0.0
 11
3902.5627255003969367
 21
132.5766778742438134
 31
0.0
  0
LINE
  5
1612B
  8
0
 10
3902.5627255003969367
 20
132.4585676380438031
 30
0.0
 11
3902.4889066026971705
 21
132.4585676380438031
 31
0.0
  0
LINE
  5
1612C
  8
0
 10
3902.4889066026971705
 20
132.4585676380438031
 30
0.0
 11
3902.4889066026971705
 21
132.5766778742438134
 31
0.0
  0
LINE
  5
1612D
  8
0
 10
3902.2920562089971099
 20
132.5766778742438134
 30
0.0
 11
3902.3658751066968762
 21
132.5766778742438134
 31
0.0
  0
LINE
  5
1612E
  8
0
 10
3902.3658751066968762
 20
132.4585676380438031
 30
0.0
 11
3902.2920562089971099
 21
132.4585676380438031
 31
0.0
  0
LINE
  5
1612F
  8
0
 10
3902.2920562089971099
 20
132.4585676380438031
 30
0.0
 11
3902.2920562089971099
 21
132.5766778742438134
 31
0.0
  0
LINE
  5
16130
  8
0
 10
3902.0952058152961399
 20
132.5766778742438134
 30
0.0
 11
3902.1690247129968157
 21
132.5766778742438134
 31
0.0
  0
LINE
  5
16131
  8
0
 10
3902.1690247129968157
 20
132.4585676380438031
 30
0.0
 11
3902.0952058152961399
 21
132.4585676380438031
 31
0.0
  0
LINE
  5
16132
  8
0
 10
3902.0952058152961399
 20
132.4585676380438031
 30
0.0
 11
3902.0952058152961399
 21
132.5766778742438134
 31
0.0
  0
LINE
  5
16133
  8
0
 10
3901.8983554215969889
 20
132.5766778742438134
 30
0.0
 11
3901.9721743192972099
 21
132.5766778742438134
 31
0.0
  0
LINE
  5
16134
  8
0
 10
3901.9721743192972099
 20
132.4585676380438031
 30
0.0
 11
3901.8983554215969889
 21
132.4585676380438031
 31
0.0
  0
LINE
  5
16135
  8
0
 10
3901.8983554215969889
 20
132.4585676380438031
 30
0.0
 11
3901.8983554215969889
 21
132.5766778742438134
 31
0.0
  0
LINE
  5
16136
  8
0
 10
3901.7015050278960189
 20
132.5766778742438134
 30
0.0
 11
3901.7753239255957851
 21
132.5766778742438134
 31
0.0
  0
LINE
  5
16137
  8
0
 10
3901.7753239255957851
 20
132.4585676380438031
 30
0.0
 11
3901.7015050278960189
 21
132.4585676380438031
 31
0.0
  0
LINE
  5
16138
  8
0
 10
3901.7015050278960189
 20
132.4585676380438031
 30
0.0
 11
3901.7015050278960189
 21
132.5766778742438134
 31
0.0
  0
LINE
  5
16139
  8
0
 10
3901.5046546341968678
 20
132.5766778742438134
 30
0.0
 11
3901.5784735318961793
 21
132.5766778742438134
 31
0.0
  0
LINE
  5
1613A
  8
0
 10
3901.5784735318961793
 20
132.4585676380438031
 30
0.0
 11
3901.5046546341968678
 21
132.4585676380438031
 31
0.0
  0
LINE
  5
1613B
  8
0
 10
3901.5046546341968678
 20
132.4585676380438031
 30
0.0
 11
3901.5046546341968678
 21
132.5766778742438134
 31
0.0
  0
LINE
  5
1613C
  8
0
 10
3901.3078042404968073
 20
132.5766778742438134
 30
0.0
 11
3901.3816231381961188
 21
132.5766778742438134
 31
0.0
  0
LINE
  5
1613D
  8
0
 10
3901.3816231381961188
 20
132.4585676380438031
 30
0.0
 11
3901.3078042404968073
 21
132.4585676380438031
 31
0.0
  0
LINE
  5
1613E
  8
0
 10
3901.3078042404968073
 20
132.4585676380438031
 30
0.0
 11
3901.3078042404968073
 21
132.5766778742438134
 31
0.0
  0
LINE
  5
1613F
  8
0
 10
3901.1109538467958373
 20
132.5766778742438134
 30
0.0
 11
3901.1847727444960583
 21
132.5766778742438134
 31
0.0
  0
LINE
  5
16140
  8
0
 10
3901.1847727444960583
 20
132.4585676380438031
 30
0.0
 11
3901.1109538467958373
 21
132.4585676380438031
 31
0.0
  0
LINE
  5
16141
  8
0
 10
3901.1109538467958373
 20
132.4585676380438031
 30
0.0
 11
3901.1109538467958373
 21
132.5766778742438134
 31
0.0
  0
LINE
  5
16142
  8
0
 10
3900.9141034530957768
 20
132.5766778742438134
 30
0.0
 11
3900.9879223507969073
 21
132.5766778742438134
 31
0.0
  0
LINE
  5
16143
  8
0
 10
3900.9879223507969073
 20
132.4585676380438031
 30
0.0
 11
3900.9141034530957768
 21
132.4585676380438031
 31
0.0
  0
LINE
  5
16144
  8
0
 10
3900.9141034530957768
 20
132.4585676380438031
 30
0.0
 11
3900.9141034530957768
 21
132.5766778742438134
 31
0.0
  0
LINE
  5
16145
  8
0
 10
3900.717253059396171
 20
132.5766778742438134
 30
0.0
 11
3900.7910719570968467
 21
132.5766778742438134
 31
0.0
  0
LINE
  5
16146
  8
0
 10
3900.7910719570968467
 20
132.4585676380438031
 30
0.0
 11
3900.717253059396171
 21
132.4585676380438031
 31
0.0
  0
LINE
  5
16147
  8
0
 10
3900.717253059396171
 20
132.4585676380438031
 30
0.0
 11
3900.717253059396171
 21
132.5766778742438134
 31
0.0
  0
LINE
  5
16148
  8
0
 10
3900.5204026656961105
 20
132.5766778742438134
 30
0.0
 11
3900.5942215633967862
 21
132.5766778742438134
 31
0.0
  0
LINE
  5
16149
  8
0
 10
3900.5942215633967862
 20
132.4585676380438031
 30
0.0
 11
3900.5204026656961105
 21
132.4585676380438031
 31
0.0
  0
LINE
  5
1614A
  8
0
 10
3900.5204026656961105
 20
132.4585676380438031
 30
0.0
 11
3900.5204026656961105
 21
132.5766778742438134
 31
0.0
  0
LINE
  5
1614C
  8
0
 10
3907.4921811302961032
 20
129.0530038584437875
 30
0.0
 11
3907.4921811302961032
 21
134.7954727115437947
 31
0.0
  0
LINE
  5
1614D
  8
0
 10
3904.1584854411971719
 20
137.0001971209437954
 30
0.0
 11
3904.1584854411971719
 21
94.4411420028438044
 31
0.0
  0
ENDSEC
  0
EOF
