  0
SECTION
  2
HEADER
  9
$ACADVER
  1
AC1009
  9
$INSBASE
 10
413.8693738682541721
 20
67.5137002018392707
 30
0.0
  9
$EXTMIN
 10
407.3781079226703241
 20
63.8390877474035676
 30
-0.0015258207003583
  9
$EXTMAX
 10
420.3404653122634045
 20
71.187213972360837
 30
0.0000000349246037
  9
$LIMMIN
 10
0.0
 20
0.0
  9
$LIMMAX
 10
11.6929133858000007
 20
8.2677165353999982
  9
$ORTHOMODE
 70
     0
  9
$REGENMODE
 70
     1
  9
$FILLMODE
 70
     1
  9
$QTEXTMODE
 70
     0
  9
$MIRRTEXT
 70
     0
  9
$DRAGMODE
 70
     2
  9
$LTSCALE
 40
0.6431102362
  9
$OSMODE
 70
  2047
  9
$ATTMODE
 70
     1
  9
$TEXTSIZE
 40
0.2
  9
$TRACEWID
 40
0.05
  9
$TEXTSTYLE
  7
STANDARD
  9
$CLAYER
  8
0
  9
$CELTYPE
  6
BYLAYER
  9
$CECOLOR
 62
   256
  9
$DIMSCALE
 40
1.0
  9
$DIMASZ
 40
0.1875
  9
$DIMEXO
 40
0.0625
  9
$DIMDLI
 40
0.4443307087
  9
$DIMRND
 40
0.0
  9
$DIMDLE
 40
0.0
  9
$DIMEXE
 40
0.125
  9
$DIMTP
 40
0.01
  9
$DIMTM
 40
0.01
  9
$DIMTXT
 40
1.0
  9
$DIMCEN
 40
0.1052362205
  9
$DIMTSZ
 40
0.0
  9
$DIMTOL
 70
     1
  9
$DIMLIM
 70
     0
  9
$DIMTIH
 70
     0
  9
$DIMTOH
 70
     1
  9
$DIMSE1
 70
     0
  9
$DIMSE2
 70
     0
  9
$DIMTAD
 70
     0
  9
$DIMZIN
 70
     0
  9
$DIMBLK
  1

  9
$DIMASO
 70
     1
  9
$DIMSHO
 70
     1
  9
$DIMPOST
  1
\X
  9
$DIMAPOST
  1

  9
$DIMALT
 70
     1
  9
$DIMALTD
 70
     2
  9
$DIMALTF
 40
25.3999999999999986
  9
$DIMLFAC
 40
1.0
  9
$DIMTOFL
 70
     0
  9
$DIMTVP
 40
0.0
  9
$DIMTIX
 70
     0
  9
$DIMSOXD
 70
     0
  9
$DIMSAH
 70
     0
  9
$DIMBLK1
  1

  9
$DIMBLK2
  1

  9
$DIMSTYLE
  2
STANDARD
  9
$DIMCLRD
 70
     0
  9
$DIMCLRE
 70
     0
  9
$DIMCLRT
 70
     0
  9
$DIMTFAC
 40
1.0
  9
$DIMGAP
 40
0.09
  9
$LUNITS
 70
     2
  9
$LUPREC
 70
     4
  9
$SKETCHINC
 40
0.1
  9
$FILLETRAD
 40
0.0
  9
$AUNITS
 70
     0
  9
$AUPREC
 70
     0
  9
$MENU
  1
.
  9
$ELEVATION
 40
0.0
  9
$PELEVATION
 40
0.0
  9
$THICKNESS
 40
0.0
  9
$LIMCHECK
 70
     0
  9
$BLIPMODE
 70
     0
  9
$CHAMFERA
 40
0.0
  9
$CHAMFERB
 40
0.0
  9
$SKPOLY
 70
     0
  9
$TDCREATE
 40
2458172.5207638889551163
  9
$TDUPDATE
 40
2459047.4467939808964729
  9
$TDINDWG
 40
0.2681221991
  9
$TDUSRTIMER
 40
0.2681221991
  9
$USRTIMER
 70
     1
  9
$ANGBASE
 50
0.0
  9
$ANGDIR
 70
     0
  9
$PDMODE
 70
     0
  9
$PDSIZE
 40
0.3125
  9
$PLINEWID
 40
0.0
  9
$COORDS
 70
     1
  9
$SPLFRAME
 70
     0
  9
$SPLINETYPE
 70
     6
  9
$SPLINESEGS
 70
     8
  9
$ATTDIA
 70
     1
  9
$ATTREQ
 70
     1
  9
$HANDLING
 70
     1
  9
$HANDSEED
  5
CBC7
  9
$SURFTAB1
 70
     6
  9
$SURFTAB2
 70
     6
  9
$SURFTYPE
 70
     6
  9
$SURFU
 70
     6
  9
$SURFV
 70
     6
  9
$UCSNAME
  2

  9
$UCSORG
 10
0.0
 20
0.0
 30
0.0
  9
$UCSXDIR
 10
1.0
 20
0.0
 30
0.0
  9
$UCSYDIR
 10
0.0
 20
1.0
 30
0.0
  9
$PUCSNAME
  2

  9
$PUCSORG
 10
0.0
 20
0.0
 30
0.0
  9
$PUCSXDIR
 10
1.0
 20
0.0
 30
0.0
  9
$PUCSYDIR
 10
0.0
 20
1.0
 30
0.0
  9
$USERI1
 70
     0
  9
$USERI2
 70
     0
  9
$USERI3
 70
     0
  9
$USERI4
 70
     0
  9
$USERI5
 70
     0
  9
$USERR1
 40
0.0
  9
$USERR2
 40
0.0
  9
$USERR3
 40
0.0
  9
$USERR4
 40
0.0
  9
$USERR5
 40
0.0
  9
$WORLDVIEW
 70
     1
  9
$SHADEDGE
 70
     3
  9
$SHADEDIF
 70
    70
  9
$TILEMODE
 70
     1
  9
$MAXACTVP
 70
    64
  9
$PLIMCHECK
 70
     0
  9
$PEXTMIN
 10
1.0000000000000000E+20
 20
1.0000000000000000E+20
 30
1.0000000000000000E+20
  9
$PEXTMAX
 10
-1.0000000000000000E+20
 20
-1.0000000000000000E+20
 30
-1.0000000000000000E+20
  9
$PLIMMIN
 10
0.0
 20
0.0
  9
$PLIMMAX
 10
12.0
 20
9.0
  9
$UNITMODE
 70
     0
  9
$VISRETAIN
 70
     1
  9
$PLINEGEN
 70
     0
  9
$PSLTSCALE
 70
     1
  0
ENDSEC
  0
SECTION
  2
TABLES
  0
TABLE
  2
VPORT
 70
     1
  0
VPORT
  2
*ACTIVE
 70
     0
 10
0.0
 20
0.0
 11
1.0
 21
1.0
 12
-15.7700024905868705
 22
-2.1893906523364839
 13
0.0
 23
0.0
 14
1.0
 24
1.0
 15
0.0
 25
0.0
 16
0.0
 26
0.0
 36
14.6338572656650907
 17
429.6292891080536833
 27
69.7025415122186871
 37
0.0
 40
7.4092756803660684
 41
2.6486111111111108
 42
50.0
 43
0.0
 44
0.0
 50
0.0
 51
0.0
 71
     0
 72
   100
 73
     1
 74
     1
 75
     0
 76
     0
 77
     0
 78
     1
  0
ENDTAB
  0
TABLE
  2
LTYPE
 70
     2
  0
LTYPE
  2
CONTINUOUS
 70
     0
  3
Solid line
 72
    65
 73
     0
 40
0.0
  0
LTYPE
  2
PHANTOM2
 70
     0
  3
___ _ _ ___ _ _ ___ _ _ ___ _ _
 72
    65
 73
     6
 40
1.25
 49
0.625
 49
-0.125
 49
0.125
 49
-0.125
 49
0.125
 49
-0.125
  0
ENDTAB
  0
TABLE
  2
LAYER
 70
     2
  0
LAYER
  2
0
 70
     0
 62
   255
  6
CONTINUOUS
  0
LAYER
  2
DEFPOINTS
 70
     0
 62
     7
  6
CONTINUOUS
  0
ENDTAB
  0
TABLE
  2
STYLE
 70
     1
  0
STYLE
  2
STANDARD
 70
     0
 40
0.0
 41
0.8
 50
0.0
 71
     0
 42
0.2
  3
txt
  4

  0
ENDTAB
  0
TABLE
  2
VIEW
 70
     0
  0
ENDTAB
  0
TABLE
  2
UCS
 70
     0
  0
ENDTAB
  0
TABLE
  2
APPID
 70
    10
  0
APPID
  2
ACAD
 70
     0
  0
APPID
  2
ACAD_MLEADERVER
 70
     0
  0
APPID
  2
ACAD_EXEMPT_FROM_CAD_STANDARDS
 70
     0
  0
APPID
  2
ACAD_DSTYLE_DIMJAG
 70
     0
  0
APPID
  2
ACAD_DSTYLE_DIMTALN
 70
     0
  0
APPID
  2
ACAD_NAV_VCDISPLAY
 70
     0
  0
APPID
  2
ACAECLAYERSTANDARD
 70
     0
  0
APPID
  2
ACCMTRANSPARENCY
 70
     0
  0
APPID
  2
DCO15
 70
     0
  0
APPID
  2
ACDBATTR
 70
     0
  0
ENDTAB
  0
TABLE
  2
DIMSTYLE
 70
     1
  0
DIMSTYLE
  2
STANDARD
 70
     0
  3

  4

  5

  6

  7

 40
1.0
 41
0.1875
 42
0.0625
 43
0.38
 44
0.125
 45
0.0
 46
0.0
 47
0.01
 48
0.01
140
0.15625
141
0.09
142
0.0
143
25.3999999999999986
144
1.0
145
0.0
146
1.0
147
0.09
 71
     1
 72
     0
 73
     1
 74
     1
 75
     0
 76
     0
 77
     0
 78
     4
170
     0
171
     2
172
     0
173
     0
174
     0
175
     0
176
     0
177
     0
178
     0
  0
ENDTAB
  0
ENDSEC
  0
SECTION
  2
BLOCKS
  0
BLOCK
  8
0
  2
$MODEL_SPACE
 70
     0
 10
0.0
 20
0.0
 30
0.0
  3
$MODEL_SPACE
  1

  0
ENDBLK
  5
21
  8
0
  0
BLOCK
 67
     1
  8
0
  2
$PAPER_SPACE
 70
     0
 10
0.0
 20
0.0
 30
0.0
  3
$PAPER_SPACE
  1

  0
ENDBLK
  5
1D
 67
     1
  8
0
  0
BLOCK
  8
0
  2
_FILLED
 70
     0
 10
0.0
 20
0.0
 30
0.0
  3
_FILLED
  1

  0
SOLID
  5
87E2
  8
0
  6
BYBLOCK
 62
     0
 10
0.0
 20
0.0
 30
0.0
 11
-1.0
 21
0.1666666667
 31
0.0
 12
-1.0
 22
-0.1666666667
 32
0.0
 13
-1.0
 23
-0.1666666667
 33
0.0
  0
ENDBLK
  5
87E3
  8
0
  6
BYBLOCK
 62
     0
  0
ENDSEC
  0
SECTION
  2
ENTITIES
  0
ATTDEF
  5
B1E1
  8
DEFPOINTS
 10
413.8695174326268216
 20
67.5172874317647711
 30
0.0
 40
0.001
  1
K-6283T
  3

  2
MODELNUMBER
 70
     0
1001
ACDBATTR
1070
     0
1070
     1
  0
ATTDEF
  5
B1E2
  8
DEFPOINTS
 10
413.8695174326268216
 20
67.5156207650981059
 30
0.0
 40
0.001
  1
DROPLET
  3

  2
TRADENAME
 70
     0
1001
ACDBATTR
1070
     0
1070
     1
  0
ATTDEF
  5
B1E3
  8
DEFPOINTS
 10
413.8695174326268216
 20
67.5139540984314408
 30
0.0
 40
0.001
  1
FLUSH ACTUATOR PLATE
  3

  2
PRODUCT
 70
     0
1001
ACDBATTR
1070
     0
1070
     1
  0
LINE
  5
C61E
  8
0
 10
407.5994219267042808
 20
71.1850414115551331
 30
0.0
 11
420.1393267785140893
 21
71.1850414115551331
 31
0.0
  0
ARC
  5
C61F
  8
0
 10
407.599459590879178
 20
70.9883002462736243
 30
0.0
 40
0.1967411688867298
 50
90.0109687173742259
 51
125.8159287749907946
  0
ARC
  5
C620
  8
0
 10
407.5994918827735205
 20
70.9883299440040503
 30
0.0
 40
0.1967359884578266
 50
125.8286160400319034
 51
180.0095599025669912
  0
LINE
  5
C621
  8
0
 10
407.4027558970541918
 20
70.988297118255133
 30
0.0
 11
407.4027558970541918
 21
64.0391002404862633
 31
0.0
  0
ARC
  5
C622
  8
0
 10
407.5994591160512073
 20
64.0390598692917195
 30
0.0
 40
0.1967032226468645
 50
179.9889624959311902
 51
270.0109774827217279
  0
LINE
  5
C623
  8
0
 10
407.5994968030541941
 20
63.8423566502551409
 30
0.0
 11
420.1393289190161227
 21
63.8423566502465718
 31
0.0
  0
ARC
  5
C624
  8
0
 10
420.1392886050632001
 20
64.0390598842008814
 30
0.0
 40
0.1967032380854351
 50
270.0117426606495883
 51
0.011104728030337
  0
LINE
  5
C625
  8
0
 10
420.3359918394542092
 20
64.0390980080551344
 30
0.0
 11
420.3359918394398846
 21
70.9883000535408684
 31
0.0
  0
ARC
  5
C626
  8
0
 10
420.1392886170390284
 20
70.9883381891592649
 30
0.0
 40
0.1967032260976385
 50
359.988891844631496
 51
89.988884313067345
  0
ARC
  5
C627
  8
0
 10
407.8626540322948131
 20
70.6341927464793855
 30
0.0
 40
0.2587807258718743
 50
75.6735678852798941
 51
102.9038312828039068
  0
ARC
  5
C628
  8
0
 10
407.8291825518102769
 20
70.8155471251260451
 30
0.0
 40
0.0749462013013519
 50
108.9338077019574058
 51
139.3470431639400999
  0
ARC
  5
C629
  8
0
 10
407.8505707087415999
 20
70.810347051411199
 30
0.0
 40
0.0950865723893412
 50
145.3770195830923058
 51
194.8776522932247985
  0
ARC
  5
C62A
  8
0
 10
390.2690829372443773
 20
67.5136979967918052
 30
0.0
 40
17.7930671971151106
 50
349.4029800540304223
 51
10.5973014825160092
  0
ARC
  5
C62B
  8
0
 10
407.9596364039571768
 20
64.2095314919978506
 30
0.0
 40
0.2034832403238389
 50
170.9470755126639006
 51
179.8051155400908954
  0
ARC
  5
C62C
  8
0
 10
407.827368043968022
 20
64.208473336431112
 30
0.0
 40
0.0712352089963991
 50
178.5920784484914918
 51
232.1457106532932073
  0
ARC
  5
C62D
  8
0
 10
407.8517591937051066
 20
64.2643758817291513
 30
0.0
 40
0.1312077367329217
 50
238.730608201043907
 51
271.4568423263764885
  0
ARC
  5
C62E
  8
0
 10
407.8469586277906842
 20
64.4776830444282183
 30
0.0
 40
0.344568564382712
 50
271.3530656481798928
 51
283.3779405690673912
  0
ARC
  5
C62F
  8
0
 10
413.8693885254338056
 20
37.8248061795492418
 30
0.0
 40
26.9802684282377712
 50
77.2756887913810857
 51
102.7243741389064979
  0
ARC
  5
C630
  8
0
 10
419.8825832225953718
 20
64.4389809340198241
 30
0.0
 40
0.3047801932154422
 50
256.6221223612200788
 51
275.972937348966525
  0
ARC
  5
C631
  8
0
 10
419.9060316573032878
 20
64.2148657440728385
 30
0.0
 40
0.0794416757461986
 50
275.972937348966525
 51
322.1101253126410029
  0
ARC
  5
C632
  8
0
 10
419.9172440670100741
 20
64.2061403031057267
 30
0.0
 40
0.0652342322216282
 50
322.1101253126410029
 51
359.9695339122010864
  0
ARC
  5
C633
  8
0
 10
419.7230853462738764
 20
64.2062435438197951
 30
0.0
 40
0.2593929804061142
 50
359.9695339122010864
 51
7.8039758995337163
  0
ARC
  5
C634
  8
0
 10
437.4696458118655755
 20
67.5136992842113983
 30
0.0
 40
17.7930483981114307
 50
169.4029773344701084
 51
190.5973102501475864
  0
ARC
  5
C635
  8
0
 10
419.7955209727153942
 20
70.8111364771306171
 30
0.0
 40
0.1862635084981241
 50
352.1963116850844244
 51
8.2061361698229955
  0
ARC
  5
C636
  8
0
 10
419.9156737261607759
 20
70.822131240411565
 30
0.0
 40
0.0660696432845121
 50
13.6497829258379806
 51
63.7504878444908414
  0
ARC
  5
C637
  8
0
 10
419.8778859398959185
 20
70.7050391355579535
 30
0.0
 40
0.1886504393871702
 50
69.1941346005031335
 51
94.0068489016100131
  0
ARC
  5
C638
  8
0
 10
419.886323416720586
 20
70.5845845143031738
 30
0.0
 40
0.3094002087318548
 50
94.0068489016100131
 51
103.9842319942121946
  0
ARC
  5
C639
  8
0
 10
413.8693676775084782
 20
97.2029257800960949
 30
0.0
 40
26.9805959869618484
 50
257.2758406837793927
 51
282.7230888407153202
  0
LINE
  5
C63A
  8
0
 10
407.4603687402848209
 20
71.1274281814736042
 30
0.0
 11
407.7724464669119016
 21
70.8645195672043258
 31
0.0
  0
LINE
  5
C63B
  8
0
 10
420.2783897775187825
 20
71.1274173979208513
 30
0.0
 11
419.9659963750921179
 21
70.8649628869907815
 31
0.0
  0
LINE
  5
C63C
  8
0
 10
420.2783859179943988
 20
63.8999768104343318
 30
0.0
 11
419.9548443879857018
 21
64.1521896148976225
 31
0.0
  0
LINE
  5
C63D
  8
0
 10
407.4604104059230849
 20
63.8999282265021975
 30
0.0
 11
407.7728449076824973
 21
64.1626292243735747
 31
0.0
  0
ARC
  5
C63E
  8
0
 10
409.9160142807530178
 20
67.4297738817030563
 30
0.0
 40
1.0063867142587
 50
128.7433341328485028
 51
175.2163368362103881
  0
ARC
  5
C63F
  8
0
 10
411.423514890793399
 20
65.711492126052562
 30
0.0
 40
3.291548804473917
 50
111.3849000247542023
 51
130.4917689703590895
  0
ARC
  5
C640
  8
0
 10
413.4967000247077067
 20
60.1877371840679913
 30
0.0
 40
9.1913333192201776
 50
92.7915228484032042
 51
110.8632333001756933
  0
ARC
  5
C641
  8
0
 10
413.8670980520511762
 20
56.0881617103114678
 30
0.0
 40
13.3051731072671497
 50
86.1021789504172546
 51
93.5249064144747706
  0
ARC
  5
C642
  8
0
 10
414.2863827450618146
 20
60.4129990658523468
 30
0.0
 40
8.9627001288343155
 50
68.3807761985773084
 51
86.8969685154891067
  0
ARC
  5
C643
  8
0
 10
416.6199748538679728
 20
66.2153472569467709
 30
0.0
 40
2.7089344116918781
 50
44.0370177677904877
 51
69.0498700924329114
  0
ARC
  5
C644
  8
0
 10
417.8577694835275906
 20
67.4356396734388284
 30
0.0
 40
0.9709878852270737
 50
4.6110785988817486
 51
43.0434221894111673
  0
ARC
  5
C645
  8
0
 10
417.9336660642786114
 20
67.489183380214314
 30
0.0
 40
0.4934837890522454
 50
2.8475519455391121
 51
45.8928236319928189
  0
ARC
  5
C646
  8
0
 10
416.9932044693462103
 20
66.3555531896253115
 30
0.0
 40
1.9653314032626139
 50
49.2100265446264729
 51
77.9792918769073538
  0
ARC
  5
C647
  8
0
 10
416.0853516246792196
 20
63.0142657546893332
 30
0.0
 40
5.4258272523387649
 50
75.9506226808360765
 51
89.7454572639535257
  0
ARC
  5
C648
  8
0
 10
416.0363122426473979
 20
62.468785599803681
 30
0.0
 40
5.9717018313101233
 50
89.298197581639073
 51
100.9254134381078956
  0
ARC
  5
C649
  8
0
 10
415.520534172540124
 20
65.097992528006813
 30
0.0
 40
3.2924040324783812
 50
100.7842219427209045
 51
113.8177048655585963
  0
ARC
  5
C64A
  8
0
 10
414.7226895257903152
 20
66.8854074196110986
 30
0.0
 40
1.335046949199941
 50
113.4705946155122973
 51
133.5985744009662994
  0
ARC
  5
C64B
  8
0
 10
414.1968174029249212
 20
67.4480126132662718
 30
0.0
 40
0.5650173752116683
 50
134.3228896884299957
 51
160.2391927530163969
  0
ARC
  5
C64C
  8
0
 10
414.0411794414835072
 20
67.5126765580697707
 30
0.0
 40
0.3967675584691982
 50
161.4285708494309119
 51
179.8523494480006946
  0
ARC
  5
C64D
  8
0
 10
409.9160135938196277
 20
67.5976241639613136
 30
0.0
 40
1.0063858330771001
 50
184.7835326458487089
 51
231.2566721904572091
  0
ARC
  5
C64E
  8
0
 10
411.423515016337376
 20
69.3159063884971971
 30
0.0
 40
3.291548804473917
 50
229.5082270383448986
 51
248.6150959839526138
  0
ARC
  5
C64F
  8
0
 10
413.4967005350433169
 20
74.8396611860610932
 30
0.0
 40
9.1913333192201776
 50
249.1367627085315917
 51
267.208473160299377
  0
ARC
  5
C650
  8
0
 10
413.867098847968407
 20
78.9392366340152307
 30
0.0
 40
13.3051731072671497
 50
266.4750895942303828
 51
273.8978170582868756
  0
ARC
  5
C651
  8
0
 10
414.2863832397055148
 20
74.6143992492664552
 30
0.0
 40
8.9627001288343155
 50
273.1030274932148245
 51
291.6192198101264808
  0
ARC
  5
C652
  8
0
 10
416.6199749443127871
 20
68.8120508956110939
 30
0.0
 40
2.7089344116918781
 50
290.9501259162738052
 51
315.9629782409160725
  0
ARC
  5
C653
  8
0
 10
417.8577694889652889
 20
67.5917583928927428
 30
0.0
 40
0.9709878852270737
 50
316.9565738192928848
 51
355.3889174098225112
  0
ARC
  5
C654
  8
0
 10
417.9336660659864151
 20
67.5382146808302082
 30
0.0
 40
0.4934837890522454
 50
314.1071723767105937
 51
357.152444063166115
  0
ARC
  5
C655
  8
0
 10
416.9932045500240747
 20
68.6718449369329278
 30
0.0
 40
1.9653314032626139
 50
282.0207041317985954
 51
310.7899694640772168
  0
ARC
  5
C656
  8
0
 10
416.0853519381153092
 20
72.0131324351110749
 30
0.0
 40
5.4258272523387649
 50
270.2545387447494818
 51
284.049373327869489
  0
ARC
  5
C657
  8
0
 10
416.0363125940824034
 20
72.5586125934128603
 30
0.0
 40
5.9717018313101233
 50
259.0745825705973857
 51
270.701798427067672
  0
ARC
  5
C658
  8
0
 10
415.5205343408212002
 20
69.9294057011394585
 30
0.0
 40
3.2924040324783812
 50
246.182291143147097
 51
259.2157740659835099
  0
ARC
  5
C659
  8
0
 10
414.7226895695578719
 20
68.1419908651140531
 30
0.0
 40
1.335046949199941
 50
226.4014216077383139
 51
246.5294013931919892
  0
ARC
  5
C65A
  8
0
 10
414.1968174075008164
 20
67.5793857080917917
 30
0.0
 40
0.5650173752116683
 50
199.7608032556875912
 51
225.6771063202766072
  0
ARC
  5
C65B
  8
0
 10
414.0411794722248828
 20
67.5147217817575154
 30
0.0
 40
0.3967675899714394
 50
180.1476931777249888
 51
198.5714247927849954
  0
ARC
  5
C65C
  8
0
 10
413.9357714781604045
 20
63.9019761606586982
 30
0.0
 40
5.4455914197834661
 50
88.2592302443569992
 51
90.698972456756934
  0
ARC
  5
C65D
  8
0
 10
413.3935829661184016
 20
46.0618486734095924
 30
0.0
 40
23.2939559707413792
 50
87.0933366467086785
 51
88.2592302443569992
  0
ARC
  5
C65E
  8
0
 10
414.0937648836238054
 20
59.8519035565453024
 30
0.0
 40
9.4861368671502415
 50
85.0296626791910057
 51
87.0933366467086785
  0
ARC
  5
C65F
  8
0
 10
413.8902863770802014
 20
57.5121830171129389
 30
0.0
 40
11.8346886986555297
 50
83.0721142698817232
 51
85.0296626791910057
  0
ARC
  5
C660
  8
0
 10
413.8745926662210195
 20
57.3830242743593075
 30
0.0
 40
11.9647973970205292
 50
80.8032748800534506
 51
83.0721142698817232
  0
ARC
  5
C661
  8
0
 10
414.2478687209800796
 20
59.6885351913002395
 30
0.0
 40
9.6292641385995843
 50
75.4741331693391828
 51
80.8032748800534506
  0
ARC
  5
C662
  8
0
 10
415.1850801018794073
 20
63.3057251696531367
 30
0.0
 40
5.8926308261130744
 50
72.7697342484420631
 51
75.4741331693391828
  0
ARC
  5
C663
  8
0
 10
414.635601555340827
 20
61.5339604885982823
 30
0.0
 40
7.7476447770416481
 50
68.6298091155910868
 51
72.7697342484420631
  0
ARC
  5
C664
  8
0
 10
416.076047525671072
 20
65.2151818661821494
 30
0.0
 40
3.7946363753023791
 50
64.602234786225381
 51
68.6298091155910868
  0
ARC
  5
C665
  8
0
 10
415.8498228489460757
 20
64.7387058406130222
 30
0.0
 40
4.3220896976935563
 50
59.2458416307876732
 51
64.602234786225381
  0
ARC
  5
C666
  8
0
 10
416.9612661565619192
 20
66.6065655520751534
 30
0.0
 40
2.148565801402742
 50
47.7037774379222412
 51
59.2458416307876732
  0
ARC
  5
C667
  8
0
 10
417.4074754963663167
 20
67.0970081665561224
 30
0.0
 40
1.485514722655658
 50
35.1961905402346673
 51
47.7037774379222412
  0
ARC
  5
C668
  8
0
 10
417.895652326821903
 20
67.4413304313555244
 30
0.0
 40
0.8881250342358489
 50
15.2582822838132994
 51
35.1961905402346673
  0
ARC
  5
C669
  8
0
 10
418.0771924846250727
 20
67.5078250941616744
 30
0.0
 40
0.6956775873865702
 50
0.4837207330620251
 51
13.9095482831728603
  0
LINE
  5
C66A
  8
0
 10
418.3438357032019894
 20
68.2512042515044612
 30
0.0
 11
418.3456274749020167
 21
68.2534555389894138
 31
0.0
  0
ARC
  5
C66B
  8
0
 10
418.3598481472679964
 20
68.2421374827792704
 30
0.0
 40
0.0181748705337748
 50
67.9853828330823546
 51
141.4841543519870868
  0
ARC
  5
C66C
  8
0
 10
418.3561031725972725
 20
68.2328751492081693
 30
0.0
 40
0.0281656492054925
 50
53.2333640926999081
 51
67.985382833082042
  0
LINE
  5
C66D
  8
0
 10
418.3729619252986822
 20
68.2554380890104113
 30
0.0
 11
418.4072045025002922
 21
68.2260486389180159
 31
0.0
  0
ARC
  5
C66E
  8
0
 10
418.3942193892542036
 20
68.2112630803551241
 30
0.0
 40
0.01967473120002
 50
13.7129719030663004
 51
48.709443853480181
  0
ARC
  5
C66F
  8
0
 10
418.3942193892542036
 20
68.2112630803551383
 30
0.0
 40
0.0196747311999819
 50
340.8590696885145803
 51
13.7129719030670891
  0
ARC
  5
C670
  8
0
 10
418.3849847623486085
 20
68.2159521660727393
 30
0.0
 40
0.0299691448888262
 50
317.7630439297145131
 51
338.1779392276403087
  0
ARC
  5
C671
  8
0
 10
417.6373074160542274
 20
68.6957853104551361
 30
0.0
 40
0.0236547203000063
 50
277.6138901883169865
 51
299.2020470369930081
  0
ARC
  5
C672
  8
0
 10
417.6359998016549753
 20
68.6981248146579304
 30
0.0
 40
0.0263348574852788
 50
299.2020470369932923
 51
310.0675106920922985
  0
ARC
  5
C673
  8
0
 10
417.6596642919541864
 20
68.6682526648551317
 30
0.0
 40
0.0118115438000005
 50
75.4906525972143925
 51
124.6347788645452965
  0
LINE
  5
C674
  8
0
 10
417.6626235318909721
 20
68.6796875004873613
 30
0.0
 11
417.6839578476237875
 21
68.6700146219784102
 31
0.0
  0
ARC
  5
C675
  8
0
 10
417.6789645246270766
 20
68.6593063711367648
 30
0.0
 40
0.0118152406085188
 50
10.5579448103812901
 51
65.0000719726935898
  0
ARC
  5
C676
  8
0
 10
417.7658090455698812
 20
68.6626357486529173
 30
0.0
 40
0.0752383230061483
 50
180.8868094370155859
 51
186.6760032125773989
  0
ARC
  5
C677
  8
0
 10
417.7104696867542089
 20
68.657580090555129
 30
0.0
 40
0.0197370310999806
 50
190.7787360619113883
 51
209.1698190570270981
  0
LINE
  5
C678
  8
0
 10
416.8465380482642217
 20
68.9592776409098605
 30
0.0
 11
416.8490829876549242
 21
68.9664746557355386
 31
0.0
  0
ARC
  5
C679
  8
0
 10
416.8676403426542265
 20
68.9599125817551339
 30
0.0
 40
0.0196834001000009
 50
110.473054020503298
 51
160.525875249388605
  0
LINE
  5
C67A
  8
0
 10
416.8607557422113246
 20
68.9783527150582927
 30
0.0
 11
416.9262863783698094
 21
68.9588430545266249
 31
0.0
  0
ARC
  5
C67B
  8
0
 10
416.9104348999509853
 20
68.9471711450119358
 30
0.0
 40
0.0196852285055272
 50
0.0008849474374386
 51
36.3653079751060488
  0
ARC
  5
C67C
  8
0
 10
416.9104401176070951
 20
68.9471711450925255
 30
0.0
 40
0.019680010849373
 50
350.3202297039554765
 51
0.0008849474382528
  0
LINE
  5
C67D
  8
0
 10
416.9298399421156205
 20
68.9438621216601746
 30
0.0
 11
416.9270120321294257
 21
68.9350032053548603
 31
0.0
  0
ARC
  5
C67E
  8
0
 10
413.8417882006673949
 20
69.3399911478670816
 30
0.0
 40
0.019298384402918
 50
89.6712440351969207
 51
158.2953776827584136
  0
LINE
  5
C67F
  8
0
 10
413.8418989317582941
 20
69.3592892145885855
 30
0.0
 11
413.8951596149706802
 21
69.359292621128489
 31
0.0
  0
ARC
  5
C680
  8
0
 10
413.8951105303542022
 20
69.3396118396551344
 30
0.0
 40
0.0196808408000021
 50
23.6936778246824886
 51
89.8563896807907412
  0
ARC
  5
C681
  8
0
 10
416.8957973798669059
 20
66.5722268191449587
 30
0.0
 40
1.729201090700782
 50
76.0732373386982914
 51
77.6806646979007951
  0
ARC
  5
C682
  8
0
 10
416.3980349950001028
 20
64.5648836051967976
 30
0.0
 40
3.797338941612066
 50
69.3489192921199304
 51
76.0732373386982914
  0
ARC
  5
C683
  8
0
 10
417.1277531942815813
 20
66.5010245770196633
 30
0.0
 40
1.7282496460199781
 50
55.2956364179639692
 51
69.3489192921199304
  0
ARC
  5
C684
  8
0
 10
417.6504071357795738
 20
67.2557099157345988
 30
0.0
 40
0.8102534025447351
 50
45.3727363146456923
 51
55.2956364179639692
  0
ARC
  5
C685
  8
0
 10
417.7990851107047092
 20
67.4063350271528634
 30
0.0
 40
0.5986096820671263
 50
18.1791526751393313
 51
45.3727363146456923
  0
ARC
  5
C686
  8
0
 10
418.0355376381845076
 20
67.5133967934880133
 30
0.0
 40
0.3417022059637542
 50
0.0512118691790185
 51
13.4877950982954005
  0
ARC
  5
C687
  8
0
 10
416.3211404958041157
 20
64.1952412876316458
 30
0.0
 40
4.1744149132678254
 50
76.9357522633671493
 51
80.1418852656082237
  0
ARC
  5
C688
  8
0
 10
416.0999609310043752
 20
62.9224465457426589
 30
0.0
 40
5.4662844325557476
 50
80.1418852656082237
 51
83.9120083370533507
  0
ARC
  5
C689
  8
0
 10
416.0573716667543067
 20
62.5231367419291786
 30
0.0
 40
5.8678590393860821
 50
83.9120083370533507
 51
87.4060398177291091
  0
ARC
  5
C68A
  8
0
 10
416.0267610617913192
 20
61.847467141804799
 30
0.0
 40
6.5442216770801096
 50
87.4060398177291091
 51
89.669939260429075
  0
ARC
  5
C68B
  8
0
 10
416.0299761622654842
 20
62.4055754779377381
 30
0.0
 40
5.9861040803926961
 50
89.669939260429075
 51
92.5763489689814918
  0
ARC
  5
C68C
  8
0
 10
416.0314214100138202
 20
62.3734560793846669
 30
0.0
 40
6.0182559777622906
 50
92.5763489689814918
 51
98.9572841370173251
  0
ARC
  5
C68D
  8
0
 10
415.7238910138578944
 20
64.3245398187964668
 30
0.0
 40
4.043084414895687
 50
98.9572841370173251
 51
103.1688510232515057
  0
ARC
  5
C68E
  8
0
 10
416.3667853009151258
 20
61.5768276793597309
 30
0.0
 40
6.8650048718786438
 50
103.1688510232515057
 51
103.5403408055539956
  0
ARC
  5
C68F
  8
0
 10
415.5922881943371863
 20
64.7928633100554237
 30
0.0
 40
3.5570249828826359
 50
103.5403408055539956
 51
109.3573363008510029
  0
ARC
  5
C690
  8
0
 10
415.0805709646156174
 20
66.2494240326709729
 30
0.0
 40
2.013190904407812
 50
109.3573363008510029
 51
124.748306023147407
  0
ARC
  5
C691
  8
0
 10
414.2421541380692815
 20
67.4580731928291613
 30
0.0
 40
0.5422131454369218
 50
124.748306023147407
 51
136.3457979894091068
  0
ARC
  5
C692
  8
0
 10
414.3797484769499988
 20
67.3267954461212241
 30
0.0
 40
0.7323868788301428
 50
136.3457979894091068
 51
156.002649800292005
  0
ARC
  5
C693
  8
0
 10
414.0443242998139226
 20
67.5119351278745938
 30
0.0
 40
0.3521834779482933
 50
161.3337708098353005
 51
176.5083688589203916
  0
ARC
  5
C694
  8
0
 10
414.0572596523134052
 20
67.5124396060325012
 30
0.0
 40
0.3650663784289592
 50
176.7110402142403984
 51
179.8025214414736865
  0
ARC
  5
C695
  8
0
 10
418.1666179627541737
 20
67.8365336765551348
 30
0.0
 40
0.0531496063000021
 50
355.4968143344606801
 51
101.2445894418798957
  0
ARC
  5
C696
  8
0
 10
417.2847074472639974
 20
68.2622206293480929
 30
0.0
 40
0.0199768765027415
 50
165.2413422462574033
 51
181.7496613655063982
  0
ARC
  5
C697
  8
0
 10
417.2796349256922781
 20
68.2635569324788065
 30
0.0
 40
0.0147312896764752
 50
114.0962915759201053
 51
165.2413422462566075
  0
ARC
  5
C698
  8
0
 10
417.2806605117435765
 20
68.261263807966543
 30
0.0
 40
0.017243310133645
 50
78.4592115383008206
 51
114.0962915759201053
  0
LINE
  5
C699
  8
0
 10
417.2841103029542182
 20
68.2781585019551329
 30
0.0
 11
417.2998584087541758
 21
68.2744362887551404
 31
0.0
  0
ARC
  5
C69A
  8
0
 10
417.296235947650473
 20
68.2591105499972031
 30
0.0
 40
0.0157480313983817
 50
8.8354437344246364
 51
76.7013809459593148
  0
ARC
  5
C69B
  8
0
 10
417.298829789389913
 20
68.2595137411020261
 30
0.0
 40
0.0131230403439745
 50
1.6921360582645191
 51
8.8354437344254411
  0
LINE
  5
C69C
  8
0
 10
417.3119471070704094
 20
68.2599012520498434
 30
0.0
 11
417.3119839790542187
 21
68.250596601623684
 31
0.0
  0
LINE
  5
C69D
  8
0
 10
414.7594821768541919
 20
68.2510219047551345
 30
0.0
 11
414.7594821767540907
 21
68.2611379395579689
 31
0.0
  0
ARC
  5
C69E
  8
0
 10
414.7732617041783101
 20
68.2611379396941942
 30
0.0
 40
0.0137795274241093
 50
103.3420662754064949
 51
180.0000005663964089
  0
LINE
  5
C69F
  8
0
 10
414.7700818828564024
 20
68.2745455536650923
 30
0.0
 11
414.7858294453723147
 21
68.2782803296785517
 31
0.0
  0
ARC
  5
C6A0
  8
0
 10
414.7890093546947128
 20
68.2648723446564674
 30
0.0
 40
0.0137799087678843
 50
0.0020053600353972
 51
103.3420662754064949
  0
LINE
  5
C6A1
  8
0
 10
414.8027892634542013
 20
68.2648728269551412
 30
0.0
 11
414.8027893884038804
 21
68.261302848417742
 31
0.0
  0
ARC
  5
C6A2
  8
0
 10
413.9028384352233729
 20
67.8365336766678979
 30
0.0
 40
0.053149606194964
 50
79.2585861110957097
 51
184.4982110568514031
  0
ARC
  5
C6A3
  8
0
 10
416.8965338546618113
 20
68.4527555376295851
 30
0.0
 40
1.729201090700782
 50
282.2744576090435089
 51
283.8818849682446057
  0
ARC
  5
C6A4
  8
0
 10
416.4003439010039074
 20
70.4604880148936701
 30
0.0
 40
3.797338941612066
 50
283.8818849682446057
 51
290.6062030148257236
  0
ARC
  5
C6A5
  8
0
 10
417.1285453680358728
 20
68.5237760754080227
 30
0.0
 40
1.7282496460199781
 50
290.6062030148257236
 51
304.659485888978395
  0
ARC
  5
C6A6
  8
0
 10
417.6506080317864757
 20
67.7686815924774351
 30
0.0
 40
0.8102534025447351
 50
304.659485888978395
 51
314.5823859922961105
  0
ARC
  5
C6A7
  8
0
 10
417.7991679819639899
 20
67.6179400732437443
 30
0.0
 40
0.5986096820671263
 50
314.5823859922961105
 51
341.775969631804287
  0
ARC
  5
C6A8
  8
0
 10
416.3237389527027972
 20
70.8301904477194739
 30
0.0
 40
4.1744149132678254
 50
279.8132370413358103
 51
283.0193700435773962
  0
ARC
  5
C6A9
  8
0
 10
416.1035563893182143
 20
72.103158041040956
 30
0.0
 40
5.4662844325557476
 50
276.0431139698907259
 51
279.8132370413358103
  0
ARC
  5
C6AA
  8
0
 10
416.061279902896672
 20
72.5025010809787887
 30
0.0
 40
5.8678590393860821
 50
272.5490824892148112
 51
276.0431139698907259
  0
ARC
  5
C6AB
  8
0
 10
416.0311985346082793
 20
73.178194450008192
 30
0.0
 40
6.5442216770801096
 50
270.285183046515499
 51
272.5490824892148112
  0
ARC
  5
C6AC
  8
0
 10
416.0339764882497775
 20
72.6200837668048536
 30
0.0
 40
5.9861040803926961
 50
267.3787733379604106
 51
270.285183046515499
  0
ARC
  5
C6AD
  8
0
 10
416.0354468935047976
 20
72.6522020234955761
 30
0.0
 40
6.0182559777622906
 50
260.9978381699269789
 51
267.3787733379635938
  0
ARC
  5
C6AE
  8
0
 10
415.7263883791529793
 20
70.7013597598915879
 30
0.0
 40
4.043084414895687
 50
256.7862712836931109
 51
260.9978381699269789
  0
ARC
  5
C6AF
  8
0
 10
416.37143465142168
 20
73.448567500884451
 30
0.0
 40
6.8650048718786438
 50
256.4147815013898253
 51
256.7862712836931109
  0
ARC
  5
C6B0
  8
0
 10
415.5944187793400033
 20
70.2331394919663268
 30
0.0
 40
3.5570249828826359
 50
250.5977860060939975
 51
256.4147815013898253
  0
ARC
  5
C6B1
  8
0
 10
415.0815608358486202
 20
68.7769800255417181
 30
0.0
 40
2.013190904407812
 50
235.206816283796087
 51
250.5977860060939975
  0
ARC
  5
C6B2
  8
0
 10
414.2421975758073245
 20
67.5689879373723556
 30
0.0
 40
0.5422131454369218
 50
223.6093243175355099
 51
235.206816283796087
  0
ARC
  5
C6B3
  8
0
 10
414.3798946975380773
 20
67.7001578711976748
 30
0.0
 40
0.7323868788301428
 50
203.9524725066501958
 51
223.6093243175355099
  0
ARC
  5
C6B4
  8
0
 10
414.0443256101526117
 20
67.5152809717256872
 30
0.0
 40
0.3521834779482933
 50
183.446753448022406
 51
198.6213514971076108
  0
ARC
  5
C6B5
  8
0
 10
414.0575265806375
 20
67.5147800008922729
 30
0.0
 40
0.3653327410615503
 50
180.1697143237254863
 51
183.2438567699252019
  0
ARC
  5
C6B6
  8
0
 10
418.1663637624051262
 20
67.1874536807650031
 30
0.0
 40
0.0531496063000021
 50
258.7105328650654883
 51
4.4583079724832073
  0
ARC
  5
C6B7
  8
0
 10
417.2841200924212899
 20
66.762457626802302
 30
0.0
 40
0.0199768765027415
 50
178.2054609414371953
 51
194.7137800606859059
  0
ARC
  5
C6B8
  8
0
 10
417.2790465257282904
 20
66.7611252972021134
 30
0.0
 40
0.0147312896764752
 50
194.7137800606867017
 51
245.8588307310228913
  0
ARC
  5
C6B9
  8
0
 10
417.2800739075855176
 20
66.7634176177069207
 30
0.0
 40
0.017243310133645
 50
245.8588307310228913
 51
281.4959107686406128
  0
LINE
  5
C6BA
  8
0
 10
417.2835104647419939
 20
66.7465202268055009
 30
0.0
 11
417.2992614811847147
 21
66.7502301039484394
 31
0.0
  0
ARC
  5
C6BB
  8
0
 10
417.2956510252827798
 20
66.7655586753464831
 30
0.0
 40
0.0157480313983817
 50
283.2537413609842929
 51
351.1196785725186942
  0
ARC
  5
C6BC
  8
0
 10
417.2982445504216003
 20
66.7651534527039701
 30
0.0
 40
0.0131230403439745
 50
351.1196785725178984
 51
358.2629862486796242
  0
LINE
  5
C6BD
  8
0
 10
417.3113615605553832
 20
66.7647556675598537
 30
0.0
 11
417.311405720520213
 21
66.7740602862513271
 31
0.0
  0
LINE
  5
C6BE
  8
0
 10
414.7589043681779231
 20
66.7756342645528349
 30
0.0
 11
414.7588964445578199
 21
66.7655182328531822
 31
0.0
  0
ARC
  5
C6BF
  8
0
 10
414.7726759677548785
 20
66.7655074397171262
 30
0.0
 40
0.0137795274241093
 50
179.9551217405465025
 51
256.6130560315369848
  0
LINE
  5
C6C0
  8
0
 10
414.7694856457147807
 20
66.7521023204967747
 30
0.0
 11
414.7852302780867149
 21
66.7483552111391845
 31
0.0
  0
ARC
  5
C6C1
  8
0
 10
414.7884206884178866
 20
66.7617607013417143
 30
0.0
 40
0.0137799087678843
 50
256.6130560315369848
 51
359.9531169469083807
  0
LINE
  5
C6C2
  8
0
 10
414.8022005925726035
 20
66.7617494257446538
 30
0.0
 11
414.8022035137558987
 21
66.7653194030890944
 31
0.0
  0
ARC
  5
C6C3
  8
0
 10
413.9025855427921101
 20
67.1907933432060673
 30
0.0
 40
0.053149606194964
 50
175.456911250092304
 51
280.6965361958481253
  0
ARC
  5
C6C4
  8
0
 10
418.0124880628762867
 20
67.5133872122916756
 30
0.0
 40
0.3647517807950402
 50
346.9030863641254996
 51
0.0494806924794257
  0
ARC
  5
C6C5
  8
0
 10
413.802909196369626
 20
63.9019761606586982
 30
0.0
 40
5.4455914197834661
 50
89.301027543243066
 51
91.7407697556429866
  0
ARC
  5
C6C6
  8
0
 10
408.8179937903861969
 20
201.8241713872396019
 30
0.0
 40
132.5667527468741014
 50
271.8786437365067741
 51
272.0834591651878895
  0
ARC
  5
C6C7
  8
0
 10
413.8483942974497722
 20
57.5121830171129389
 30
0.0
 40
11.8346886986555297
 50
94.9703373208089943
 51
96.9278857301182768
  0
ARC
  5
C6C8
  8
0
 10
413.8640880083091247
 20
57.3830242743593075
 30
0.0
 40
11.9647973970205292
 50
96.9278857301182768
 51
99.1967251199465352
  0
ARC
  5
C6C9
  8
0
 10
413.490811953549894
 20
59.6885351913002395
 30
0.0
 40
9.6292641385995843
 50
99.1967251199465352
 51
104.525866830660803
  0
ARC
  5
C6CA
  8
0
 10
412.5536005726506232
 20
63.3057251696531367
 30
0.0
 40
5.8926308261130744
 50
104.525866830660803
 51
107.2302657515578943
  0
ARC
  5
C6CB
  8
0
 10
413.1030791191892035
 20
61.5339604885982823
 30
0.0
 40
7.7476447770416481
 50
107.2302657515578943
 51
111.370190884408899
  0
ARC
  5
C6CC
  8
0
 10
411.6626331488590154
 20
65.2151818661821494
 30
0.0
 40
3.7946363753023791
 50
111.370190884408899
 51
115.3977652137746048
  0
ARC
  5
C6CD
  8
0
 10
411.8888578255838979
 20
64.7387058406130222
 30
0.0
 40
4.3220896976935563
 50
115.3977652137746048
 51
120.7541583692123055
  0
ARC
  5
C6CE
  8
0
 10
410.777414517968225
 20
66.6065655520751534
 30
0.0
 40
2.148565801402742
 50
120.7541583692123055
 51
132.2962225620777019
  0
ARC
  5
C6CF
  8
0
 10
410.3312051781637138
 20
67.0970081665561224
 30
0.0
 40
1.485514722655658
 50
132.2962225620777019
 51
144.8038094597652901
  0
ARC
  5
C6D0
  8
0
 10
409.8430283477081275
 20
67.4413304313555244
 30
0.0
 40
0.8881250342358489
 50
144.8038094597652901
 51
164.741717716186713
  0
ARC
  5
C6D1
  8
0
 10
409.6614881899050147
 20
67.5078250941616744
 30
0.0
 40
0.6956775873865702
 50
166.09045171682709
 51
179.5162792669379996
  0
LINE
  5
C6D2
  8
0
 10
409.3948449713279842
 20
68.2512042515044612
 30
0.0
 11
409.3930531996281275
 21
68.2534555389894138
 31
0.0
  0
ARC
  5
C6D3
  8
0
 10
409.3788325272619772
 20
68.2421374827792704
 30
0.0
 40
0.0181748705337748
 50
38.515845648012899
 51
112.0146171669176027
  0
ARC
  5
C6D4
  8
0
 10
409.3825775019328148
 20
68.2328751492081693
 30
0.0
 40
0.0281656492054925
 50
112.0146171669180006
 51
126.766635907300099
  0
LINE
  5
C6D5
  8
0
 10
409.3657187492314051
 20
68.2554380890104113
 30
0.0
 11
409.3314761720296246
 21
68.2260486389180159
 31
0.0
  0
ARC
  5
C6D6
  8
0
 10
409.3444612852758269
 20
68.2112630803551241
 30
0.0
 40
0.01967473120002
 50
131.2905561465198048
 51
166.2870280969337102
  0
ARC
  5
C6D7
  8
0
 10
409.3444612852758269
 20
68.2112630803551383
 30
0.0
 40
0.0196747311999819
 50
166.287028096932886
 51
199.140930311485306
  0
ARC
  5
C6D8
  8
0
 10
409.3536959121814789
 20
68.2159521660727393
 30
0.0
 40
0.0299691448888262
 50
201.822060772359805
 51
222.2369560702854869
  0
ARC
  5
C6D9
  8
0
 10
410.1013732584759168
 20
68.6957853104551361
 30
0.0
 40
0.0236547203000063
 50
240.7979529630071056
 51
262.3861098116830135
  0
ARC
  5
C6DA
  8
0
 10
410.1026808728749984
 20
68.6981248146579304
 30
0.0
 40
0.0263348574852788
 50
229.9324893079077867
 51
240.7979529630067077
  0
ARC
  5
C6DB
  8
0
 10
410.0790163825757872
 20
68.6682526648551317
 30
0.0
 40
0.0118115438000005
 50
55.3652211354546608
 51
104.5093474027855933
  0
LINE
  5
C6DC
  8
0
 10
410.0760571426390015
 20
68.6796875004873613
 30
0.0
 11
410.0547228269061861
 21
68.6700146219784102
 31
0.0
  0
ARC
  5
C6DD
  8
0
 10
410.0597161499028971
 20
68.6593063711367648
 30
0.0
 40
0.0118152406085188
 50
114.999928027306396
 51
169.4420551896187135
  0
ARC
  5
C6DE
  8
0
 10
409.9728716289600925
 20
68.6626357486529173
 30
0.0
 40
0.0752383230061483
 50
353.3239967874225727
 51
359.1131905629844141
  0
ARC
  5
C6DF
  8
0
 10
410.0282109877758216
 20
68.657580090555129
 30
0.0
 40
0.0197370310999806
 50
330.8301809429729019
 51
349.2212639380886117
  0
LINE
  5
C6E0
  8
0
 10
410.8921426262658088
 20
68.9592776409098605
 30
0.0
 11
410.88959768687522
 21
68.9664746557355386
 31
0.0
  0
ARC
  5
C6E1
  8
0
 10
410.871040331875804
 20
68.9599125817551339
 30
0.0
 40
0.0196834001000009
 50
19.4741247506113417
 51
69.5269459794967162
  0
LINE
  5
C6E2
  8
0
 10
410.8779249323188196
 20
68.9783527150582927
 30
0.0
 11
410.8123942961602211
 21
68.9588430545266249
 31
0.0
  0
ARC
  5
C6E3
  8
0
 10
410.8282457745789884
 20
68.9471711450119358
 30
0.0
 40
0.0196852285055272
 50
143.6346920248938943
 51
179.9991150525625017
  0
ARC
  5
C6E4
  8
0
 10
410.8282405569228217
 20
68.9471711450925255
 30
0.0
 40
0.019680010849373
 50
179.9991150525625017
 51
189.6797702960444099
  0
LINE
  5
C6E5
  8
0
 10
410.8088407324145237
 20
68.9438621216601746
 30
0.0
 11
410.8116686424006048
 21
68.9350032053548603
 31
0.0
  0
ARC
  5
C6E6
  8
0
 10
413.3318097332016805
 20
64.9310508648603957
 30
0.0
 40
4.4008268471700323
 50
92.1868303300078793
 51
96.6387203856346417
  0
ARC
  5
C6E7
  8
0
 10
413.9357451846033769
 20
71.1253852167925658
 30
0.0
 40
5.4455914197834661
 50
269.3014446620383069
 51
271.741186874440416
  0
ARC
  5
C6E8
  8
0
 10
413.3934267947288959
 20
88.9655087563842955
 30
0.0
 40
23.2939559707413792
 50
271.741186874440416
 51
272.9070804720872161
  0
ARC
  5
C6E9
  8
0
 10
414.093709105143887
 20
75.1754589710058383
 30
0.0
 40
9.4861368671502415
 50
272.9070804720872161
 51
274.970754439604093
  0
ARC
  5
C6EA
  8
0
 10
413.8902135652148218
 20
77.5151780290330663
 30
0.0
 40
11.8346886986555297
 50
274.970754439604093
 51
276.9283028489131766
  0
ARC
  5
C6EB
  8
0
 10
413.8745189140678917
 20
77.6443366575315537
 30
0.0
 40
11.9647973970205292
 50
276.9283028489131766
 51
279.1971422387437087
  0
ARC
  5
C6EC
  8
0
 10
414.2478117531586008
 20
75.3388284581373568
 30
0.0
 40
9.6292641385995843
 50
279.1971422387437087
 51
284.5262839494537843
  0
ARC
  5
C6ED
  8
0
 10
415.1850494675247205
 20
71.7216453028694758
 30
0.0
 40
5.8926308261130744
 50
284.5262839494537843
 51
287.2306828703532915
  0
ARC
  5
C6EE
  8
0
 10
414.6355580223831225
 20
73.4934059836206046
 30
0.0
 40
7.7476447770416481
 50
287.2306828703532915
 51
291.3706080032055752
  0
ARC
  5
C6EF
  8
0
 10
416.0760307923213759
 20
69.8121950927197332
 30
0.0
 40
3.7946363753023791
 50
291.3706080032055752
 51
295.3981823325686946
  0
ARC
  5
C6F0
  8
0
 10
415.8498026468110993
 20
70.2886694713388067
 30
0.0
 40
4.3220896976935563
 50
295.3981823325686946
 51
300.7545754880068216
  0
ARC
  5
C6F1
  8
0
 10
416.9612595525960046
 20
68.4208178513405301
 30
0.0
 40
2.148565801402742
 50
300.7545754880068216
 51
312.2966396808728859
  0
ARC
  5
C6F2
  8
0
 10
417.4074724628582089
 20
67.9303784853195509
 30
0.0
 40
1.485514722655658
 50
312.2966396808728859
 51
324.8042265785589962
  0
ARC
  5
C6F3
  8
0
 10
417.8956518000001097
 20
67.5860597745036245
 30
0.0
 40
0.8881250342358489
 50
324.8042265785589962
 51
344.7421348349818118
  0
ARC
  5
C6F4
  8
0
 10
418.0771924418860976
 20
67.519566433329075
 30
0.0
 40
0.6956775873865702
 50
346.0908688356227003
 51
359.5166963857337237
  0
LINE
  5
C6F5
  8
0
 10
418.3438410723277912
 20
66.7761892171943146
 30
0.0
 11
418.3456328604171972
 21
66.7739379427536903
 31
0.0
  0
ARC
  5
C6F6
  8
0
 10
418.3598534503864812
 20
66.785256102491374
 30
0.0
 40
0.0181748705337748
 50
218.5162627668080972
 51
292.0150342857139094
  0
ARC
  5
C6F7
  8
0
 10
418.3561084082850812
 20
66.7945184087984813
 30
0.0
 40
0.0281656492054925
 50
292.0150342857139094
 51
306.7670530260950272
  0
LINE
  5
C6F8
  8
0
 10
418.3729673252464067
 20
66.7719555917301761
 30
0.0
 11
418.4072096884892176
 21
66.8013452911110335
 31
0.0
  0
ARC
  5
C6F9
  8
0
 10
418.39422446760301
 20
66.8161307551406765
 30
0.0
 40
0.01967473120002
 50
311.2909732653159267
 51
346.2874452157288943
  0
ARC
  5
C6FA
  8
0
 10
418.3942244676031237
 20
66.8161307551406622
 30
0.0
 40
0.0196747311999819
 50
346.2874452157274163
 51
19.1413474302801596
  0
ARC
  5
C6FB
  8
0
 10
418.3849898748346732
 20
66.8114416021942077
 30
0.0
 40
0.0299691448888262
 50
21.8224778911550814
 51
42.2373731890793067
  0
ARC
  5
C6FC
  8
0
 10
417.6373160217917189
 20
66.3316030146614111
 30
0.0
 40
0.0236547203000063
 50
60.7983700818023678
 51
82.3865269304795333
  0
ARC
  5
C6FD
  8
0
 10
417.6360084244241762
 20
66.3292635009391205
 30
0.0
 40
0.0263348574852788
 50
49.9329064267018765
 51
60.7983700818023678
  0
ARC
  5
C6FE
  8
0
 10
417.6596726972506985
 20
66.3591358230208925
 30
0.0
 40
0.0118115438000005
 50
235.3656382542494043
 51
284.5097645215798821
  0
LINE
  5
C6FF
  8
0
 10
417.6626320204341027
 20
66.3477010089325319
 30
0.0
 11
417.6839662657469034
 21
66.3573740427570868
 31
0.0
  0
ARC
  5
C700
  8
0
 10
417.6789728647931952
 20
66.3680822572465701
 30
0.0
 40
0.0118152406085188
 50
295.0003451461033137
 51
349.4424723084135849
  0
ARC
  5
C701
  8
0
 10
417.7658174099718735
 20
66.3647535119669953
 30
0.0
 40
0.0752383230061483
 50
173.3244139062175861
 51
179.1136076817793992
  0
ARC
  5
C702
  8
0
 10
417.7104780143520202
 20
66.3698087671887862
 30
0.0
 40
0.0197370310999806
 50
150.8305980617674038
 51
169.2216810568833125
  0
LINE
  5
C703
  8
0
 10
416.8465485722721269
 20
66.068104927336492
 30
0.0
 11
416.8490935640576822
 21
66.0609079310384146
 31
0.0
  0
ARC
  5
C704
  8
0
 10
416.8676508712840132
 20
66.0674701401179618
 30
0.0
 40
0.0196834001000009
 50
199.4745418694062948
 51
249.5273630982941881
  0
LINE
  5
C705
  8
0
 10
416.8607664050871904
 20
66.0490299566947385
 30
0.0
 11
416.9262968992118203
 21
66.0685400942952441
 31
0.0
  0
ARC
  5
C706
  8
0
 10
416.910445335820782
 20
66.0802118884093233
 30
0.0
 40
0.0196852285055272
 50
323.6351091436901015
 51
359.999532171357373
  0
ARC
  5
C707
  8
0
 10
416.9104505534770055
 20
66.0802118883667333
 30
0.0
 40
0.019680010849373
 50
359.999532171357373
 51
9.6801874148391782
  0
LINE
  5
C708
  8
0
 10
416.9298503538947784
 20
66.0835210530315891
 30
0.0
 11
416.927022379415007
 21
66.0923799487492118
 31
0.0
  0
ARC
  5
C709
  8
0
 10
413.8418014963859832
 20
65.6873695455209656
 30
0.0
 40
0.019298384402918
 50
201.7050394360364862
 51
270.3291730835969133
  0
LINE
  5
C70A
  8
0
 10
413.8419123679685754
 20
65.668071479606084
 30
0.0
 11
413.8951730512046083
 21
65.6680684608091241
 31
0.0
  0
ARC
  5
C70B
  8
0
 10
413.895123823309973
 20
65.6877492419246067
 30
0.0
 40
0.0196808408000021
 50
270.1440274380047981
 51
336.3067392941132994
  0
ARC
  5
C70C
  8
0
 10
413.8028829028161795
 20
71.1253842495423498
 30
0.0
 40
5.4455914197834661
 50
268.2596473631501794
 51
270.6993895755500716
  0
ARC
  5
C70D
  8
0
 10
408.8189715838344114
 20
-66.7968472640480115
 30
0.0
 40
132.5667527468741014
 50
87.9169579536062002
 51
88.1217733822879836
  0
ARC
  5
C70E
  8
0
 10
413.8483214855854158
 20
77.5151777240546949
 30
0.0
 40
11.8346886986555297
 50
263.0725313886784988
 51
265.0300797979836034
  0
ARC
  5
C70F
  8
0
 10
413.8640142561562811
 20
77.6443365810566348
 30
0.0
 40
11.9647973970205292
 50
260.8036919988473983
 51
263.0725313886784988
  0
ARC
  5
C710
  8
0
 10
413.490754985748481
 20
75.3388229466911525
 30
0.0
 40
9.6292641385995843
 50
255.4745502881359016
 51
260.8036919988473983
  0
ARC
  5
C711
  8
0
 10
412.5535699383656265
 20
71.721626145444958
 30
0.0
 40
5.8926308261130744
 50
252.7701513672367071
 51
255.4745502881359016
  0
ARC
  5
C712
  8
0
 10
413.1030355862720853
 20
73.4933948267096326
 30
0.0
 40
7.7476447770416481
 50
248.6302262343855034
 51
252.7701513672367071
  0
ARC
  5
C713
  8
0
 10
411.662616415626303
 20
69.8121629626378564
 30
0.0
 40
3.7946363753023791
 50
244.6026519050193997
 51
248.6302262343855034
  0
ARC
  5
C714
  8
0
 10
411.8888376235539113
 20
70.2886406351318129
 30
0.0
 40
4.3220896976935563
 50
239.2462587495822959
 51
244.6026519050193997
  0
ARC
  5
C715
  8
0
 10
410.7774079141663037
 20
68.4207728323048201
 30
0.0
 40
2.148565801402742
 50
227.704194556716601
 51
239.2462587495822959
  0
ARC
  5
C716
  8
0
 10
410.3312021448431892
 20
67.930326969389867
 30
0.0
 40
1.485514722655658
 50
215.1966076590300929
 51
227.704194556716601
  0
ARC
  5
C717
  8
0
 10
409.8430278210996107
 20
67.5860011506252221
 30
0.0
 40
0.8881250342358489
 50
195.2586994026083005
 51
215.1966076590300929
  0
ARC
  5
C718
  8
0
 10
409.6614451599427866
 20
67.5194971574065903
 30
0.0
 40
0.6956339352789205
 50
180.4776278419527955
 51
193.9101762661300938
  0
LINE
  5
C719
  8
0
 10
409.3948503406909936
 20
66.7761240676795893
 30
0.0
 11
409.3930585853805724
 21
66.7738727671504222
 31
0.0
  0
ARC
  5
C71A
  8
0
 10
409.3788378306184086
 20
66.7851907198324
 30
0.0
 40
0.0181748705337748
 50
247.9857999518769134
 51
321.4845714707815887
  0
ARC
  5
C71B
  8
0
 10
409.3825827378583995
 20
66.79445308066704
 30
0.0
 40
0.0281656492054925
 50
233.2337812114944882
 51
247.9857999518766007
  0
LINE
  5
C71C
  8
0
 10
409.3657241494177015
 20
66.7718900181320407
 30
0.0
 11
409.3314813582589977
 21
66.8012792189343969
 31
0.0
  0
ARC
  5
C71D
  8
0
 10
409.3444663638646261
 20
66.8160648720297701
 30
0.0
 40
0.01967473120002
 50
193.7133890218609906
 51
228.7098609722752087
  0
ARC
  5
C71E
  8
0
 10
409.3444663638646261
 20
66.8160648720297559
 30
0.0
 40
0.0196747311999819
 50
160.8594868073095938
 51
193.7133890218626107
  0
ARC
  5
C71F
  8
0
 10
409.3537010249069112
 20
66.8113758535412643
 30
0.0
 40
0.0299691448888262
 50
137.7634610485096118
 51
158.1783563464346969
  0
ARC
  5
C720
  8
0
 10
410.1013818644129856
 20
66.3315481523346904
 30
0.0
 40
0.0236547203000063
 50
97.6143073071120426
 51
119.2024641557886042
  0
ARC
  5
C721
  8
0
 10
410.1026894958438902
 20
66.3292086576515203
 30
0.0
 40
0.0263348574852788
 50
119.2024641557886042
 51
130.0679278108871131
  0
ARC
  5
C722
  8
0
 10
410.079024788073184
 20
66.3590806351737541
 30
0.0
 40
0.0118115438000005
 50
255.4910697160100881
 51
304.6351959833401111
  0
LINE
  5
C723
  8
0
 10
410.0760656313831873
 20
66.3476457779982809
 30
0.0
 11
410.0547312452314941
 21
66.3573185011911022
 31
0.0
  0
ARC
  5
C724
  8
0
 10
410.0597244902709804
 20
66.3680267883843129
 30
0.0
 40
0.0118152406085188
 50
190.5583619291766979
 51
245.0004890914873954
  0
ARC
  5
C725
  8
0
 10
409.9728799935687107
 20
66.3646967786317816
 30
0.0
 40
0.0752383230061483
 50
0.8872265558104047
 51
6.6764203313724817
  0
ARC
  5
C726
  8
0
 10
410.028219315577303
 20
66.3697528396053116
 30
0.0
 40
0.0197370310999806
 50
10.7791531807063805
 51
29.1702361758235185
  0
LINE
  5
C727
  8
0
 10
410.8921531504316249
 20
66.0680615787641301
 30
0.0
 11
410.8896082634360027
 21
66.0608645454112491
 31
0.0
  0
ARC
  5
C728
  8
0
 10
410.8710508606645249
 20
66.0674264842921417
 30
0.0
 40
0.0196834001000009
 50
290.4734711392979989
 51
340.5262923681834195
  0
LINE
  5
C729
  8
0
 10
410.8779355953532217
 20
66.0489864011100138
 30
0.0
 11
410.8124048171642926
 21
66.0684955845718349
 31
0.0
  0
ARC
  5
C72A
  8
0
 10
410.8282562106099931
 20
66.0801676094864945
 30
0.0
 40
0.0196852285055272
 50
180.0013020662331087
 51
216.3657250939002097
  0
ARC
  5
C72B
  8
0
 10
410.8282509929538264
 20
66.0801676093679333
 30
0.0
 40
0.019680010849373
 50
170.3206468227504899
 51
180.0013020662331087
  0
LINE
  5
C72C
  8
0
 10
410.8088511443559128
 20
66.0834764915676089
 30
0.0
 11
410.8116789898483034
 21
66.0923354284601459
 31
0.0
  0
ARC
  5
C72D
  8
0
 10
413.331790931423825
 20
70.0963061157184484
 30
0.0
 40
4.4008268471700323
 50
263.3616967331614092
 51
267.8135867887858126
  0
ENDSEC
  0
EOF
