  0
SECTION
  2
HEADER
  9
$ACADVER
  1
AC1009
  9
$INSBASE
 10
4216.3826905698761038
 20
22.0958734151654212
 30
0.0
  9
$EXTMIN
 10
4169.5502115670406056
 20
2.7655663317883352
 30
0.0
  9
$EXTMAX
 10
4224.2566773094504242
 20
68.8911284590545563
 30
0.0
  9
$LIMMIN
 10
0.0
 20
0.0
  9
$LIMMAX
 10
11.6929133858000007
 20
8.2677165353999982
  9
$ORTHOMODE
 70
     0
  9
$REGENMODE
 70
     1
  9
$FILLMODE
 70
     1
  9
$QTEXTMODE
 70
     0
  9
$MIRRTEXT
 70
     0
  9
$DRAGMODE
 70
     2
  9
$LTSCALE
 40
0.6431102362
  9
$OSMODE
 70
  4095
  9
$ATTMODE
 70
     1
  9
$TEXTSIZE
 40
0.2
  9
$TRACEWID
 40
0.05
  9
$TEXTSTYLE
  7
STANDARD
  9
$CLAYER
  8
0
  9
$CELTYPE
  6
BYLAYER
  9
$CECOLOR
 62
   256
  9
$DIMSCALE
 40
1.0
  9
$DIMASZ
 40
0.1875
  9
$DIMEXO
 40
0.0625
  9
$DIMDLI
 40
0.4443307087
  9
$DIMRND
 40
0.0
  9
$DIMDLE
 40
0.0
  9
$DIMEXE
 40
0.125
  9
$DIMTP
 40
0.01
  9
$DIMTM
 40
0.01
  9
$DIMTXT
 40
2.0
  9
$DIMCEN
 40
0.1052362205
  9
$DIMTSZ
 40
0.0
  9
$DIMTOL
 70
     1
  9
$DIMLIM
 70
     0
  9
$DIMTIH
 70
     1
  9
$DIMTOH
 70
     1
  9
$DIMSE1
 70
     0
  9
$DIMSE2
 70
     0
  9
$DIMTAD
 70
     0
  9
$DIMZIN
 70
     0
  9
$DIMBLK
  1

  9
$DIMASO
 70
     1
  9
$DIMSHO
 70
     1
  9
$DIMPOST
  1
\X
  9
$DIMAPOST
  1

  9
$DIMALT
 70
     1
  9
$DIMALTD
 70
     2
  9
$DIMALTF
 40
25.3999999999999986
  9
$DIMLFAC
 40
1.0
  9
$DIMTOFL
 70
     0
  9
$DIMTVP
 40
0.0
  9
$DIMTIX
 70
     0
  9
$DIMSOXD
 70
     0
  9
$DIMSAH
 70
     0
  9
$DIMBLK1
  1

  9
$DIMBLK2
  1

  9
$DIMSTYLE
  2
STANDARD
  9
$DIMCLRD
 70
     0
  9
$DIMCLRE
 70
     0
  9
$DIMCLRT
 70
     0
  9
$DIMTFAC
 40
1.0
  9
$DIMGAP
 40
0.09
  9
$LUNITS
 70
     2
  9
$LUPREC
 70
     4
  9
$SKETCHINC
 40
0.1
  9
$FILLETRAD
 40
0.0
  9
$AUNITS
 70
     0
  9
$AUPREC
 70
     0
  9
$MENU
  1
.
  9
$ELEVATION
 40
0.0
  9
$PELEVATION
 40
0.0
  9
$THICKNESS
 40
0.0
  9
$LIMCHECK
 70
     0
  9
$BLIPMODE
 70
     0
  9
$CHAMFERA
 40
0.0
  9
$CHAMFERB
 40
0.0
  9
$SKPOLY
 70
     0
  9
$TDCREATE
 40
2458060.468368056230247
  9
$TDUPDATE
 40
2459089.4889583331532776
  9
$TDINDWG
 40
0.428571875
  9
$TDUSRTIMER
 40
0.428571875
  9
$USRTIMER
 70
     1
  9
$ANGBASE
 50
0.0
  9
$ANGDIR
 70
     0
  9
$PDMODE
 70
     0
  9
$PDSIZE
 40
0.3125
  9
$PLINEWID
 40
0.0
  9
$COORDS
 70
     1
  9
$SPLFRAME
 70
     0
  9
$SPLINETYPE
 70
     6
  9
$SPLINESEGS
 70
     8
  9
$ATTDIA
 70
     1
  9
$ATTREQ
 70
     1
  9
$HANDLING
 70
     1
  9
$HANDSEED
  5
A8FC
  9
$SURFTAB1
 70
     6
  9
$SURFTAB2
 70
     6
  9
$SURFTYPE
 70
     6
  9
$SURFU
 70
     6
  9
$SURFV
 70
     6
  9
$UCSNAME
  2

  9
$UCSORG
 10
0.0
 20
0.0
 30
0.0
  9
$UCSXDIR
 10
1.0
 20
0.0
 30
0.0
  9
$UCSYDIR
 10
0.0
 20
1.0
 30
0.0
  9
$PUCSNAME
  2

  9
$PUCSORG
 10
0.0
 20
0.0
 30
0.0
  9
$PUCSXDIR
 10
1.0
 20
0.0
 30
0.0
  9
$PUCSYDIR
 10
0.0
 20
1.0
 30
0.0
  9
$USERI1
 70
     0
  9
$USERI2
 70
     0
  9
$USERI3
 70
     0
  9
$USERI4
 70
     0
  9
$USERI5
 70
     0
  9
$USERR1
 40
0.0
  9
$USERR2
 40
0.0
  9
$USERR3
 40
0.0
  9
$USERR4
 40
0.0
  9
$USERR5
 40
0.0
  9
$WORLDVIEW
 70
     1
  9
$SHADEDGE
 70
     3
  9
$SHADEDIF
 70
    70
  9
$TILEMODE
 70
     1
  9
$MAXACTVP
 70
    64
  9
$PLIMCHECK
 70
     0
  9
$PEXTMIN
 10
1.0000000000000000E+20
 20
1.0000000000000000E+20
 30
1.0000000000000000E+20
  9
$PEXTMAX
 10
-1.0000000000000000E+20
 20
-1.0000000000000000E+20
 30
-1.0000000000000000E+20
  9
$PLIMMIN
 10
0.0
 20
0.0
  9
$PLIMMAX
 10
12.0
 20
9.0
  9
$UNITMODE
 70
     0
  9
$VISRETAIN
 70
     1
  9
$PLINEGEN
 70
     0
  9
$PSLTSCALE
 70
     1
  0
ENDSEC
  0
SECTION
  2
TABLES
  0
TABLE
  2
VPORT
 70
     1
  0
VPORT
  2
*ACTIVE
 70
     0
 10
0.0
 20
0.0
 11
1.0
 21
1.0
 12
487.9554836282462134
 22
-122.8636860365114956
 13
0.0
 23
0.0
 14
1.0
 24
1.0
 15
0.0
 25
0.0
 16
0.0
 26
0.0
 36
5.1040778033513332
 17
3792.35791015625
 27
120.1806564331053977
 37
0.0
 40
311.5089385208282806
 41
2.005224660397074
 42
50.0
 43
0.0
 44
0.0
 50
0.0
 51
0.0
 71
     0
 72
   100
 73
     1
 74
     1
 75
     0
 76
     0
 77
     0
 78
     0
  0
ENDTAB
  0
TABLE
  2
LTYPE
 70
     2
  0
LTYPE
  2
CONTINUOUS
 70
     0
  3
Solid line
 72
    65
 73
     0
 40
0.0
  0
LTYPE
  2
PHANTOM2
 70
     0
  3
___ _ _ ___ _ _ ___ _ _ ___ _ _
 72
    65
 73
     6
 40
1.25
 49
0.625
 49
-0.125
 49
0.125
 49
-0.125
 49
0.125
 49
-0.125
  0
ENDTAB
  0
TABLE
  2
LAYER
 70
     2
  0
LAYER
  2
0
 70
     0
 62
   255
  6
CONTINUOUS
  0
LAYER
  2
DEFPOINTS
 70
     0
 62
     7
  6
CONTINUOUS
  0
ENDTAB
  0
TABLE
  2
STYLE
 70
     1
  0
STYLE
  2
STANDARD
 70
     0
 40
0.0
 41
0.8
 50
0.0
 71
     0
 42
0.2
  3
txt
  4

  0
ENDTAB
  0
TABLE
  2
VIEW
 70
     0
  0
ENDTAB
  0
TABLE
  2
UCS
 70
     0
  0
ENDTAB
  0
TABLE
  2
APPID
 70
     9
  0
APPID
  2
ACAD
 70
     0
  0
APPID
  2
ACAD_MLEADERVER
 70
     0
  0
APPID
  2
ACAD_EXEMPT_FROM_CAD_STANDARDS
 70
     0
  0
APPID
  2
ACAD_NAV_VCDISPLAY
 70
     0
  0
APPID
  2
ACAECLAYERSTANDARD
 70
     0
  0
APPID
  2
ACCMTRANSPARENCY
 70
     0
  0
APPID
  2
ACAD_DSTYLE_DIMJAG
 70
     0
  0
APPID
  2
ACAD_DSTYLE_DIMTALN
 70
     0
  0
APPID
  2
ACDBATTR
 70
     0
  0
ENDTAB
  0
TABLE
  2
DIMSTYLE
 70
     1
  0
DIMSTYLE
  2
STANDARD
 70
     0
  3

  4

  5

  6

  7

 40
1.0
 41
0.1875
 42
0.0625
 43
0.38
 44
0.125
 45
0.0
 46
0.0
 47
0.01
 48
0.01
140
0.15625
141
0.09
142
0.0
143
25.3999999999999986
144
1.0
145
0.0
146
1.0
147
0.09
 71
     1
 72
     0
 73
     1
 74
     1
 75
     0
 76
     0
 77
     0
 78
     4
170
     0
171
     2
172
     0
173
     0
174
     0
175
     0
176
     0
177
     0
178
     0
  0
ENDTAB
  0
ENDSEC
  0
SECTION
  2
BLOCKS
  0
BLOCK
  8
0
  2
$MODEL_SPACE
 70
     0
 10
0.0
 20
0.0
 30
0.0
  3
$MODEL_SPACE
  1

  0
ENDBLK
  5
21
  8
0
  0
BLOCK
 67
     1
  8
0
  2
$PAPER_SPACE
 70
     0
 10
0.0
 20
0.0
 30
0.0
  3
$PAPER_SPACE
  1

  0
ENDBLK
  5
1D
 67
     1
  8
0
  0
BLOCK
  8
0
  2
_FILLED
 70
     0
 10
0.0
 20
0.0
 30
0.0
  3
_FILLED
  1

  0
SOLID
  5
69B4
  8
0
  6
BYBLOCK
 62
     0
 10
0.0
 20
0.0
 30
0.0
 11
-1.0
 21
0.1666666667
 31
0.0
 12
-1.0
 22
-0.1666666667
 32
0.0
 13
-1.0
 23
-0.1666666667
 33
0.0
  0
ENDBLK
  5
69B5
  8
0
  6
BYBLOCK
 62
     0
  0
BLOCK
  8
0
  2
A$CDFAF6206
 70
     0
 10
0.0
 20
0.0
 30
0.0
  3
A$CDFAF6206
  1

  0
LINE
  5
6A0E
  8
0
 10
7.4646650085734834
 20
10.9287685970688493
 30
0.0
 11
7.4646650085734896
 21
10.8905784766688498
 31
0.0
  0
ARC
  5
6A0F
  8
0
 10
7.7269027075262349
 20
10.8926811525838598
 30
0.0
 40
0.2622461286616791
 50
180.4593995232625048
 51
217.0214027758331099
  0
LINE
  5
6A10
  8
0
 10
9.767814609867095
 20
10.9287685970688493
 30
0.0
 11
9.767814609867095
 21
10.8905433757650094
 31
0.0
  0
ARC
  5
6A11
  8
0
 10
9.5068669568548287
 20
10.8922438613003703
 30
0.0
 40
0.2609531936261092
 50
322.8847083717149076
 51
359.6266329125650145
  0
LINE
  5
6A12
  8
0
 10
7.517522606271406
 20
10.7347792678688396
 30
0.0
 11
9.7149570120691777
 21
10.7347792678688396
 31
0.0
  0
LINE
  5
6A13
  8
0
 10
7.4646650085734834
 20
10.9287685970688493
 30
0.0
 11
9.7678146123202936
 21
10.9287685970688493
 31
0.0
  0
ARC
  5
6A14
  8
0
 10
4.0826771419203629
 20
8.527951346868889
 30
0.0
 40
4.0826771653999172
 50
13.3117747050523896
 51
32.7200330051415591
  0
ARC
  5
6A15
  8
0
 10
4.0826771460567306
 20
8.5279513475907933
 30
0.0
 40
4.0826771612084691
 50
359.6656501984817851
 51
13.3117747085593798
  0
ARC
  5
6A16
  8
0
 10
13.1498041284835097
 20
8.5279508235212234
 30
0.0
 40
4.0826788382043553
 50
147.2799733478981068
 51
166.6882233021349862
  0
ARC
  5
6A17
  8
0
 10
13.1498064934207992
 20
8.5279506557033251
 30
0.0
 40
4.0826811782395342
 50
166.688228652086309
 51
180.3343397625230011
  0
LINE
  5
6A18
  8
0
 10
8.1652847935202928
 20
8.504127000268852
 30
0.0
 11
9.0671948248202892
 21
8.5041270002687881
 31
0.0
  0
LINE
  5
6A19
  8
0
 10
8.1652847935202786
 20
8.5041270002667204
 30
0.0
 11
8.1652847935202928
 21
8.3607006934688481
 31
0.0
  0
ARC
  5
6A1A
  8
0
 10
5.6196779630382627
 20
8.3631022096452732
 30
0.0
 40
2.545607963272567
 50
342.0511668832173768
 51
359.945947387132378
  0
LINE
  5
6A1B
  8
0
 10
9.0671948248202892
 20
8.5041270002687881
 30
0.0
 11
9.0671948248202892
 21
8.2885990108688503
 31
0.0
  0
ARC
  5
6A1C
  8
0
 10
9.4521885297801163
 20
7.9614488056228501
 30
0.0
 40
0.5052201595850959
 50
139.6436242991769916
 51
174.6757930071850069
  0
ARC
  5
6A1D
  8
0
 10
9.9238413395551746
 20
8.1492417579399508
 30
0.0
 40
0.9848265662939324
 50
188.2263441834095943
 51
209.5593615864376034
  0
ARC
  5
6A1E
  8
0
 10
8.0788764238271256
 20
7.5665710856463297
 30
0.0
 40
0.0393715937169877
 50
162.1669117288323037
 51
227.2023190037006088
  0
ARC
  5
6A1F
  8
0
 10
8.7223682141740682
 20
8.2079667397440517
 30
0.0
 40
0.947895137885075
 50
225.0018610752970858
 51
261.4598823366255829
  0
ARC
  5
6A20
  8
0
 10
8.6645157662702701
 20
8.1695128573935332
 30
0.0
 40
0.9027466462812931
 50
264.7303071214498118
 51
281.8608311947915013
  0
ARC
  5
6A21
  8
0
 10
8.6645157662698935
 20
8.1695128573999671
 30
0.0
 40
0.9027466462876658
 50
299.1741886792128753
 51
299.1743179154552195
  0
ARC
  5
6A22
  8
0
 10
9.0843330931590316
 20
7.4150554710086141
 30
0.0
 40
0.0393703053609601
 50
251.9700352025496954
 51
252.4698971938937859
  0
ARC
  5
6A23
  8
0
 10
9.0843330931590316
 20
7.4150554710086141
 30
0.0
 40
0.0393703053609601
 50
297.2453716727138726
 51
6.8376113572703074
  0
LINE
  5
6A24
  8
0
 10
9.0671948248202892
 20
7.663402160468852
 30
0.0
 11
9.1234233799329516
 21
7.419742732911689
 31
0.0
  0
ARC
  5
6A25
  8
0
 10
8.8843741880892395
 20
9.8961379890094676
 30
0.0
 40
2.5255097382132701
 50
263.792800240752797
 51
274.9514951129821156
  0
ARC
  5
6A26
  8
0
 10
8.8258167405968848
 20
9.2763025889666508
 30
0.0
 40
1.9029970832759311
 50
246.0108363320686067
 51
263.5276935074397215
  0
ARC
  5
6A27
  8
0
 10
8.607491361665744
 20
8.3225444804829642
 30
0.0
 40
1.064510137163637
 50
283.1717405874071005
 51
297.7022170607311864
  0
LINE
  5
6A28
  8
0
 10
9.0671948248202892
 20
8.2885990108688503
 30
0.0
 11
26.2014378595979593
 21
8.2885990108689942
 31
0.0
  0
LINE
  5
6A29
  8
0
 10
26.2014378595979913
 20
7.6634021604689053
 30
0.0
 11
9.0671948248202892
 21
7.6634021604688618
 31
0.0
  0
LINE
  5
6A2A
  8
0
 10
27.8039676758446994
 20
10.9287685970690802
 30
0.0
 11
27.8039676758446888
 21
10.8905784766690807
 31
0.0
  0
ARC
  5
6A2B
  8
0
 10
27.5417299768919399
 20
10.8926811525840801
 30
0.0
 40
0.2622461286616791
 50
322.9785972241680838
 51
359.5406004767386889
  0
LINE
  5
6A2C
  8
0
 10
25.5008180745510913
 20
10.9287685970690305
 30
0.0
 11
25.5008180745510913
 21
10.8905433757651799
 31
0.0
  0
ARC
  5
6A2D
  8
0
 10
25.7617657275633505
 20
10.8922438613005497
 30
0.0
 40
0.2609531936261092
 50
180.3733670874362929
 51
217.1152916282862861
  0
LINE
  5
6A2E
  8
0
 10
27.7511100781467803
 20
10.7347792678690706
 30
0.0
 11
25.5536756723490015
 21
10.7347792678690208
 31
0.0
  0
LINE
  5
6A2F
  8
0
 10
27.8039676758446888
 20
10.9287685970686006
 30
0.0
 11
25.5008180745510806
 21
10.9287685970686006
 31
0.0
  0
ARC
  5
6A30
  8
0
 10
31.1859555424978616
 20
8.5279513468691981
 30
0.0
 40
4.0826771653999172
 50
147.2799669948597057
 51
166.6882252949490066
  0
ARC
  5
6A31
  8
0
 10
31.185955538361501
 20
8.5279513475911024
 30
0.0
 40
4.0826771612084691
 50
166.6882252914419098
 51
180.3343498015194086
  0
ARC
  5
6A32
  8
0
 10
22.1188285559344706
 20
8.5279508235212251
 30
0.0
 40
4.0826788382046102
 50
13.3117766978667795
 51
32.7200266521023977
  0
ARC
  5
6A33
  8
0
 10
22.1188261909974315
 20
8.5279506557034264
 30
0.0
 40
4.0826811782395342
 50
359.665660237478221
 51
13.31177134791497
  0
LINE
  5
6A34
  8
0
 10
27.1033478908979397
 20
8.5041270002690652
 30
0.0
 11
26.2014378595979416
 21
8.5041270002689835
 31
0.0
  0
LINE
  5
6A35
  8
0
 10
27.1033478908979504
 20
8.5041270002669354
 30
0.0
 11
27.1033478908979397
 21
8.3607006934690649
 31
0.0
  0
ARC
  5
6A36
  8
0
 10
29.6489547213799689
 20
8.3631022096455467
 30
0.0
 40
2.545607963272567
 50
180.0540526128687873
 51
197.9488331167837032
  0
LINE
  5
6A37
  8
0
 10
26.2014378595979416
 20
8.5041270002689835
 30
0.0
 11
26.2014378595979487
 21
8.2885990108690457
 31
0.0
  0
ARC
  5
6A38
  8
0
 10
25.8164441546381305
 20
7.9614488056230366
 30
0.0
 40
0.5052201595850959
 50
5.324206992816312
 51
40.3563757008241879
  0
ARC
  5
6A39
  8
0
 10
25.3447913448601803
 20
8.149241757940846
 30
0.0
 40
0.9848265662968968
 50
330.4406384136033807
 51
351.7736558165743759
  0
ARC
  5
6A3A
  8
0
 10
27.1897562605911212
 20
7.5665710856465473
 30
0.0
 40
0.0393715937169877
 50
312.7976809963004143
 51
17.8330882711689185
  0
ARC
  5
6A3B
  8
0
 10
26.5462644702441715
 20
8.2079667397442542
 30
0.0
 40
0.947895137885075
 50
278.5401176633754972
 51
314.9981389247041079
  0
ARC
  5
6A3C
  8
0
 10
26.6041169181479695
 20
8.1695128573937392
 30
0.0
 40
0.9027466462812931
 50
258.139168805210204
 51
275.2696928785518935
  0
ARC
  5
6A3D
  8
0
 10
26.6041169181483497
 20
8.1695128574001732
 30
0.0
 40
0.9027466462876658
 50
240.8256820845460027
 51
240.8258113207880058
  0
ARC
  5
6A3E
  8
0
 10
26.1842995912592293
 20
7.4150554710088086
 30
0.0
 40
0.0393703053609601
 50
287.5301028061073794
 51
288.0299647974517825
  0
ARC
  5
6A3F
  8
0
 10
26.1842995912592293
 20
7.4150554710088086
 30
0.0
 40
0.0393703053609601
 50
173.1623886427310026
 51
242.7546283272870085
  0
LINE
  5
6A40
  8
0
 10
26.2014378595981192
 20
7.6634021604690448
 30
0.0
 11
26.1452093044853093
 21
7.4197427329118826
 31
0.0
  0
ARC
  5
6A41
  8
0
 10
26.384258496328961
 20
9.8961379890096666
 30
0.0
 40
2.5255097382132701
 50
265.0485048870193054
 51
276.2071997592482262
  0
ARC
  5
6A42
  8
0
 10
26.4428159438213299
 20
9.2763025889668516
 30
0.0
 40
1.9029970832759311
 50
276.4723064925619838
 51
293.9891636679327007
  0
ARC
  5
6A43
  8
0
 10
26.6611413227524885
 20
8.3225444804831703
 30
0.0
 40
1.064510137163637
 50
242.2977829392704052
 51
256.8282594125943774
  0
LINE
  5
6A44
  8
0
 62
     4
 10
17.9031473532159602
 20
10.9287685970686006
 30
0.0
 11
24.6329820359843588
 21
20.0952817181593808
 31
0.0
  0
LINE
  5
6A45
  8
0
 62
     4
 10
17.9031473532159602
 20
-0.0000000300842942
 30
0.0
 11
22.3963351323106608
 21
4.993614497796286
 31
0.0
  0
ENDBLK
  5
6A49
  8
0
  0
ENDSEC
  0
SECTION
  2
ENTITIES
  0
ATTDEF
  5
3930
  8
DEFPOINTS
 10
4216.3826905698761038
 20
22.0976095321026413
 30
0.0
 40
0.001
  1
K-6302IN
  3

  2
MODELNUMBER
 70
     0
1001
ACDBATTR
1070
     0
1070
     1
  0
ATTDEF
  5
3931
  8
DEFPOINTS
 10
4216.3826905698761038
 20
22.0959428654359691
 30
0.0
 40
0.001
  1
ODEON
  3

  2
TRADENAME
 70
     0
1001
ACDBATTR
1070
     0
1070
     1
  0
ATTDEF
  5
3932
  8
DEFPOINTS
 10
4216.3826905698761038
 20
22.094276198769311
 30
0.0
 40
0.001
  1
TOILET
  3

  2
PRODUCT
 70
     0
1001
ACDBATTR
1070
     0
1070
     1
  0
ARC
  5
A7D6
  8
0
 10
4216.3562254579692308
 20
13.0186569748544407
 30
0.0
 40
29.0518078586815207
 50
89.9478058153247702
 51
99.7129622345518953
  0
ARC
  5
A7D7
  8
0
 10
4215.1556135774499126
 20
22.2341205223211809
 30
0.0
 40
19.7693751539696905
 50
100.789307993924794
 51
105.2678289129951992
  0
LINE
  5
A7D8
  8
0
 10
4209.8162220980029815
 20
41.269410122165489
 30
0.0
 11
4209.9497159909033144
 21
41.3057440582654181
 31
0.0
  0
ARC
  5
A7D9
  8
0
 10
4209.9371526467193689
 20
40.6545220502378086
 30
0.0
 40
0.6266670077572382
 50
101.126404762325393
 51
150.6590585502121939
  0
ARC
  5
A7DA
  8
0
 10
4213.5761722276392902
 20
39.6647094185341231
 30
0.0
 40
4.3816228818689806
 50
162.7835492050780886
 51
165.5462661701180878
  0
ARC
  5
A7DB
  8
0
 10
4218.9345478316508888
 20
38.256461169295072
 30
0.0
 40
9.9219340893010042
 50
165.3947627567517884
 51
173.1542671396667004
  0
ARC
  5
A7DC
  8
0
 10
4219.4986150207623723
 20
37.9719887759948804
 30
0.0
 40
10.5180898984556794
 50
171.9818627834515041
 51
174.1788059721017987
  0
ARC
  5
A7DD
  8
0
 10
4196.4550686416741883
 20
40.1505807543572004
 30
0.0
 40
12.6287308825461295
 50
353.3400009768923269
 51
354.9492833720750014
  0
ARC
  5
A7DE
  8
0
 10
4212.4991618015656059
 20
38.8228911685700666
 30
0.0
 40
3.503260835982609
 50
182.2404986601719941
 51
191.7747111644025892
  0
ARC
  5
A7DF
  8
0
 10
4209.2610090577081792
 20
38.1936263461277008
 30
0.0
 40
0.2096712749577528
 50
204.1028077278681963
 51
266.0538669363280064
  0
ARC
  5
A7E0
  8
0
 10
4209.3946567643433809
 20
39.0807003690223524
 30
0.0
 40
1.1062038355678001
 50
262.3072673811452091
 51
269.4522774993640155
  0
LINE
  5
A7E1
  8
0
 10
4209.384082102335924
 20
37.9745470784042496
 30
0.0
 11
4209.4738923897457425
 21
37.9739428299942219
 31
0.0
  0
ARC
  5
A7E2
  8
0
 10
4208.186276921438548
 20
40.0047345622419215
 30
0.0
 40
0.9678173652611238
 50
349.5821953982148216
 51
351.940588744435388
  0
ARC
  5
A7E3
  8
0
 10
4212.9709355423856323
 20
39.1729712266187988
 30
0.0
 40
3.8886567960056611
 50
172.2491886490753075
 51
178.1307271189365053
  0
ARC
  5
A7E4
  8
0
 10
4210.2176259957150251
 20
39.2376161080256196
 30
0.0
 40
1.134983548470639
 50
176.8584754616207988
 51
193.9755569766332997
  0
ARC
  5
A7E5
  8
0
 10
4209.3953152537742426
 20
39.0411621917944629
 30
0.0
 40
0.289678248948336
 50
195.5493641553348141
 51
224.3917355888281122
  0
ARC
  5
A7E6
  8
0
 10
4209.323728075121835
 20
39.1983928858674275
 30
0.0
 40
0.3845099534221489
 50
249.3804770694150079
 51
270.6201625659389833
  0
ARC
  5
A7E7
  8
0
 10
4212.8607363762666864
 20
224.0836494211650063
 30
0.0
 40
185.3034242350096861
 50
268.9075784267180893
 51
271.0890530882089138
  0
ARC
  5
A7E8
  8
0
 10
4204.9253592591603592
 20
81.4339695350155353
 30
0.0
 40
42.2001918330353902
 50
273.8731849961600915
 51
275.6545360769312083
  0
ARC
  5
A7E9
  8
0
 10
4207.9123843794395725
 20
37.0333318113124221
 30
0.0
 40
2.3008818810528289
 50
93.4003627170688731
 51
105.168050441478897
  0
ARC
  5
A7EA
  8
0
 10
4207.4967965745399852
 20
38.57644325012172
 30
0.0
 40
0.7027945245914275
 50
105.3838410519167041
 51
149.7438315334943013
  0
ARC
  5
A7EB
  8
0
 10
4207.326120018607071
 20
38.6803315015075313
 30
0.0
 40
0.5030353462952221
 50
150.1696447588608976
 51
181.6295320542805882
  0
ARC
  5
A7EC
  8
0
 10
4207.44954383510958
 20
38.7198457057014735
 30
0.0
 40
0.6285640140268769
 50
184.9117973353316984
 51
260.3416172657734933
  0
ARC
  5
A7ED
  8
0
 10
4208.8454086098054177
 20
47.0843287372748804
 30
0.0
 40
9.108715167265645
 50
260.5130775604969244
 51
272.52426954821658
  0
ARC
  5
A7EE
  8
0
 10
4207.5445131282458533
 20
38.4239612009963309
 30
0.0
 40
0.8053338218030582
 50
55.8186477951694116
 51
90.5890387690741505
  0
ARC
  5
A7EF
  8
0
 10
4207.7205505026377068
 20
38.663705975392503
 30
0.0
 40
0.5082191411539818
 50
1.951669264223949
 51
57.0517936731024164
  0
ARC
  5
A7F0
  8
0
 10
4207.5456603059419649
 20
38.9341935924486222
 30
0.0
 40
0.8014810941149749
 50
269.3261158329265186
 51
304.2687257863793207
  0
ARC
  5
A7F1
  8
0
 10
4207.7212969097936366
 20
38.6979057508228621
 30
0.0
 40
0.5074591322334624
 50
302.9024968980219228
 51
358.0924617040009252
  0
ARC
  5
A7F2
  8
0
 10
4207.5278708214973449
 20
38.4242390571483625
 30
0.0
 40
0.8050568471510468
 50
89.4047897723472715
 51
124.187524696988902
  0
ARC
  5
A7F3
  8
0
 10
4207.3518899760138083
 20
38.6637316012828194
 30
0.0
 40
0.5081827667553488
 50
122.9471918236670973
 51
178.0515246657340072
  0
ARC
  5
A7F4
  8
0
 10
4207.5278614622502573
 20
38.9376849342977209
 30
0.0
 40
0.8049605433524384
 50
235.8092057631357079
 51
270.5959476028045856
  0
ARC
  5
A7F5
  8
0
 10
4207.3511448064973592
 20
38.6978811831725977
 30
0.0
 40
0.5074243127238334
 50
181.9053370775060046
 51
237.0984684505110067
  0
ARC
  5
A7F6
  8
0
 10
4207.5377230180120023
 20
38.39027962279701
 30
0.0
 40
0.8282813213511101
 50
61.8254703459693715
 51
90.1030128658509852
  0
ARC
  5
A7F7
  8
0
 10
4207.7106926088090404
 20
38.6594273809542699
 30
0.0
 40
0.5099874616421743
 50
2.4254053850506221
 51
64.6796570786434302
  0
ARC
  5
A7F8
  8
0
 10
4207.5384989380863772
 20
38.9586856029565922
 30
0.0
 40
0.8152477880259784
 50
269.8408174498201788
 51
302.7286952663175725
  0
ARC
  5
A7F9
  8
0
 10
4207.7241798476798067
 20
38.6986579370912693
 30
0.0
 40
0.496357214602533
 50
300.9258922233045723
 51
357.9623515122297022
  0
ARC
  5
A7FA
  8
0
 10
4207.5347396507713711
 20
38.3902796318237378
 30
0.0
 40
0.8282813213511101
 50
89.8966404175889409
 51
118.1741829374780934
  0
ARC
  5
A7FB
  8
0
 10
4207.361771688684712
 20
38.6594284366746876
 30
0.0
 40
0.5099874616421743
 50
115.319996204817997
 51
177.5742478984255115
  0
ARC
  5
A7FC
  8
0
 10
4207.5339672666723345
 20
38.9586858280280026
 30
0.0
 40
0.815248017924871
 50
237.2709603518109134
 51
270.1593045988548738
  0
ARC
  5
A7FD
  8
0
 10
4207.3482846872102527
 20
38.6986590744268995
 30
0.0
 40
0.496357214602533
 50
182.037301771240692
 51
239.0737610601491099
  0
ARC
  5
A7FE
  8
0
 10
4207.5088655575191297
 20
40.7327314522717927
 30
0.0
 40
2.5449530394049651
 50
270.4705959618636939
 51
272.3167034668078941
  0
ARC
  5
A7FF
  8
0
 10
4207.6324184875793435
 20
37.8192860360068508
 30
0.0
 40
0.3711489600030888
 50
87.2488164767898837
 51
93.1938122883561704
  0
ARC
  5
A800
  8
0
 10
4207.5526617232217177
 20
38.5186559523266681
 30
0.0
 40
0.3470439440202889
 50
272.1632321316732828
 51
286.4654951688052051
  0
ARC
  5
A801
  8
0
 10
4207.5153960784973606
 20
40.6676878883244228
 30
0.0
 40
2.4798652808663442
 50
269.0355934977997094
 51
270.3320601662084073
  0
ARC
  5
A802
  8
0
 10
4207.5238401719343528
 20
38.6274798052553834
 30
0.0
 40
0.4564155832762738
 50
259.5204708709920851
 51
267.8486093070742982
  0
ARC
  5
A803
  8
0
 10
4207.4519349936790604
 20
38.2576693584802925
 30
0.0
 40
0.0797695175171639
 50
245.7067609999321007
 51
261.9943137154917849
  0
ARC
  5
A804
  8
0
 10
4207.4197036906298308
 20
38.186455793265651
 30
0.0
 40
0.0016035792768
 50
189.8977577841806124
 51
248.5496912535595015
  0
ARC
  5
A805
  8
0
 10
4207.4249045163996925
 20
38.1764452634746831
 30
0.0
 40
0.0118635477443947
 50
84.0809614169969421
 51
124.8579516886848069
  0
ARC
  5
A806
  8
0
 10
4207.4484420153603423
 20
37.2263576771895472
 30
0.0
 40
0.9621466736724869
 50
88.4982898903311934
 51
91.328922152606367
  0
LINE
  5
A807
  8
0
 10
4207.5067063180413243
 20
38.1878378325126633
 30
0.0
 11
4207.5067063180413243
 21
38.1699615452436376
 31
0.0
  0
LINE
  5
A808
  8
0
 10
4207.5067063181031699
 20
38.1699615452421526
 30
0.0
 11
4207.5657614362662571
 21
38.1704255039528704
 31
0.0
  0
LINE
  5
A809
  8
0
 10
4207.5657614362062304
 20
38.1704255039543625
 30
0.0
 11
4207.5657614362417007
 21
38.1884144846435802
 31
0.0
  0
ARC
  5
A80A
  8
0
 10
4207.6504295371787521
 20
38.1845780579639325
 30
0.0
 40
0.0054326997424378
 50
43.8994155645405328
 51
92.0713480975925336
  0
ARC
  5
A80B
  8
0
 10
4207.6492559379039449
 20
38.1916432542757605
 30
0.0
 40
0.0060636295213815
 50
286.9836767485393807
 51
327.0483999353505169
  0
ARC
  5
A80C
  8
0
 10
4210.1555284709656917
 20
38.3902648594435476
 30
0.0
 40
0.457235819457019
 50
245.5772370316406068
 51
274.8405065070634237
  0
ARC
  5
A80D
  8
0
 10
4210.8878661491726234
 20
38.5091205589989016
 30
0.0
 40
0.5746243051188653
 50
268.6328251098577766
 51
291.3533018016315737
  0
LINE
  5
A80E
  8
0
 10
4210.1941110878351537
 20
37.9346597933280094
 30
0.0
 11
4210.8741559356467405
 21
37.934659836165423
 31
0.0
  0
ARC
  5
A80F
  8
0
 10
4211.6875483551893922
 20
38.4783631097976908
 30
0.0
 40
0.6224671776997944
 50
234.1308204811192013
 51
269.8800727690787085
  0
ARC
  5
A810
  8
0
 10
4212.2613717326566984
 20
38.475315332302948
 30
0.0
 40
0.6192890191358026
 50
270.7857522737709246
 51
305.9436580486603816
  0
LINE
  5
A811
  8
0
 10
4216.0040061333402264
 20
37.9739416996213066
 30
0.0
 11
4216.0040061330355456
 21
37.8542383556043376
 31
0.0
  0
LINE
  5
A812
  8
0
 10
4216.1473012456362994
 20
37.9739416748167002
 30
0.0
 11
4216.1493906747364235
 21
37.8542383671043297
 31
0.0
  0
ARC
  5
A813
  8
0
 10
4216.5028859680360256
 20
37.9436581353043891
 30
0.0
 40
0.1940487543001597
 50
171.0216435761423952
 51
207.4492243603002066
  0
ARC
  5
A814
  8
0
 10
4216.5027292653348923
 20
37.9534507248042416
 30
0.0
 40
0.2135726654998639
 50
174.4943691716613046
 51
207.6900183248997109
  0
ARC
  5
A815
  8
0
 10
4209.6093613457160245
 20
37.541082560650203
 30
0.0
 40
0.3132849950179877
 50
91.645487642837054
 51
180.0310497331986141
  0
LINE
  5
A816
  8
0
 10
4209.2960763967030289
 20
37.5409127851654176
 30
0.0
 11
4209.2960763966029845
 21
35.513353861410053
 31
0.0
  0
ARC
  5
A817
  8
0
 10
4223.4030700579050972
 20
35.4977236328550703
 30
0.0
 40
14.1070023056214797
 50
179.9365188774812054
 51
233.3170042414654972
  0
ARC
  5
A818
  8
0
 10
4216.4783218044567548
 20
26.2749018452031606
 30
0.0
 40
2.5743485950940781
 50
234.2902583176741871
 51
267.8710998556283016
  0
ARC
  5
A819
  8
0
 10
4222.7630302921379553
 20
38.0979371252698229
 30
0.0
 40
12.4525301741242203
 50
187.8406581463075895
 51
191.6788069337723925
  0
ARC
  5
A81A
  8
0
 10
4220.2708783207999659
 20
38.1045153739415099
 30
0.0
 40
10.0263604651779499
 50
194.5997087350625918
 51
228.1411787591565883
  0
ARC
  5
A81B
  8
0
 10
4211.8771435526150526
 20
29.0888183317352116
 30
0.0
 40
2.3016426556039442
 50
18.5757904537132603
 51
42.2702681728971399
  0
ARC
  5
A81C
  8
0
 10
4212.957611889754844
 20
29.4125063014704011
 30
0.0
 40
1.1749440902805619
 50
0.2394504037344994
 51
20.3983308807114092
  0
ARC
  5
A81D
  8
0
 10
3762.7794455038410888
 20
10.6337174147305902
 30
0.0
 40
451.7437862657715186
 50
1.9425382108516891
 51
2.3830699663958579
  0
ARC
  5
A81E
  8
0
 10
4216.3809383047610027
 20
26.1010204210226817
 30
0.0
 40
2.122938673178199
 50
184.1723047730934866
 51
270.0472872824187789
  0
LINE
  5
A81F
  8
0
 10
4213.5803136232034376
 20
30.6369690429878396
 30
0.0
 11
4213.8822299921157537
 21
26.0096355400853412
 31
0.0
  0
ARC
  5
A820
  8
0
 10
4216.1580560097036141
 20
26.1463866286271696
 30
0.0
 40
2.2799309030204791
 50
183.4386857552999004
 51
232.0128199928165031
  0
LINE
  5
A821
  8
0
 10
4223.3531475211029829
 20
36.3991805017654215
 30
0.0
 11
4209.4122336187019755
 21
36.3991805017654215
 31
0.0
  0
ARC
  5
A822
  8
0
 10
4209.4128796991426498
 20
36.5159719665337192
 30
0.0
 40
0.1167932517856192
 50
179.681845416622906
 51
269.6830478582434125
  0
ARC
  5
A823
  8
0
 10
4209.6067137340778572
 20
36.4833368629047214
 30
0.0
 40
0.2856023600412065
 50
188.7983611304366036
 51
260.3600882691297898
  0
ARC
  5
A824
  8
0
 10
4209.5280044869396079
 20
36.560154741991397
 30
0.0
 40
0.3597156403091583
 50
274.9252185214779729
 51
333.4163350786128035
  0
LINE
  5
A825
  8
0
 10
4209.1445353720919229
 20
39.8690467062967926
 30
0.0
 11
4208.5158317467030429
 21
51.1526222991654222
 31
0.0
  0
ARC
  5
A826
  8
0
 10
4208.6730917523682365
 20
51.161377858829951
 30
0.0
 40
0.1575035530087141
 50
118.416645694640394
 51
183.1866922151396864
  0
ARC
  5
A827
  8
0
 10
4208.3847410095513624
 20
51.6103149239095771
 30
0.0
 40
0.3766878396580017
 50
304.5073183255234994
 51
339.416697188509886
  0
ARC
  5
A828
  8
0
 10
4208.5874439878052726
 20
51.5566608166676517
 30
0.0
 40
0.0787401575022484
 50
179.9999999999974989
 51
269.9999999992705284
  0
ARC
  5
A829
  8
0
 10
4208.8119194419759879
 20
52.4691281717338285
 30
0.0
 40
0.1742911617650505
 50
103.3834203694482028
 51
175.0755624220645927
  0
ARC
  5
A82A
  8
0
 10
4216.7242857753981298
 20
-7.450566731304618
 30
0.0
 40
60.613231915639453
 50
90.2188103656712599
 51
97.5391823191164917
  0
ARC
  5
A82B
  8
0
 10
4217.609767566183109
 20
22.2341205224835612
 30
0.0
 40
19.7693751539696905
 50
74.7321710945684856
 51
79.2106920136608039
  0
LINE
  5
A82C
  8
0
 10
4222.9491590431098302
 20
41.2694101230344614
 30
0.0
 11
4222.8156651502058594
 21
41.305744059116698
 31
0.0
  0
ARC
  5
A82D
  8
0
 10
4222.8282284944762068
 20
40.6545220510907583
 30
0.0
 40
0.6266670077572382
 50
29.3409414573875083
 51
78.8735952452685893
  0
ARC
  5
A82E
  8
0
 10
4219.1892089136863433
 20
39.6647094189055025
 30
0.0
 40
4.3816228818689806
 50
14.4537338374595592
 51
17.2164508025031289
  0
ARC
  5
A82F
  8
0
 10
4213.8308333098621006
 20
38.2564611689573724
 30
0.0
 40
9.9219340893010042
 50
6.8457328679134859
 51
14.6052372508210393
  0
ARC
  5
A830
  8
0
 10
4213.2667661207869969
 20
37.9719887755825312
 30
0.0
 40
10.5180898984556794
 50
5.8211940354762239
 51
8.0181372241356996
  0
ARC
  5
A831
  8
0
 10
4235.7886178847011251
 20
40.1007856025849208
 30
0.0
 40
12.1046786401612199
 50
185.0333304821837999
 51
186.7123416140726135
  0
ARC
  5
A832
  8
0
 10
4221.5392955415672986
 20
38.6668247846927784
 30
0.0
 40
2.22769724182724
 50
345.4720471561000181
 51
0.4914974935251196
  0
ARC
  5
A833
  8
0
 10
4223.5043720838111767
 20
38.1936263470701078
 30
0.0
 40
0.2096712749577362
 50
273.9461330712459244
 51
335.8971922797077809
  0
ARC
  5
A834
  8
0
 10
4223.3707243770586501
 20
39.0807003699471025
 30
0.0
 40
1.1062038355678001
 50
270.5477225081922938
 51
277.6927326264269027
  0
LINE
  5
A835
  8
0
 10
4223.3812990392134452
 20
37.9745470793303923
 30
0.0
 11
4223.2914887615916086
 21
37.9739404381466628
 31
0.0
  0
ARC
  5
A836
  8
0
 10
4224.5791042198407013
 20
40.0047345633265579
 30
0.0
 40
0.9678173652611238
 50
188.0594112631436872
 51
190.4178046093639125
  0
ARC
  5
A837
  8
0
 10
4219.7944455990036658
 20
39.1729712270702777
 30
0.0
 40
3.8886567960056611
 50
1.8692728886458581
 51
7.7508113585024399
  0
ARC
  5
A838
  8
0
 10
4222.5477551456669971
 20
39.2376161088414506
 30
0.0
 40
1.134983548470639
 50
346.0244430309475092
 51
3.1415245459612611
  0
ARC
  5
A839
  8
0
 10
4223.3700658876332454
 20
39.0411621927191135
 30
0.0
 40
0.289678248948336
 50
315.6082644187616779
 51
344.4506358522477854
  0
ARC
  5
A83A
  8
0
 10
4223.4416530662647347
 20
39.198392886801571
 30
0.0
 40
0.3845099534221489
 50
269.379837441669622
 51
290.6195229381581839
  0
ARC
  5
A83B
  8
0
 10
4219.9046448112230792
 20
224.0836420308019967
 30
0.0
 40
185.3034168441785141
 50
268.9109468977187021
 51
271.0924216026252225
  0
ARC
  5
A83C
  8
0
 10
4222.6098526705272889
 20
38.3902648602676067
 30
0.0
 40
0.457235819457019
 50
265.1594935005196021
 51
294.4220894976361933
  0
ARC
  5
A83D
  8
0
 10
4221.8775149923058052
 20
38.5091205597260426
 30
0.0
 40
0.5746243051188653
 50
248.6471994999039907
 51
271.3671748977002949
  0
LINE
  5
A83E
  8
0
 10
4222.5712700537187629
 20
37.9346597941469668
 30
0.0
 11
4221.8912252059080856
 21
37.9346598368943688
 31
0.0
  0
ARC
  5
A83F
  8
0
 10
4221.0778327862935839
 20
38.4783631104190107
 30
0.0
 40
0.6224671776997944
 50
270.1199272385294989
 51
305.8689042347926943
  0
ARC
  5
A840
  8
0
 10
4220.5040094088253682
 20
38.4753153328483393
 30
0.0
 40
0.6192890191358026
 50
234.0565470898407909
 51
269.2142477338379081
  0
LINE
  5
A841
  8
0
 10
4216.7613750082091428
 20
37.973941568519578
 30
0.0
 11
4216.761375008529285
 21
37.8542383556544593
 31
0.0
  0
LINE
  5
A842
  8
0
 10
4216.6180798944897106
 20
37.9739415933241773
 30
0.0
 11
4216.6159904668293166
 21
37.8542383671352098
 31
0.0
  0
ARC
  5
A843
  8
0
 10
4216.2624951735160721
 20
37.9436581352884872
 30
0.0
 40
0.1940487543001597
 50
332.550775647279977
 51
8.9783490316092465
  0
ARC
  5
A844
  8
0
 10
4216.2626518762162959
 20
37.953450724788361
 30
0.0
 40
0.2135726654998639
 50
332.3099816826921256
 51
5.5056221971426691
  0
ARC
  5
A845
  8
0
 10
4223.1531172536188024
 20
37.5399060061457988
 30
0.0
 40
0.3161890941395824
 50
0.1824362215767739
 51
87.8543551620077636
  0
LINE
  5
A846
  8
0
 10
4223.469304744902729
 20
37.5409127861032133
 30
0.0
 11
4223.4693047452719838
 21
35.5133538623478415
 31
0.0
  0
ARC
  5
A847
  8
0
 10
4209.3623110839707806
 20
35.4977236319260427
 30
0.0
 40
14.1070023056214797
 50
306.6829957660880268
 51
0.0634811301008475
  0
ARC
  5
A848
  8
0
 10
4216.2870593386405744
 20
26.2749018451904988
 30
0.0
 40
2.5743485950940781
 50
272.12890015193301
 51
305.7097416899442237
  0
ARC
  5
A849
  8
0
 10
4210.0023508493959525
 20
38.0979371244254992
 30
0.0
 40
12.4525301741242203
 50
348.3211930738152091
 51
352.1593418612675919
  0
ARC
  5
A84A
  8
0
 10
4212.4945028207321229
 20
38.1045153734269775
 30
0.0
 40
10.0263604651779499
 50
311.8588212484108908
 51
345.4002912725101737
  0
ARC
  5
A84B
  8
0
 10
4220.8882375901102932
 20
29.0888183323314387
 30
0.0
 40
2.3016426556039442
 50
137.7297318346896873
 51
161.424209553862994
  0
ARC
  5
A84C
  8
0
 10
4219.8077692529277556
 20
29.4125063019236599
 30
0.0
 40
1.1749440902805619
 50
159.6016691268758052
 51
179.7605496038476929
  0
ARC
  5
A84D
  8
0
 10
4669.9859356413271598
 20
10.6337174747568692
 30
0.0
 40
451.7437862657715186
 50
177.6169300411860945
 51
178.0574617967299105
  0
ARC
  5
A84E
  8
0
 10
4216.3844428383599734
 20
26.1010204210229091
 30
0.0
 40
2.122938673178199
 50
269.9527127251370757
 51
355.827695234489795
  0
LINE
  5
A84F
  8
0
 10
4219.1850675193181814
 20
30.6369690433586896
 30
0.0
 11
4218.8831511510161363
 21
26.0096355404162409
 31
0.0
  0
ARC
  5
A850
  8
0
 10
4216.607325133410086
 20
26.1463866286568987
 30
0.0
 40
2.2799309030204791
 50
307.9871800147378735
 51
356.5613142522827843
  0
ARC
  5
A851
  8
0
 10
4223.3525014425977133
 20
36.5159719674560392
 30
0.0
 40
0.1167932517856192
 50
270.3169521493127263
 51
0.3181545909593302
  0
ARC
  5
A852
  8
0
 10
4223.1586674076679628
 20
36.483336863801398
 30
0.0
 40
0.2856023600412065
 50
279.6399117384291912
 51
351.201638877143921
  0
ARC
  5
A853
  8
0
 10
4223.2373766547952982
 20
36.5601547428984901
 30
0.0
 40
0.3597156403091583
 50
206.5836649289670106
 51
265.0747814861059055
  0
LINE
  5
A854
  8
0
 10
4223.6208457692064258
 20
39.8690467072546326
 30
0.0
 11
4224.2495493931019155
 21
51.1526223002064597
 31
0.0
  0
ARC
  5
A855
  8
0
 10
4224.0922893874367219
 20
51.1613778598501696
 30
0.0
 40
0.1575035530087141
 50
356.813307792441492
 51
61.5833543129428378
  0
ARC
  5
A856
  8
0
 10
4224.3805417167150154
 20
51.6102100956534713
 30
0.0
 40
0.3765457029182138
 50
200.5683010160639128
 51
235.495985260457303
  0
ARC
  5
A857
  8
0
 10
4224.1779371519478445
 20
51.5566608176992389
 30
0.0
 40
0.0787401575022528
 50
270.0000000083376221
 51
359.9999999999976126
  0
ARC
  5
A858
  8
0
 10
4223.9664440874830689
 20
52.4803226150641819
 30
0.0
 40
0.1607095796465127
 50
1.3431378249406289
 51
80.1978793987390333
  0
ARC
  5
A859
  8
0
 10
4215.9534793983557392
 20
-8.5621916698297511
 30
0.0
 40
61.7267710351996968
 50
82.5155743339476118
 51
89.4993813269260414
  0
ARC
  5
A85A
  8
0
 10
4216.409155542112785
 20
13.0186569748556007
 30
0.0
 40
29.0518078586803483
 50
80.2870377654481047
 51
90.0521941846752441
  0
LINE
  5
A85B
  8
0
 10
4208.6382716281977991
 20
52.4840896515141893
 30
0.0
 11
4208.508703830300874
 21
51.556660816667673
 31
0.0
  0
LINE
  5
A85C
  8
0
 10
4224.1271095112970215
 20
52.4840896537133901
 30
0.0
 11
4224.2566773094504242
 21
51.5566608176992176
 31
0.0
  0
LINE
  5
A85D
  8
0
 10
4208.5158317466330118
 20
51.1526223002064597
 30
0.0
 11
4224.2495493949918455
 21
51.1526223002064597
 31
0.0
  0
LINE
  5
A85E
  8
0
 10
4208.5874439878052726
 20
51.4779206591654201
 30
0.0
 11
4224.1779371520033237
 21
51.4779206591654201
 31
0.0
  0
LINE
  5
A85F
  8
0
 10
4208.6382716283033005
 20
52.4840896514653892
 30
0.0
 11
4224.1271095116071592
 21
52.4840896515101107
 31
0.0
  0
LINE
  5
A860
  8
0
 10
4210.4828077634701913
 20
52.6787511491892602
 30
0.0
 11
4222.2770251826032109
 21
52.678708060765409
 31
0.0
  0
LINE
  5
A861
  8
0
 10
4222.2770251826032109
 20
52.678708060765409
 30
0.0
 11
4222.3554995075028273
 21
52.6859341568654216
 31
0.0
  0
LINE
  5
A862
  8
0
 10
4210.4828077634701913
 20
52.6787511491892602
 30
0.0
 11
4210.4098816327032182
 21
52.6859341568654216
 31
0.0
  0
ARC
  5
A863
  8
0
 10
4210.5014521482908094
 20
52.6593595417355118
 30
0.0
 40
0.0953486732706443
 50
104.2117533529330018
 51
163.8167799448818869
  0
ARC
  5
A864
  8
0
 10
4222.2639540514128385
 20
52.6593747230262395
 30
0.0
 40
0.0953203759405322
 50
16.1786544844022906
 51
75.7997543147979513
  0
LINE
  5
A865
  8
0
 10
4215.4023756093029078
 20
52.7377631788654213
 30
0.0
 11
4217.36300553050296
 21
52.7377631788654213
 31
0.0
  0
LINE
  5
A866
  8
0
 10
4217.36300553050296
 20
52.7377631788654213
 30
0.0
 11
4217.3630055306030044
 21
52.7771332576654117
 31
0.0
  0
ARC
  5
A867
  8
0
 10
4215.5602051422301884
 20
52.7767840397385584
 30
0.0
 40
0.1578299192711538
 50
90.1267740330636542
 51
179.8732260032971908
  0
ARC
  5
A868
  8
0
 10
4217.2055252156733332
 20
52.7771332578361196
 30
0.0
 40
0.1574803148292965
 50
359.9999999378928237
 51
90.0000000257424375
  0
LINE
  5
A869
  8
0
 10
4215.4023756093029078
 20
52.7377631788654213
 30
0.0
 11
4215.4023756092028634
 21
52.7771332576654117
 31
0.0
  0
LINE
  5
A86A
  8
0
 10
4215.5598559242025658
 20
52.9346135726654126
 30
0.0
 11
4217.2055252156033021
 21
52.9346135726654268
 31
0.0
  0
ARC
  5
A86B
  8
0
 10
4216.3826905666974199
 20
51.5010290478618913
 30
0.0
 40
1.590551173225321
 50
109.0240725640659036
 51
115.6687981916561938
  0
ARC
  5
A86C
  8
0
 10
4216.0181467642278221
 20
52.5588338669138366
 30
0.0
 40
0.4716932214707902
 50
63.6358653092987723
 51
109.0452941732732057
  0
ARC
  5
A86D
  8
0
 10
4216.3826905699015697
 20
51.5010290406653368
 30
0.0
 40
1.590551181100085
 50
64.331201814698602
 51
76.6568991637391264
  0
ARC
  5
A86E
  8
0
 10
4216.6499743814483736
 20
52.6241477865373071
 30
0.0
 40
0.4360670663018979
 50
76.7716470562660049
 51
98.0710285878061541
  0
ARC
  5
A86F
  8
0
 10
4219.537890586737376
 20
37.8330909032894667
 30
0.0
 40
15.5058443361976401
 50
100.9641878199036
 51
103.1129882918413045
  0
ARC
  5
A870
  8
0
 10
4218.5625699380889273
 20
-31.8937245272926617
 30
0.0
 40
85.0307162728096557
 50
92.6248343568685328
 51
95.4557929879786258
  0
ARC
  5
A871
  8
0
 10
4216.4928067499758981
 20
11.2337599240961499
 30
0.0
 40
41.8537960273603318
 50
85.4556070912358763
 51
92.4981703863386571
  0
ARC
  5
A872
  8
0
 10
4212.0796994791389807
 20
-55.9993226806635818
 30
0.0
 40
109.2291112779840034
 50
84.6377921189436933
 51
85.9422578201898659
  0
ARC
  5
A873
  8
0
 10
4216.6428097077086932
 20
29.9128062906050296
 30
0.0
 40
2.5586786092335179
 50
191.1636244279517882
 51
264.165171100453108
  0
ARC
  5
A874
  8
0
 10
4216.1198973687405669
 20
29.9157410789653184
 30
0.0
 40
2.561871374742509
 50
275.8877045553280141
 51
348.7835604555992859
  0
ARC
  5
A875
  8
0
 10
4209.4427238858252167
 20
38.0521771243312301
 30
0.0
 40
0.19630378273385
 50
200.6849793072317141
 51
270.0496041417562765
  0
LINE
  5
A876
  8
0
 10
4209.4427238858252167
 20
37.8558733415973592
 30
0.0
 11
4223.3224951804395459
 21
37.8558734147654121
 31
0.0
  0
ARC
  5
A877
  8
0
 10
4223.3244543641312703
 20
38.0464312289358588
 30
0.0
 40
0.1905679663821972
 50
269.4085768598478126
 51
340.4157182346319814
  0
LINE
  5
A878
  8
0
 10
4209.4738923897457425
 20
37.9739428299942219
 30
0.0
 11
4223.2914887615916086
 21
37.9739404381466628
 31
0.0
  0
ENDSEC
  0
EOF
