  0
SECTION
  2
HEADER
  9
$ACADVER
  1
AC1009
  9
$INSBASE
 10
32.1305988441385395
 20
4.1195432263571661
 30
0.0
  9
$EXTMIN
 10
21.1472047227537594
 20
-3.9738597209281892
 30
0.0
  9
$EXTMAX
 10
36.4014049748947812
 20
11.3350979276168502
 30
0.0
  9
$LIMMIN
 10
0.0
 20
0.0
  9
$LIMMAX
 10
11.6929133858000007
 20
8.2677165353999982
  9
$ORTHOMODE
 70
     0
  9
$REGENMODE
 70
     1
  9
$FILLMODE
 70
     1
  9
$QTEXTMODE
 70
     0
  9
$MIRRTEXT
 70
     0
  9
$DRAGMODE
 70
     2
  9
$LTSCALE
 40
0.6431102362
  9
$OSMODE
 70
  4095
  9
$ATTMODE
 70
     1
  9
$TEXTSIZE
 40
0.2
  9
$TRACEWID
 40
0.05
  9
$TEXTSTYLE
  7
STANDARD
  9
$CLAYER
  8
0
  9
$CELTYPE
  6
BYLAYER
  9
$CECOLOR
 62
   256
  9
$DIMSCALE
 40
1.0
  9
$DIMASZ
 40
0.1875
  9
$DIMEXO
 40
0.0625
  9
$DIMDLI
 40
0.4443307087
  9
$DIMRND
 40
0.0
  9
$DIMDLE
 40
0.0
  9
$DIMEXE
 40
0.125
  9
$DIMTP
 40
0.0
  9
$DIMTM
 40
0.0
  9
$DIMTXT
 40
0.15625
  9
$DIMCEN
 40
0.1052362205
  9
$DIMTSZ
 40
0.0
  9
$DIMTOL
 70
     0
  9
$DIMLIM
 70
     0
  9
$DIMTIH
 70
     1
  9
$DIMTOH
 70
     1
  9
$DIMSE1
 70
     0
  9
$DIMSE2
 70
     0
  9
$DIMTAD
 70
     0
  9
$DIMZIN
 70
     0
  9
$DIMBLK
  1

  9
$DIMASO
 70
     1
  9
$DIMSHO
 70
     1
  9
$DIMPOST
  1

  9
$DIMAPOST
  1

  9
$DIMALT
 70
     0
  9
$DIMALTD
 70
     2
  9
$DIMALTF
 40
25.3999999999999986
  9
$DIMLFAC
 40
1.0
  9
$DIMTOFL
 70
     0
  9
$DIMTVP
 40
0.0
  9
$DIMTIX
 70
     0
  9
$DIMSOXD
 70
     0
  9
$DIMSAH
 70
     0
  9
$DIMBLK1
  1

  9
$DIMBLK2
  1

  9
$DIMSTYLE
  2
STANDARD
  9
$DIMCLRD
 70
     0
  9
$DIMCLRE
 70
     0
  9
$DIMCLRT
 70
     0
  9
$DIMTFAC
 40
1.0
  9
$DIMGAP
 40
0.09
  9
$LUNITS
 70
     2
  9
$LUPREC
 70
     4
  9
$SKETCHINC
 40
0.1
  9
$FILLETRAD
 40
0.0
  9
$AUNITS
 70
     0
  9
$AUPREC
 70
     0
  9
$MENU
  1
.
  9
$ELEVATION
 40
0.0
  9
$PELEVATION
 40
0.0
  9
$THICKNESS
 40
0.0
  9
$LIMCHECK
 70
     0
  9
$BLIPMODE
 70
     0
  9
$CHAMFERA
 40
0.0
  9
$CHAMFERB
 40
0.0
  9
$SKPOLY
 70
     0
  9
$TDCREATE
 40
2457498.4877199069596827
  9
$TDUPDATE
 40
2459091.7240972220897675
  9
$TDINDWG
 40
0.1052839352
  9
$TDUSRTIMER
 40
0.1052839352
  9
$USRTIMER
 70
     1
  9
$ANGBASE
 50
0.0
  9
$ANGDIR
 70
     0
  9
$PDMODE
 70
     0
  9
$PDSIZE
 40
0.3125
  9
$PLINEWID
 40
0.0
  9
$COORDS
 70
     1
  9
$SPLFRAME
 70
     0
  9
$SPLINETYPE
 70
     6
  9
$SPLINESEGS
 70
     8
  9
$ATTDIA
 70
     1
  9
$ATTREQ
 70
     1
  9
$HANDLING
 70
     1
  9
$HANDSEED
  5
A5B
  9
$SURFTAB1
 70
     6
  9
$SURFTAB2
 70
     6
  9
$SURFTYPE
 70
     6
  9
$SURFU
 70
     6
  9
$SURFV
 70
     6
  9
$UCSNAME
  2

  9
$UCSORG
 10
0.0
 20
0.0
 30
0.0
  9
$UCSXDIR
 10
1.0
 20
0.0
 30
0.0
  9
$UCSYDIR
 10
0.0
 20
1.0
 30
0.0
  9
$PUCSNAME
  2

  9
$PUCSORG
 10
0.0
 20
0.0
 30
0.0
  9
$PUCSXDIR
 10
1.0
 20
0.0
 30
0.0
  9
$PUCSYDIR
 10
0.0
 20
1.0
 30
0.0
  9
$USERI1
 70
     0
  9
$USERI2
 70
     0
  9
$USERI3
 70
     0
  9
$USERI4
 70
     0
  9
$USERI5
 70
     0
  9
$USERR1
 40
0.0
  9
$USERR2
 40
0.0
  9
$USERR3
 40
0.0
  9
$USERR4
 40
0.0
  9
$USERR5
 40
0.0
  9
$WORLDVIEW
 70
     1
  9
$SHADEDGE
 70
     3
  9
$SHADEDIF
 70
    70
  9
$TILEMODE
 70
     1
  9
$MAXACTVP
 70
    48
  9
$PLIMCHECK
 70
     0
  9
$PEXTMIN
 10
1.0000000000000000E+20
 20
1.0000000000000000E+20
 30
1.0000000000000000E+20
  9
$PEXTMAX
 10
-1.0000000000000000E+20
 20
-1.0000000000000000E+20
 30
-1.0000000000000000E+20
  9
$PLIMMIN
 10
0.0
 20
0.0
  9
$PLIMMAX
 10
12.0
 20
9.0
  9
$UNITMODE
 70
     0
  9
$VISRETAIN
 70
     1
  9
$PLINEGEN
 70
     0
  9
$PSLTSCALE
 70
     1
  0
ENDSEC
  0
SECTION
  2
TABLES
  0
TABLE
  2
VPORT
 70
     1
  0
VPORT
  2
*ACTIVE
 70
     0
 10
0.0
 20
0.0
 11
1.0
 21
1.0
 12
62.3713937482201715
 22
-17.7187028813593699
 13
0.0
 23
0.0
 14
1.0
 24
1.0
 15
0.0
 25
0.0
 16
0.0
 26
0.0
 36
1.0
 17
0.0
 27
0.0
 37
0.0
 40
91.7419243899873749
 41
2.005224660397074
 42
50.0
 43
0.0
 44
0.0
 50
0.0
 51
0.0
 71
     0
 72
   100
 73
     1
 74
     1
 75
     0
 76
     0
 77
     0
 78
     0
  0
ENDTAB
  0
TABLE
  2
LTYPE
 70
     1
  0
LTYPE
  2
CONTINUOUS
 70
     0
  3
Solid line
 72
    65
 73
     0
 40
0.0
  0
ENDTAB
  0
TABLE
  2
LAYER
 70
     2
  0
LAYER
  2
0
 70
     0
 62
     7
  6
CONTINUOUS
  0
LAYER
  2
DEFPOINTS
 70
     0
 62
     7
  6
CONTINUOUS
  0
ENDTAB
  0
TABLE
  2
STYLE
 70
     1
  0
STYLE
  2
STANDARD
 70
     0
 40
0.0
 41
0.8
 50
0.0
 71
     0
 42
0.2
  3
txt
  4

  0
ENDTAB
  0
TABLE
  2
VIEW
 70
     0
  0
ENDTAB
  0
TABLE
  2
UCS
 70
     0
  0
ENDTAB
  0
TABLE
  2
APPID
 70
     5
  0
APPID
  2
ACAD
 70
     0
  0
APPID
  2
ACAD_MLEADERVER
 70
     0
  0
APPID
  2
ACAD_NAV_VCDISPLAY
 70
     0
  0
APPID
  2
ACAD_EXEMPT_FROM_CAD_STANDARDS
 70
     0
  0
APPID
  2
ACDBATTR
 70
     0
  0
ENDTAB
  0
TABLE
  2
DIMSTYLE
 70
     1
  0
DIMSTYLE
  2
STANDARD
 70
     0
  3

  4

  5

  6

  7

 40
1.0
 41
0.1875
 42
0.0625
 43
0.38
 44
0.125
 45
0.0
 46
0.0
 47
1.5
 48
1.5
140
0.15625
141
0.09
142
0.0
143
25.3999999999999986
144
1.0
145
0.0
146
1.0
147
0.09
 71
     0
 72
     0
 73
     1
 74
     1
 75
     0
 76
     0
 77
     0
 78
     4
170
     0
171
     2
172
     0
173
     0
174
     0
175
     0
176
     0
177
     0
178
     0
  0
ENDTAB
  0
ENDSEC
  0
SECTION
  2
BLOCKS
  0
BLOCK
  8
0
  2
$MODEL_SPACE
 70
     0
 10
0.0
 20
0.0
 30
0.0
  3
$MODEL_SPACE
  1

  0
ENDBLK
  5
21
  8
0
  0
BLOCK
 67
     1
  8
0
  2
$PAPER_SPACE
 70
     0
 10
0.0
 20
0.0
 30
0.0
  3
$PAPER_SPACE
  1

  0
ENDBLK
  5
1D
 67
     1
  8
0
  0
BLOCK
  8
0
  2
_FILLED
 70
     0
 10
0.0
 20
0.0
 30
0.0
  3
_FILLED
  1

  0
SOLID
  5
843
  8
0
  6
BYBLOCK
 62
     0
 10
0.0
 20
0.0
 30
0.0
 11
-1.0
 21
0.1666666667
 31
0.0
 12
-1.0
 22
-0.1666666667
 32
0.0
 13
-1.0
 23
-0.1666666667
 33
0.0
  0
ENDBLK
  5
844
  8
0
  6
BYBLOCK
 62
     0
  0
ENDSEC
  0
SECTION
  2
ENTITIES
  0
ATTDEF
  5
7C5
  8
DEFPOINTS
 10
32.1306750119052182
 20
4.1213385789604349
 30
0.0
 40
0.001
  1
K-6332
  3

  2
MODELNUMBER
 70
     0
1001
ACDBATTR
1070
     0
1070
     1
  0
ATTDEF
  5
7C6
  8
DEFPOINTS
 10
32.1306750119052182
 20
4.1196719122937697
 30
0.0
 40
0.001
  1
EVOKE
  3

  2
TRADENAME
 70
     0
1001
ACDBATTR
1070
     0
1070
     1
  0
ATTDEF
  5
7C7
  8
DEFPOINTS
 10
32.1306750119052182
 20
4.1180052456271046
 30
0.0
 40
0.001
  1
KITCHEN SINK FAUCET
  3

  2
PRODUCT
 70
     0
1001
ACDBATTR
1070
     0
1070
     1
  0
LINE
  5
981
  8
0
 10
31.1281507359038692
 20
4.6573936356662768
 30
0.0
 11
31.1281507359038692
 21
3.8047048224662769
 31
0.0
  0
LINE
  5
982
  8
0
 10
31.2969130394039112
 20
3.9054610040662752
 30
0.0
 11
31.2969130398039113
 21
4.5897789622662764
 31
0.0
  0
LINE
  5
983
  8
0
 10
31.5567544447038806
 20
0.4163898797662782
 30
0.0
 11
31.5567424602038713
 21
-3.4166135726337208
 31
0.0
  0
LINE
  5
984
  8
0
 10
31.5567616694038797
 20
0.4262709873662765
 30
0.0
 11
31.5567443234068392
 21
1.741385497766277
 31
0.0
  0
LINE
  5
985
  8
0
 10
31.8765724025859107
 20
-3.5246867207337198
 30
0.0
 11
31.8765724025859107
 21
-2.8736041075887471
 31
0.0
  0
LINE
  5
986
  8
0
 10
32.3845792184059889
 20
-2.8736057651183389
 30
0.0
 11
32.3845792184059889
 21
-3.5246868464337222
 31
0.0
  0
LINE
  5
987
  8
0
 10
32.7044244447038679
 20
0.4163861310662789
 30
0.0
 11
32.7044124602038835
 21
-3.4166173212337201
 31
0.0
  0
LINE
  5
988
  8
0
 10
32.7044418583038734
 20
0.4262709864662782
 30
0.0
 11
32.7044124602038835
 21
1.7413846515662781
 31
0.0
  0
LINE
  5
989
  8
0
 10
32.9642906988039073
 20
3.9054584201662759
 30
0.0
 11
32.9642906988039073
 21
4.5897820099662736
 31
0.0
  0
LINE
  5
98A
  8
0
 10
33.1330527908038732
 20
4.6573957041662801
 30
0.0
 11
33.1330530713039124
 21
4.5319173692662744
 31
0.0
  0
LINE
  5
98B
  8
0
 10
34.4996864600038933
 20
2.7523941952839901
 30
0.0
 11
34.4996866164039133
 21
4.5023941952662758
 31
0.0
  0
LINE
  5
98C
  8
0
 10
34.5689486139038706
 20
2.7802283642662782
 30
0.0
 11
34.5689482182038716
 21
2.7363659981662769
 31
0.0
  0
POLYLINE
  5
98D
  8
0
 66
     1
 10
0.0
 20
0.0
 30
0.0
  0
VERTEX
  5
A57
  8
0
 10
34.5689658514038811
 20
4.5184169535662804
 30
0.0
  0
VERTEX
  5
A58
  8
0
 10
34.5689497809038713
 20
4.518048976766277
 30
0.0
  0
VERTEX
  5
A59
  8
0
 10
34.5689486139038706
 20
2.7802283642662782
 30
0.0
  0
SEQEND
  5
A5A
  8
0
  0
LINE
  5
98E
  8
0
 10
35.0089483334076021
 20
3.8316684770596972
 30
0.0
 11
35.0089482205038678
 21
3.4231199170728419
 31
0.0
  0
LINE
  5
98F
  8
0
 10
35.3389482205038732
 20
2.7561182365662802
 30
0.0
 11
35.3389482205038732
 21
4.498672590166275
 31
0.0
  0
LINE
  5
990
  8
0
 10
34.1842424677826386
 20
2.7472780296738861
 30
0.0
 11
32.7121058437038812
 21
2.7215812383662801
 31
0.0
  0
LINE
  5
991
  8
0
 10
35.288511890303873
 20
2.7061146600662762
 30
0.0
 11
34.598125837503872
 21
2.7121395678662772
 31
0.0
  0
LINE
  5
992
  8
0
 10
31.5487226659038811
 20
2.7383609547662782
 30
0.0
 11
31.3904345027038794
 21
2.7457696813662791
 31
0.0
  0
LINE
  5
993
  8
0
 10
35.2889482840039079
 20
3.3689654325662728
 30
0.0
 11
35.0585120090776812
 21
3.3709745324639502
 31
0.0
  0
LINE
  5
994
  8
0
 10
35.0585120061216031
 20
3.8806558639655542
 30
0.0
 11
35.2885207131606933
 21
3.882663101148967
 31
0.0
  0
LINE
  5
995
  8
0
 10
35.2885118937038769
 20
4.5486737340662771
 30
0.0
 11
34.5981258800038702
 21
4.5426488266662801
 31
0.0
  0
LINE
  5
996
  8
0
 10
33.1588712782038684
 20
4.5287675771662768
 30
0.0
 11
34.1808290521039098
 21
4.5109262370662746
 31
0.0
  0
ARC
  5
997
  8
0
 10
32.1141041707448522
 20
-3.4164998594088938
 30
0.0
 40
0.5573598615192953
 50
180.0129249116941139
 51
271.6961933908788183
  0
ARC
  5
998
  8
0
 10
32.1305757973793007
 20
-2.8776249872244519
 30
0.0
 40
0.254035218108835
 50
0.9065438795610532
 51
179.093082229982798
  0
ARC
  5
999
  8
0
 10
32.1470006264542931
 20
-3.4164449132332382
 30
0.0
 40
0.5574118604095981
 50
268.314152070156581
 51
359.982278360692419
  0
ARC
  5
99A
  8
0
 10
34.2246051022062403
 20
3.406104931687242
 30
0.0
 40
1.1302709226316501
 50
72.2605985152240464
 51
73.9021209319328563
  0
ARC
  5
99B
  8
0
 10
34.5296869225018099
 20
2.7915545147448309
 30
0.0
 40
0.0300004589989782
 50
180.0004325355536992
 51
286.0982171880252736
  0
ARC
  5
99C
  8
0
 10
34.5983876336038705
 20
2.7421384255662771
 30
0.0
 40
0.03
 50
191.0937071837998928
 51
269.4999999999998863
  0
ARC
  5
99D
  8
0
 10
34.22275082777454
 20
3.8547788479453038
 30
0.0
 40
1.1366421122758359
 50
286.1024790942037157
 51
287.7341523946316784
  0
ARC
  5
99E
  8
0
 10
34.5296860657214424
 20
4.4632344983713601
 30
0.0
 40
0.0299994493181721
 50
73.8995231207063767
 51
180.0007496466218981
  0
ARC
  5
99F
  8
0
 10
34.5983876336038705
 20
4.5126499685662793
 30
0.0
 40
0.03
 50
90.499959488199849
 51
168.9062903948999974
  0
ARC
  5
9A0
  8
0
 10
35.2889482205038831
 20
2.756112756166277
 30
0.0
 40
0.05
 50
269.4999980243001119
 51
0.0
  0
ARC
  5
9A1
  8
0
 10
35.2889182578600114
 20
3.4190383719346391
 30
0.0
 40
0.0500729483228223
 50
270.0343572754998718
 51
2.3742640542449078
  0
ARC
  5
9A2
  8
0
 10
35.0589810540871767
 20
3.4210480491644262
 30
0.0
 40
0.0500757134048462
 50
177.6287271019187983
 51
269.4633188169593154
  0
ARC
  5
9A3
  8
0
 10
35.058955381739402
 20
3.8306402101292241
 30
0.0
 40
0.0500176190530938
 50
90.5078987331993972
 51
178.8220249747041066
  0
ARC
  5
9A4
  8
0
 10
35.2889482205038831
 20
4.4986756379662749
 30
0.0
 40
0.05
 50
0.0
 51
90.5000020045000468
  0
ARC
  5
9A5
  8
0
 10
35.2889411490824969
 20
3.8326472226956092
 30
0.0
 40
0.0500176455758745
 50
1.1781659988044719
 51
90.481619694257617
  0
ARC
  5
9A6
  8
0
 10
32.1271058643578087
 20
4.6608900784136864
 30
0.0
 40
0.9989612473846508
 50
89.7994909821946692
 51
180.2005401333541954
  0
ARC
  5
9A7
  8
0
 10
32.1209530072054932
 20
4.6477453728308431
 30
0.0
 40
1.012145827645337
 50
0.5462686898430511
 51
89.453792689682075
  0
ARC
  5
9A8
  8
0
 10
31.28042788907538
 20
3.8076348916677949
 30
0.0
 40
0.1523053402988347
 50
181.1023313818913891
 51
245.4510754256959046
  0
ARC
  5
9A9
  8
0
 10
33.1761476307404166
 20
4.7777665327377177
 30
0.0
 40
0.2495975805824953
 50
260.0577102216174126
 51
266.0309944025842128
  0
ARC
  5
9AA
  8
0
 10
32.1235473620845795
 20
4.594471650816633
 30
0.0
 40
0.8266476420448142
 50
89.5110382007978274
 51
180.3252567102900059
  0
ARC
  5
9AB
  8
0
 10
32.1376555445479468
 20
4.5944708334424753
 30
0.0
 40
0.8266484520746216
 50
359.6750115046589826
 51
90.4889019062717352
  0
LINE
  5
9AC
  8
0
 10
32.7044124602038835
 20
1.7413846515662781
 30
0.0
 11
32.712105843727123
 21
2.7215812383666851
 31
0.0
  0
LINE
  5
9AD
  8
0
 10
31.5567443234068392
 20
1.741385497766277
 30
0.0
 11
31.5487232637149404
 21
2.7383369569657532
 31
0.0
  0
ARC
  5
9AE
  8
0
 10
31.4019402801676613
 20
2.9057241080643901
 30
0.0
 40
0.1605947988887446
 50
178.6653162982314882
 51
266.7274447528424162
  0
ARC
  5
9AF
  8
0
 10
51.7744574592030702
 20
3.989326990147922
 30
0.0
 40
20.5598019154225184
 50
180.8924489592432963
 51
183.0141236698721059
  0
ARC
  5
9B0
  8
0
 10
31.4049512316265407
 20
3.9598485848334799
 30
0.0
 40
0.011219362989443
 50
24.5139280769872201
 51
134.6446550385782075
  0
ARC
  5
9B1
  8
0
 10
28.8819326829009313
 20
3.2674786217403549
 30
0.0
 40
2.6273714864690532
 50
7.3950072281981676
 51
15.3844037730895895
  0
ARC
  5
9B2
  8
0
 10
22.746282046592551
 20
2.5522922077372909
 30
0.0
 40
8.8044069893979202
 50
1.2109557926861889
 51
6.8712870615699986
  0
ARC
  5
9B3
  8
0
 10
40.7090333207806268
 20
2.6066777863798829
 30
0.0
 40
7.9977529266995964
 50
172.4956218567118071
 51
179.1768051083593036
  0
ARC
  5
9B4
  8
0
 10
35.5443286920625781
 20
3.266232294178713
 30
0.0
 40
2.791221613461091
 50
165.9413199234886065
 51
172.0724479807352054
  0
LINE
  5
9B5
  8
0
 10
32.9642906988039073
 20
3.9054610041260922
 30
0.0
 11
32.8641360447998068
 21
3.9678310320724881
 31
0.0
  0
CIRCLE
  5
9B6
  8
0
 10
32.130575509403883
 20
-3.573767137129511
 30
0.0
 40
0.1314199561048836
  0
ARC
  5
9B7
  8
0
 10
32.1305758140454572
 20
-3.5103417184400501
 30
0.0
 40
0.2544081604899726
 50
183.2323815176200981
 51
356.7675901281164101
  0
CIRCLE
  5
9B8
  8
0
 10
32.1306019309039073
 20
-3.5734713621337231
 30
0.0
 40
0.1183059142492423
  0
CIRCLE
  5
9B9
  8
0
 10
32.1305777080038766
 20
-2.8736056055337218
 30
0.0
 40
0.0748634632000034
  0
LINE
  5
9BA
  8
0
 10
31.2969130394039112
 20
3.9054610040662752
 30
0.0
 11
31.3970672980039112
 21
3.967830921366275
 31
0.0
  0
ARC
  5
9BB
  8
0
 10
32.8851593330487617
 20
3.932069305320943
 30
0.0
 40
0.049959056839094
 50
129.8295337480168996
 51
165.8725335519739019
  0
ARC
  5
9BC
  8
0
 10
32.8560098136233165
 20
3.9580148985570629
 30
0.0
 40
0.0127433163001752
 50
50.3805328399023011
 51
102.9211779598786052
  0
LINE
  5
9BD
  8
0
 10
34.1845789350039126
 20
2.7472865137662761
 30
0.0
 11
34.189686616403911
 21
2.7523941952662758
 31
0.0
  0
LINE
  5
9BE
  8
0
 10
34.189686616403911
 20
2.7523941952662758
 30
0.0
 11
34.189686616403911
 21
4.5023941952662758
 31
0.0
  0
LINE
  5
9BF
  8
0
 10
34.189686616403911
 20
4.5023941952662758
 30
0.0
 11
34.1811603481039086
 21
4.5109204635662747
 31
0.0
  0
LINE
  5
9C0
  8
0
 10
34.189686616403911
 20
4.5023941952662758
 30
0.0
 11
34.4996866164039133
 21
4.5023941969304531
 31
0.0
  0
LINE
  5
9C1
  8
0
 10
34.189686616403911
 20
2.7523941952662758
 30
0.0
 11
34.499686616503908
 21
2.7524636286662729
 31
0.0
  0
ARC
  5
9C2
  8
0
 10
33.1627590402853087
 20
4.680215519053692
 30
0.0
 40
0.1512441265752026
 50
184.0808230758966033
 51
258.6728538219048232
  0
ARC
  5
9C3
  8
0
 10
445.4942911158232732
 20
-21.4176231696149806
 30
0.0
 40
413.3064962423605948
 50
176.3811999887450952
 51
176.4873159038587005
  0
LINE
  5
9C4
  8
0
 10
34.8899964590039104
 20
4.1132051370662772
 30
0.0
 11
35.3389483522565584
 21
4.1132051082431822
 31
0.0
  0
LINE
  5
9C5
  8
0
 10
34.8899964590039104
 20
4.1132051370662772
 30
0.0
 11
34.8899961315076723
 21
3.1402718406346071
 31
0.0
  0
LINE
  5
9C6
  8
0
 10
34.8899961315076723
 20
3.1402718406346071
 30
0.0
 11
35.3389483437186414
 21
3.140271879417706
 31
0.0
  0
LINE
  5
9C7
  8
0
 10
34.8899954109039072
 20
3.1402705582662729
 30
0.0
 11
35.0234390151688615
 21
3.3857718751978281
 31
0.0
  0
LINE
  5
9C8
  8
0
 10
34.8899964590037683
 20
4.1132047106588274
 30
0.0
 11
35.0234390151677601
 21
3.8647217253336019
 31
0.0
  0
ENDSEC
  0
EOF
