  0
SECTION
  2
HEADER
  9
$ACADVER
  1
AC1009
  9
$INSBASE
 10
610.25192512635692
 20
-21.998944651380601
 30
0.0
  9
$EXTMIN
 10
574.10192550805675
 20
-40.055194276680652
 30
0.0
  9
$EXTMAX
 10
646.40192474465698
 20
-3.9426950260805782
 30
0.0
  9
$LIMMIN
 10
0.0
 20
0.0
  9
$LIMMAX
 10
11.692913385800001
 20
8.2677165353999982
  9
$ORTHOMODE
 70
     1
  9
$REGENMODE
 70
     1
  9
$FILLMODE
 70
     1
  9
$QTEXTMODE
 70
     0
  9
$MIRRTEXT
 70
     0
  9
$DRAGMODE
 70
     2
  9
$LTSCALE
 40
0.6431102362
  9
$OSMODE
 70
  3071
  9
$ATTMODE
 70
     1
  9
$TEXTSIZE
 40
0.2
  9
$TRACEWID
 40
0.05
  9
$TEXTSTYLE
  7
STANDARD
  9
$CLAYER
  8
0
  9
$CELTYPE
  6
BYLAYER
  9
$CECOLOR
 62
   256
  9
$DIMSCALE
 40
1.0
  9
$DIMASZ
 40
0.1875
  9
$DIMEXO
 40
0.0625
  9
$DIMDLI
 40
0.4443307087
  9
$DIMRND
 40
0.0
  9
$DIMDLE
 40
0.0
  9
$DIMEXE
 40
0.125
  9
$DIMTP
 40
0.01
  9
$DIMTM
 40
0.01
  9
$DIMTXT
 40
2.0
  9
$DIMCEN
 40
0.1052362205
  9
$DIMTSZ
 40
0.0
  9
$DIMTOL
 70
     1
  9
$DIMLIM
 70
     0
  9
$DIMTIH
 70
     1
  9
$DIMTOH
 70
     1
  9
$DIMSE1
 70
     0
  9
$DIMSE2
 70
     0
  9
$DIMTAD
 70
     0
  9
$DIMZIN
 70
     0
  9
$DIMBLK
  1

  9
$DIMASO
 70
     1
  9
$DIMSHO
 70
     1
  9
$DIMPOST
  1
\X
  9
$DIMAPOST
  1

  9
$DIMALT
 70
     1
  9
$DIMALTD
 70
     2
  9
$DIMALTF
 40
25.399999999999999
  9
$DIMLFAC
 40
1.0
  9
$DIMTOFL
 70
     0
  9
$DIMTVP
 40
0.0
  9
$DIMTIX
 70
     0
  9
$DIMSOXD
 70
     0
  9
$DIMSAH
 70
     0
  9
$DIMBLK1
  1

  9
$DIMBLK2
  1

  9
$DIMSTYLE
  2
STANDARD
  9
$DIMCLRD
 70
     0
  9
$DIMCLRE
 70
     0
  9
$DIMCLRT
 70
     0
  9
$DIMTFAC
 40
1.0
  9
$DIMGAP
 40
0.09
  9
$LUNITS
 70
     2
  9
$LUPREC
 70
     4
  9
$SKETCHINC
 40
0.1
  9
$FILLETRAD
 40
0.0
  9
$AUNITS
 70
     0
  9
$AUPREC
 70
     0
  9
$MENU
  1
.
  9
$ELEVATION
 40
0.0
  9
$PELEVATION
 40
0.0
  9
$THICKNESS
 40
0.0
  9
$LIMCHECK
 70
     0
  9
$BLIPMODE
 70
     0
  9
$CHAMFERA
 40
0.0
  9
$CHAMFERB
 40
0.0
  9
$SKPOLY
 70
     0
  9
$TDCREATE
 40
2458060.4683680669
  9
$TDUPDATE
 40
2458499.649876968
  9
$TDINDWG
 40
0.2458255324
  9
$TDUSRTIMER
 40
0.2458255324
  9
$USRTIMER
 70
     1
  9
$ANGBASE
 50
0.0
  9
$ANGDIR
 70
     0
  9
$PDMODE
 70
     0
  9
$PDSIZE
 40
0.3125
  9
$PLINEWID
 40
0.0
  9
$COORDS
 70
     1
  9
$SPLFRAME
 70
     0
  9
$SPLINETYPE
 70
     6
  9
$SPLINESEGS
 70
     8
  9
$ATTDIA
 70
     1
  9
$ATTREQ
 70
     1
  9
$HANDLING
 70
     1
  9
$HANDSEED
  5
431A
  9
$SURFTAB1
 70
     6
  9
$SURFTAB2
 70
     6
  9
$SURFTYPE
 70
     6
  9
$SURFU
 70
     6
  9
$SURFV
 70
     6
  9
$UCSNAME
  2

  9
$UCSORG
 10
0.0
 20
0.0
 30
0.0
  9
$UCSXDIR
 10
1.0
 20
0.0
 30
0.0
  9
$UCSYDIR
 10
0.0
 20
1.0
 30
0.0
  9
$PUCSNAME
  2

  9
$PUCSORG
 10
0.0
 20
0.0
 30
0.0
  9
$PUCSXDIR
 10
1.0
 20
0.0
 30
0.0
  9
$PUCSYDIR
 10
0.0
 20
1.0
 30
0.0
  9
$USERI1
 70
     0
  9
$USERI2
 70
     0
  9
$USERI3
 70
     0
  9
$USERI4
 70
     0
  9
$USERI5
 70
     0
  9
$USERR1
 40
0.0
  9
$USERR2
 40
0.0
  9
$USERR3
 40
0.0
  9
$USERR4
 40
0.0
  9
$USERR5
 40
0.0
  9
$WORLDVIEW
 70
     1
  9
$SHADEDGE
 70
     3
  9
$SHADEDIF
 70
    70
  9
$TILEMODE
 70
     1
  9
$MAXACTVP
 70
    64
  9
$PLIMCHECK
 70
     0
  9
$PEXTMIN
 10
1.0000000000000000E+020
 20
1.0000000000000000E+020
 30
1.0000000000000000E+020
  9
$PEXTMAX
 10
-1.0000000000000000E+020
 20
-1.0000000000000000E+020
 30
-1.0000000000000000E+020
  9
$PLIMMIN
 10
0.0
 20
0.0
  9
$PLIMMAX
 10
12.0
 20
9.0
  9
$UNITMODE
 70
     0
  9
$VISRETAIN
 70
     1
  9
$PLINEGEN
 70
     0
  9
$PSLTSCALE
 70
     1
  0
ENDSEC
  0
SECTION
  2
TABLES
  0
TABLE
  2
VPORT
 70
     1
  0
VPORT
  2
*ACTIVE
 70
     0
 10
0.0
 20
0.0
 11
1.0
 21
1.0
 12
0.0
 22
0.0
 13
0.0
 23
0.0
 14
1.0
 24
1.0
 15
0.0
 25
0.0
 16
0.0
 26
0.0
 36
234.340385741641
 17
610.25192512635692
 27
-21.998944651380612
 37
0.0
 40
80.863186122774707
 41
2.1808755760368661
 42
50.0
 43
0.0
 44
0.0
 50
0.0
 51
0.0
 71
     0
 72
   100
 73
     1
 74
     1
 75
     0
 76
     0
 77
     0
 78
     0
  0
ENDTAB
  0
TABLE
  2
LTYPE
 70
     2
  0
LTYPE
  2
CONTINUOUS
 70
     0
  3
Solid line
 72
    65
 73
     0
 40
0.0
  0
LTYPE
  2
PHANTOM2
 70
     0
  3
___ _ _ ___ _ _ ___ _ _ ___ _ _
 72
    65
 73
     6
 40
1.25
 49
0.625
 49
-0.125
 49
0.125
 49
-0.125
 49
0.125
 49
-0.125
  0
ENDTAB
  0
TABLE
  2
LAYER
 70
     2
  0
LAYER
  2
0
 70
     0
 62
   255
  6
CONTINUOUS
  0
LAYER
  2
DEFPOINTS
 70
     0
 62
     7
  6
CONTINUOUS
  0
ENDTAB
  0
TABLE
  2
STYLE
 70
     1
  0
STYLE
  2
STANDARD
 70
     0
 40
0.0
 41
0.8
 50
0.0
 71
     0
 42
0.2
  3
txt
  4

  0
ENDTAB
  0
TABLE
  2
VIEW
 70
     0
  0
ENDTAB
  0
TABLE
  2
UCS
 70
     0
  0
ENDTAB
  0
TABLE
  2
APPID
 70
     9
  0
APPID
  2
ACAD
 70
     0
  0
APPID
  2
ACAD_MLEADERVER
 70
     0
  0
APPID
  2
ACAD_EXEMPT_FROM_CAD_STANDARDS
 70
     0
  0
APPID
  2
ACAD_NAV_VCDISPLAY
 70
     0
  0
APPID
  2
ACAECLAYERSTANDARD
 70
     0
  0
APPID
  2
ACCMTRANSPARENCY
 70
     0
  0
APPID
  2
ACAD_DSTYLE_DIMJAG
 70
     0
  0
APPID
  2
ACAD_DSTYLE_DIMTALN
 70
     0
  0
APPID
  2
ACDBATTR
 70
     0
  0
ENDTAB
  0
TABLE
  2
DIMSTYLE
 70
     1
  0
DIMSTYLE
  2
STANDARD
 70
     0
  3

  4

  5

  6

  7

 40
1.0
 41
0.1875
 42
0.0625
 43
0.38
 44
0.125
 45
0.0
 46
0.0
 47
0.01
 48
0.01
140
0.15625
141
0.09
142
0.0
143
25.399999999999999
144
1.0
145
0.0
146
1.0
147
0.09
 71
     1
 72
     0
 73
     1
 74
     1
 75
     0
 76
     0
 77
     0
 78
     4
170
     0
171
     2
172
     0
173
     0
174
     0
175
     0
176
     0
177
     0
178
     0
  0
ENDTAB
  0
ENDSEC
  0
SECTION
  2
BLOCKS
  0
BLOCK
  8
0
  2
$MODEL_SPACE
 70
     0
 10
0.0
 20
0.0
 30
0.0
  3
$MODEL_SPACE
  1

  0
ENDBLK
  5
21
  8
0
  0
BLOCK
 67
     1
  8
0
  2
$PAPER_SPACE
 70
     0
 10
0.0
 20
0.0
 30
0.0
  3
$PAPER_SPACE
  1

  0
ENDBLK
  5
1D
 67
     1
  8
0
  0
ENDSEC
  0
SECTION
  2
ENTITIES
  0
ATTDEF
  5
3930
  8
DEFPOINTS
 10
610.24814029993343
 20
-21.993540033173609
 30
0.0
 40
0.001
  1
K-6367-W1
  3

  2
MODELNUMBER
 70
     0
1001
ACDBATTR
1070
     0
1070
     1
  0
ATTDEF
  5
3931
  8
DEFPOINTS
 10
610.24814029993343
 20
-21.995206699840271
 30
0.0
 40
0.001
  1
STARGAZE
  3

  2
TRADENAME
 70
     0
1001
ACDBATTR
1070
     0
1070
     1
  0
ATTDEF
  5
3932
  8
DEFPOINTS
 10
610.24814029993343
 20
-21.996873366506939
 30
0.0
 40
0.001
  1
BATH
  3

  2
PRODUCT
 70
     0
1001
ACDBATTR
1070
     0
1070
     1
  0
ATTDEF
  5
3933
  8
DEFPOINTS
 10
610.24814029993343
 20
-21.998540033173601
 30
0.0
 40
0.001
  1
ACRYLIC
  3

  2
MATERIAL
 70
     0
1001
ACDBATTR
1070
     0
1070
     1
  0
LINE
  5
4223
  8
0
 10
574.10192550805675
 20
-4.9414473976805828
 30
0.0
 11
574.10192550805675
 21
-39.056441905080639
 31
0.0
  0
LINE
  5
4224
  8
0
 10
575.75192512445676
 20
-37.927135506180598
 30
0.0
 11
575.75192512445676
 21
-9.0143076628806043
 31
0.0
  0
LINE
  5
4225
  8
0
 10
579.6455604634624
 20
-35.761448694866473
 30
0.0
 11
579.64557167655698
 21
-11.136167021980601
 31
0.0
  0
LINE
  5
4226
  8
0
 10
644.75192512845695
 20
-37.927135506180598
 30
0.0
 11
575.75192512445676
 21
-37.927135506180598
 31
0.0
  0
LINE
  5
4227
  8
0
 10
579.80662691545695
 20
-9.5129875936805988
 30
0.0
 11
640.69722333604307
 21
-9.5129875937805863
 31
0.0
  0
LINE
  5
4228
  8
0
 10
645.40306057495673
 20
-3.9426950260805782
 30
0.0
 11
575.10078967795698
 21
-3.942695026080592
 31
0.0
  0
CIRCLE
  5
4229
  8
0
 10
610.25192512645685
 20
-23.247544644480602
 30
0.0
 40
1.125
  0
CIRCLE
  5
422A
  8
0
 10
610.25192512645685
 20
-23.247544644480602
 30
0.0
 40
1.7079462481000001
  0
ARC
  5
422B
  8
0
 10
575.16283010269865
 20
-5.0036065716579889
 30
0.0
 40
1.062724010193411
 50
93.346754802751363
 51
176.6468319836975
  0
ARC
  5
422C
  8
0
 10
575.16283010269865
 20
-38.994282731103183
 30
0.0
 40
1.0627240101934869
 50
183.35316801630489
 51
266.65324519724862
  0
LINE
  5
422D
  8
0
 10
588.09356876191748
 20
-10.8440244754806
 30
0.0
 11
632.41028149099634
 21
-10.8440244754806
 31
0.0
  0
ARC
  5
422E
  8
0
 10
588.1111752866932
 20
-12.38512193524349
 30
0.0
 40
1.541198030819636
 50
90.654556704984401
 51
160.7125955478794
  0
ARC
  5
422F
  8
0
 10
618.95817681182905
 20
-23.244769677261989
 30
0.0
 40
34.243939259039081
 50
160.6102696185792
 51
199.38133368527451
  0
ARC
  5
4230
  8
0
 10
588.10790692126454
 20
-34.089288136343043
 30
0.0
 40
1.5431536591846771
 50
199.67136787285401
 51
269.35499526784781
  0
LINE
  5
4231
  8
0
 10
588.09053530335677
 20
-35.632344014380607
 30
0.0
 11
632.41331494955716
 21
-35.632344014380607
 31
0.0
  0
ARC
  5
4232
  8
0
 10
582.59098991065184
 20
29.85977347888501
 30
0.0
 40
39.471090582429433
 50
260.02213574318301
 51
265.95489122660263
  0
ARC
  5
4233
  8
0
 10
582.80728664352409
 20
-78.365505048055667
 30
0.0
 40
41.04923698888912
 50
94.255858688608654
 51
99.896887322363725
  0
ARC
  5
4234
  8
0
 10
567.37246841273122
 20
40.192841092963889
 30
0.0
 40
78.604688106037912
 50
279.06794122061331
 51
285.28217249496231
  0
ARC
  5
4235
  8
0
 10
566.73127838876212
 20
-117.3816627594864
 30
0.0
 40
108.6582524299037
 50
78.66175176442529
 51
83.088585689009406
  0
ARC
  5
4236
  8
0
 10
581.14274442520878
 20
-11.1186016223827
 30
0.0
 40
1.4972757870776989
 50
100.5977398426851
 51
180.67218501639729
  0
ARC
  5
4237
  8
0
 10
581.1623081362776
 20
-35.760563927022702
 30
0.0
 40
1.5167479308720639
 50
180.0334224726073
 51
258.41972313207248
  0
LINE
  5
4238
  8
0
 10
646.40192474465698
 20
-4.9414473976805828
 30
0.0
 11
646.40192474465698
 21
-39.056441905080639
 31
0.0
  0
LINE
  5
4239
  8
0
 10
644.75192512845695
 20
-37.927135506180598
 30
0.0
 11
644.75192512845695
 21
-9.0143076628806043
 31
0.0
  0
LINE
  5
423A
  8
0
 10
640.85828978945142
 20
-35.761448694866473
 30
0.0
 11
640.85827857635695
 21
-11.136167021980601
 31
0.0
  0
ARC
  5
423B
  8
0
 10
645.34102015038809
 20
-5.0036065712725204
 30
0.0
 40
1.062724009798498
 50
3.3531679967324441
 51
86.653245205352519
  0
ARC
  5
423C
  8
0
 10
645.34102015038809
 20
-38.994282731488688
 30
0.0
 40
1.062724009798498
 50
273.3467547946475
 51
356.64683200326749
  0
ARC
  5
423D
  8
0
 10
632.39267496622062
 20
-12.38512193524349
 30
0.0
 40
1.541198030819636
 50
19.287404452120569
 51
89.345443295015585
  0
ARC
  5
423E
  8
0
 10
601.54567344108477
 20
-23.244769677261989
 30
0.0
 40
34.243939259039081
 50
340.61866631472549
 51
19.38973038142078
  0
ARC
  5
423F
  8
0
 10
632.39594333164928
 20
-34.089288136343043
 30
0.0
 40
1.5431536591846771
 50
270.64500473215219
 51
340.32863212714602
  0
ARC
  5
4240
  8
0
 10
637.91286034226198
 20
29.85977347888501
 30
0.0
 40
39.471090582429433
 50
274.04510877339737
 51
279.97786425681699
  0
ARC
  5
4241
  8
0
 10
637.69656360938973
 20
-78.365505048055667
 30
0.0
 40
41.04923698888912
 50
80.103112677636275
 51
85.744141311391346
  0
ARC
  5
4242
  8
0
 10
653.1313818401826
 20
40.192841092963889
 30
0.0
 40
78.604688106037912
 50
254.71782750503769
 51
260.93205877938681
  0
ARC
  5
4243
  8
0
 10
653.77257186415159
 20
-117.3816627594864
 30
0.0
 40
108.6582524299037
 50
96.911414310984156
 51
101.3382482355747
  0
ARC
  5
4244
  8
0
 10
639.36110582770493
 20
-11.1186016223827
 30
0.0
 40
1.4972757870776989
 50
359.32781498360259
 51
79.402260157308461
  0
ARC
  5
4245
  8
0
 10
639.34154211663611
 20
-35.760563927022702
 30
0.0
 40
1.5167479308720639
 50
281.58027686792741
 51
359.96657752739281
  0
LINE
  5
4246
  8
0
 10
575.10078967795698
 20
-40.055194276680609
 30
0.0
 11
645.40306057495695
 21
-40.055194276680609
 31
0.0
  0
LINE
  5
4247
  8
0
 10
579.76100380035678
 20
-37.429457141480597
 30
0.0
 11
640.74284645255693
 21
-37.429457141480597
 31
0.0
  0
LINE
  5
4248
  8
0
 10
575.75192512445676
 20
-9.0143076628806043
 30
0.0
 11
644.75192512845695
 21
-9.0143076628806043
 31
0.0
  0
ARC
  5
424A
  8
0
 10
610.25249312997926
 20
-18.439972077943938
 30
0.0
 40
8.7623979657264783
 50
81.802242736571188
 51
98.20524761364652
  0
ARC
  5
424B
  8
0
 10
610.25134053731142
 20
-0.8069661327065703
 30
0.0
 40
9.0469961161396082
 50
262.06193632970161
 51
277.94555402059018
  0
ARC
  5
424C
  8
0
 10
603.74952798286063
 20
-14.38840934441007
 30
0.0
 40
4.7864864725338911
 50
80.168300451279734
 51
99.774459373813883
  0
ARC
  5
424D
  8
0
 10
603.75467397872251
 20
-4.0864205660659456
 30
0.0
 40
5.6445340875316363
 50
261.66999023467929
 51
278.27276959041779
  0
ENDSEC
  0
EOF
