  0
SECTION
  2
HEADER
  9
$ACADVER
  1
AC1009
  9
$INSBASE
 10
4112.1180002082692226
 20
59.6056252374665334
 30
0.0
  9
$EXTMIN
 10
4103.3162865186686759
 20
59.5996110952399434
 30
0.0
  9
$EXTMAX
 10
4120.9197138978697694
 20
90.214575450461453
 30
0.0
  9
$LIMMIN
 10
0.0
 20
0.0
  9
$LIMMAX
 10
11.6929133858000007
 20
8.2677165353999982
  9
$ORTHOMODE
 70
     1
  9
$REGENMODE
 70
     1
  9
$FILLMODE
 70
     1
  9
$QTEXTMODE
 70
     0
  9
$MIRRTEXT
 70
     0
  9
$DRAGMODE
 70
     2
  9
$LTSCALE
 40
0.6431102362
  9
$OSMODE
 70
  4095
  9
$ATTMODE
 70
     1
  9
$TEXTSIZE
 40
0.2
  9
$TRACEWID
 40
0.05
  9
$TEXTSTYLE
  7
STANDARD
  9
$CLAYER
  8
0
  9
$CELTYPE
  6
BYLAYER
  9
$CECOLOR
 62
   256
  9
$DIMSCALE
 40
1.0
  9
$DIMASZ
 40
0.1875
  9
$DIMEXO
 40
0.0625
  9
$DIMDLI
 40
0.4443307087
  9
$DIMRND
 40
0.0
  9
$DIMDLE
 40
0.0
  9
$DIMEXE
 40
0.125
  9
$DIMTP
 40
0.01
  9
$DIMTM
 40
0.01
  9
$DIMTXT
 40
2.0
  9
$DIMCEN
 40
0.1052362205
  9
$DIMTSZ
 40
0.0
  9
$DIMTOL
 70
     1
  9
$DIMLIM
 70
     0
  9
$DIMTIH
 70
     1
  9
$DIMTOH
 70
     1
  9
$DIMSE1
 70
     0
  9
$DIMSE2
 70
     0
  9
$DIMTAD
 70
     0
  9
$DIMZIN
 70
     0
  9
$DIMBLK
  1

  9
$DIMASO
 70
     1
  9
$DIMSHO
 70
     1
  9
$DIMPOST
  1
\X
  9
$DIMAPOST
  1

  9
$DIMALT
 70
     1
  9
$DIMALTD
 70
     2
  9
$DIMALTF
 40
25.3999999999999986
  9
$DIMLFAC
 40
1.0
  9
$DIMTOFL
 70
     0
  9
$DIMTVP
 40
0.0
  9
$DIMTIX
 70
     0
  9
$DIMSOXD
 70
     0
  9
$DIMSAH
 70
     0
  9
$DIMBLK1
  1

  9
$DIMBLK2
  1

  9
$DIMSTYLE
  2
STANDARD
  9
$DIMCLRD
 70
     0
  9
$DIMCLRE
 70
     0
  9
$DIMCLRT
 70
     0
  9
$DIMTFAC
 40
1.0
  9
$DIMGAP
 40
0.09
  9
$LUNITS
 70
     2
  9
$LUPREC
 70
     4
  9
$SKETCHINC
 40
0.1
  9
$FILLETRAD
 40
0.0
  9
$AUNITS
 70
     0
  9
$AUPREC
 70
     0
  9
$MENU
  1
.
  9
$ELEVATION
 40
0.0
  9
$PELEVATION
 40
0.0
  9
$THICKNESS
 40
0.0
  9
$LIMCHECK
 70
     0
  9
$BLIPMODE
 70
     0
  9
$CHAMFERA
 40
0.0
  9
$CHAMFERB
 40
0.0
  9
$SKPOLY
 70
     0
  9
$TDCREATE
 40
2458060.468368056230247
  9
$TDUPDATE
 40
2459116.649409722071141
  9
$TDINDWG
 40
0.4974491898
  9
$TDUSRTIMER
 40
0.4974491898
  9
$USRTIMER
 70
     1
  9
$ANGBASE
 50
0.0
  9
$ANGDIR
 70
     0
  9
$PDMODE
 70
     0
  9
$PDSIZE
 40
0.3125
  9
$PLINEWID
 40
0.0
  9
$COORDS
 70
     1
  9
$SPLFRAME
 70
     0
  9
$SPLINETYPE
 70
     6
  9
$SPLINESEGS
 70
     8
  9
$ATTDIA
 70
     1
  9
$ATTREQ
 70
     1
  9
$HANDLING
 70
     1
  9
$HANDSEED
  5
9419
  9
$SURFTAB1
 70
     6
  9
$SURFTAB2
 70
     6
  9
$SURFTYPE
 70
     6
  9
$SURFU
 70
     6
  9
$SURFV
 70
     6
  9
$UCSNAME
  2

  9
$UCSORG
 10
0.0
 20
0.0
 30
0.0
  9
$UCSXDIR
 10
1.0
 20
0.0
 30
0.0
  9
$UCSYDIR
 10
0.0
 20
1.0
 30
0.0
  9
$PUCSNAME
  2

  9
$PUCSORG
 10
0.0
 20
0.0
 30
0.0
  9
$PUCSXDIR
 10
1.0
 20
0.0
 30
0.0
  9
$PUCSYDIR
 10
0.0
 20
1.0
 30
0.0
  9
$USERI1
 70
     0
  9
$USERI2
 70
     0
  9
$USERI3
 70
     0
  9
$USERI4
 70
     0
  9
$USERI5
 70
     0
  9
$USERR1
 40
0.0
  9
$USERR2
 40
0.0
  9
$USERR3
 40
0.0
  9
$USERR4
 40
0.0
  9
$USERR5
 40
0.0
  9
$WORLDVIEW
 70
     1
  9
$SHADEDGE
 70
     3
  9
$SHADEDIF
 70
    70
  9
$TILEMODE
 70
     1
  9
$MAXACTVP
 70
    64
  9
$PLIMCHECK
 70
     0
  9
$PEXTMIN
 10
1.0000000000000000E+20
 20
1.0000000000000000E+20
 30
1.0000000000000000E+20
  9
$PEXTMAX
 10
-1.0000000000000000E+20
 20
-1.0000000000000000E+20
 30
-1.0000000000000000E+20
  9
$PLIMMIN
 10
0.0
 20
0.0
  9
$PLIMMAX
 10
12.0
 20
9.0
  9
$UNITMODE
 70
     0
  9
$VISRETAIN
 70
     1
  9
$PLINEGEN
 70
     0
  9
$PSLTSCALE
 70
     1
  0
ENDSEC
  0
SECTION
  2
TABLES
  0
TABLE
  2
VPORT
 70
     1
  0
VPORT
  2
*ACTIVE
 70
     0
 10
0.0
 20
0.0
 11
1.0
 21
1.0
 12
0.0
 22
0.0
 13
0.0
 23
0.0
 14
1.0
 24
1.0
 15
0.0
 25
0.0
 16
0.0
 26
0.0
 36
100.0645278050294991
 17
4112.1180002082692226
 27
74.9070932728507017
 37
0.0
 40
35.3151058042625721
 41
2.1186252771618621
 42
50.0
 43
0.0
 44
0.0
 50
0.0
 51
0.0
 71
     0
 72
   100
 73
     1
 74
     1
 75
     0
 76
     0
 77
     0
 78
     0
  0
ENDTAB
  0
TABLE
  2
LTYPE
 70
     3
  0
LTYPE
  2
CONTINUOUS
 70
     0
  3
Solid line
 72
    65
 73
     0
 40
0.0
  0
LTYPE
  2
PHANTOM2
 70
     0
  3
___ _ _ ___ _ _ ___ _ _ ___ _ _
 72
    65
 73
     6
 40
1.25
 49
0.625
 49
-0.125
 49
0.125
 49
-0.125
 49
0.125
 49
-0.125
  0
ENDTAB
  0
TABLE
  2
LAYER
 70
     2
  0
LAYER
  2
0
 70
     0
 62
   255
  6
CONTINUOUS
  0
LAYER
  2
DEFPOINTS
 70
     0
 62
     7
  6
CONTINUOUS
  0
ENDTAB
  0
TABLE
  2
STYLE
 70
     1
  0
STYLE
  2
STANDARD
 70
     0
 40
0.0
 41
0.8
 50
0.0
 71
     0
 42
0.2
  3
txt
  4

  0
ENDTAB
  0
TABLE
  2
VIEW
 70
     0
  0
ENDTAB
  0
TABLE
  2
UCS
 70
     0
  0
ENDTAB
  0
TABLE
  2
APPID
 70
     9
  0
APPID
  2
ACAD
 70
     0
  0
APPID
  2
ACAD_MLEADERVER
 70
     0
  0
APPID
  2
ACAD_EXEMPT_FROM_CAD_STANDARDS
 70
     0
  0
APPID
  2
ACAD_NAV_VCDISPLAY
 70
     0
  0
APPID
  2
ACAECLAYERSTANDARD
 70
     0
  0
APPID
  2
ACCMTRANSPARENCY
 70
     0
  0
APPID
  2
ACAD_DSTYLE_DIMJAG
 70
     0
  0
APPID
  2
ACAD_DSTYLE_DIMTALN
 70
     0
  0
APPID
  2
ACDBATTR
 70
     0
  0
ENDTAB
  0
TABLE
  2
DIMSTYLE
 70
     2
  0
DIMSTYLE
  2
STANDARD
 70
     0
  3

  4

  5

  6

  7

 40
1.0
 41
0.1875
 42
0.0625
 43
0.38
 44
0.125
 45
0.0
 46
0.0
 47
0.01
 48
0.01
140
0.15625
141
0.09
142
0.0
143
25.3999999999999986
144
1.0
145
0.0
146
1.0
147
0.09
 71
     1
 72
     0
 73
     1
 74
     1
 75
     0
 76
     0
 77
     0
 78
     4
170
     0
171
     2
172
     0
173
     0
174
     0
175
     0
176
     0
177
     0
178
     0
  0
ENDTAB
  0
ENDSEC
  0
SECTION
  2
BLOCKS
  0
BLOCK
  8
0
  2
$MODEL_SPACE
 70
     0
 10
0.0
 20
0.0
 30
0.0
  3
$MODEL_SPACE
  1

  0
ENDBLK
  5
21
  8
0
  0
BLOCK
 67
     1
  8
0
  2
$PAPER_SPACE
 70
     0
 10
0.0
 20
0.0
 30
0.0
  3
$PAPER_SPACE
  1

  0
ENDBLK
  5
1D
 67
     1
  8
0
  0
BLOCK
  8
0
  2
_FILLED
 70
     0
 10
0.0
 20
0.0
 30
0.0
  3
_FILLED
  1

  0
SOLID
  5
69B4
  8
0
  6
BYBLOCK
 62
     0
 10
0.0
 20
0.0
 30
0.0
 11
-1.0
 21
0.1666666667
 31
0.0
 12
-1.0
 22
-0.1666666667
 32
0.0
 13
-1.0
 23
-0.1666666667
 33
0.0
  0
ENDBLK
  5
69B5
  8
0
  6
BYBLOCK
 62
     0
  0
BLOCK
  8
0
  2
A$CDFAF6206
 70
     0
 10
0.0
 20
0.0
 30
0.0
  3
A$CDFAF6206
  1

  0
LINE
  5
6A0E
  8
0
 10
7.4646650085734834
 20
10.9287685970688493
 30
0.0
 11
7.4646650085734896
 21
10.8905784766688498
 31
0.0
  0
ARC
  5
6A0F
  8
0
 10
7.7269027075262349
 20
10.8926811525838598
 30
0.0
 40
0.2622461286616791
 50
180.4593995232625048
 51
217.0214027758331099
  0
LINE
  5
6A10
  8
0
 10
9.767814609867095
 20
10.9287685970688493
 30
0.0
 11
9.767814609867095
 21
10.8905433757650094
 31
0.0
  0
ARC
  5
6A11
  8
0
 10
9.5068669568548287
 20
10.8922438613003703
 30
0.0
 40
0.2609531936261092
 50
322.8847083717149076
 51
359.6266329125650145
  0
LINE
  5
6A12
  8
0
 10
7.517522606271406
 20
10.7347792678688396
 30
0.0
 11
9.7149570120691777
 21
10.7347792678688396
 31
0.0
  0
LINE
  5
6A13
  8
0
 10
7.4646650085734834
 20
10.9287685970688493
 30
0.0
 11
9.7678146123202936
 21
10.9287685970688493
 31
0.0
  0
ARC
  5
6A14
  8
0
 10
4.0826771419203629
 20
8.527951346868889
 30
0.0
 40
4.0826771653999172
 50
13.3117747050523896
 51
32.7200330051415591
  0
ARC
  5
6A15
  8
0
 10
4.0826771460567306
 20
8.5279513475907933
 30
0.0
 40
4.0826771612084691
 50
359.6656501984817851
 51
13.3117747085593798
  0
ARC
  5
6A16
  8
0
 10
13.1498041284835097
 20
8.5279508235212234
 30
0.0
 40
4.0826788382043553
 50
147.2799733478981068
 51
166.6882233021349862
  0
ARC
  5
6A17
  8
0
 10
13.1498064934207992
 20
8.5279506557033251
 30
0.0
 40
4.0826811782395342
 50
166.688228652086309
 51
180.3343397625230011
  0
LINE
  5
6A18
  8
0
 10
8.1652847935202928
 20
8.504127000268852
 30
0.0
 11
9.0671948248202892
 21
8.5041270002687881
 31
0.0
  0
LINE
  5
6A19
  8
0
 10
8.1652847935202786
 20
8.5041270002667204
 30
0.0
 11
8.1652847935202928
 21
8.3607006934688481
 31
0.0
  0
ARC
  5
6A1A
  8
0
 10
5.6196779630382627
 20
8.3631022096452732
 30
0.0
 40
2.545607963272567
 50
342.0511668832173768
 51
359.945947387132378
  0
LINE
  5
6A1B
  8
0
 10
9.0671948248202892
 20
8.5041270002687881
 30
0.0
 11
9.0671948248202892
 21
8.2885990108688503
 31
0.0
  0
ARC
  5
6A1C
  8
0
 10
9.4521885297801163
 20
7.9614488056228501
 30
0.0
 40
0.5052201595850959
 50
139.6436242991769916
 51
174.6757930071850069
  0
ARC
  5
6A1D
  8
0
 10
9.9238413395551746
 20
8.1492417579399508
 30
0.0
 40
0.9848265662939324
 50
188.2263441834095943
 51
209.5593615864376034
  0
ARC
  5
6A1E
  8
0
 10
8.0788764238271256
 20
7.5665710856463297
 30
0.0
 40
0.0393715937169877
 50
162.1669117288323037
 51
227.2023190037006088
  0
ARC
  5
6A1F
  8
0
 10
8.7223682141740682
 20
8.2079667397440517
 30
0.0
 40
0.947895137885075
 50
225.0018610752970858
 51
261.4598823366255829
  0
ARC
  5
6A20
  8
0
 10
8.6645157662702701
 20
8.1695128573935332
 30
0.0
 40
0.9027466462812931
 50
264.7303071214498118
 51
281.8608311947915013
  0
ARC
  5
6A21
  8
0
 10
8.6645157662698935
 20
8.1695128573999671
 30
0.0
 40
0.9027466462876658
 50
299.1741886792128753
 51
299.1743179154552195
  0
ARC
  5
6A22
  8
0
 10
9.0843330931590316
 20
7.4150554710086141
 30
0.0
 40
0.0393703053609601
 50
251.9700352025496954
 51
252.4698971938937859
  0
ARC
  5
6A23
  8
0
 10
9.0843330931590316
 20
7.4150554710086141
 30
0.0
 40
0.0393703053609601
 50
297.2453716727138726
 51
6.8376113572703074
  0
LINE
  5
6A24
  8
0
 10
9.0671948248202892
 20
7.663402160468852
 30
0.0
 11
9.1234233799329516
 21
7.419742732911689
 31
0.0
  0
ARC
  5
6A25
  8
0
 10
8.8843741880892395
 20
9.8961379890094676
 30
0.0
 40
2.5255097382132701
 50
263.792800240752797
 51
274.9514951129821156
  0
ARC
  5
6A26
  8
0
 10
8.8258167405968848
 20
9.2763025889666508
 30
0.0
 40
1.9029970832759311
 50
246.0108363320686067
 51
263.5276935074397215
  0
ARC
  5
6A27
  8
0
 10
8.607491361665744
 20
8.3225444804829642
 30
0.0
 40
1.064510137163637
 50
283.1717405874071005
 51
297.7022170607311864
  0
LINE
  5
6A28
  8
0
 10
9.0671948248202892
 20
8.2885990108688503
 30
0.0
 11
26.2014378595979593
 21
8.2885990108689942
 31
0.0
  0
LINE
  5
6A29
  8
0
 10
26.2014378595979913
 20
7.6634021604689053
 30
0.0
 11
9.0671948248202892
 21
7.6634021604688618
 31
0.0
  0
LINE
  5
6A2A
  8
0
 10
27.8039676758446994
 20
10.9287685970690802
 30
0.0
 11
27.8039676758446888
 21
10.8905784766690807
 31
0.0
  0
ARC
  5
6A2B
  8
0
 10
27.5417299768919399
 20
10.8926811525840801
 30
0.0
 40
0.2622461286616791
 50
322.9785972241680838
 51
359.5406004767386889
  0
LINE
  5
6A2C
  8
0
 10
25.5008180745510913
 20
10.9287685970690305
 30
0.0
 11
25.5008180745510913
 21
10.8905433757651799
 31
0.0
  0
ARC
  5
6A2D
  8
0
 10
25.7617657275633505
 20
10.8922438613005497
 30
0.0
 40
0.2609531936261092
 50
180.3733670874362929
 51
217.1152916282862861
  0
LINE
  5
6A2E
  8
0
 10
27.7511100781467803
 20
10.7347792678690706
 30
0.0
 11
25.5536756723490015
 21
10.7347792678690208
 31
0.0
  0
LINE
  5
6A2F
  8
0
 10
27.8039676758446888
 20
10.9287685970686006
 30
0.0
 11
25.5008180745510806
 21
10.9287685970686006
 31
0.0
  0
ARC
  5
6A30
  8
0
 10
31.1859555424978616
 20
8.5279513468691981
 30
0.0
 40
4.0826771653999172
 50
147.2799669948597057
 51
166.6882252949490066
  0
ARC
  5
6A31
  8
0
 10
31.185955538361501
 20
8.5279513475911024
 30
0.0
 40
4.0826771612084691
 50
166.6882252914419098
 51
180.3343498015194086
  0
ARC
  5
6A32
  8
0
 10
22.1188285559344706
 20
8.5279508235212251
 30
0.0
 40
4.0826788382046102
 50
13.3117766978667795
 51
32.7200266521023977
  0
ARC
  5
6A33
  8
0
 10
22.1188261909974315
 20
8.5279506557034264
 30
0.0
 40
4.0826811782395342
 50
359.665660237478221
 51
13.31177134791497
  0
LINE
  5
6A34
  8
0
 10
27.1033478908979397
 20
8.5041270002690652
 30
0.0
 11
26.2014378595979416
 21
8.5041270002689835
 31
0.0
  0
LINE
  5
6A35
  8
0
 10
27.1033478908979504
 20
8.5041270002669354
 30
0.0
 11
27.1033478908979397
 21
8.3607006934690649
 31
0.0
  0
ARC
  5
6A36
  8
0
 10
29.6489547213799689
 20
8.3631022096455467
 30
0.0
 40
2.545607963272567
 50
180.0540526128687873
 51
197.9488331167837032
  0
LINE
  5
6A37
  8
0
 10
26.2014378595979416
 20
8.5041270002689835
 30
0.0
 11
26.2014378595979487
 21
8.2885990108690457
 31
0.0
  0
ARC
  5
6A38
  8
0
 10
25.8164441546381305
 20
7.9614488056230366
 30
0.0
 40
0.5052201595850959
 50
5.324206992816312
 51
40.3563757008241879
  0
ARC
  5
6A39
  8
0
 10
25.3447913448601803
 20
8.149241757940846
 30
0.0
 40
0.9848265662968968
 50
330.4406384136033807
 51
351.7736558165743759
  0
ARC
  5
6A3A
  8
0
 10
27.1897562605911212
 20
7.5665710856465473
 30
0.0
 40
0.0393715937169877
 50
312.7976809963004143
 51
17.8330882711689185
  0
ARC
  5
6A3B
  8
0
 10
26.5462644702441715
 20
8.2079667397442542
 30
0.0
 40
0.947895137885075
 50
278.5401176633754972
 51
314.9981389247041079
  0
ARC
  5
6A3C
  8
0
 10
26.6041169181479695
 20
8.1695128573937392
 30
0.0
 40
0.9027466462812931
 50
258.139168805210204
 51
275.2696928785518935
  0
ARC
  5
6A3D
  8
0
 10
26.6041169181483497
 20
8.1695128574001732
 30
0.0
 40
0.9027466462876658
 50
240.8256820845460027
 51
240.8258113207880058
  0
ARC
  5
6A3E
  8
0
 10
26.1842995912592293
 20
7.4150554710088086
 30
0.0
 40
0.0393703053609601
 50
287.5301028061073794
 51
288.0299647974517825
  0
ARC
  5
6A3F
  8
0
 10
26.1842995912592293
 20
7.4150554710088086
 30
0.0
 40
0.0393703053609601
 50
173.1623886427310026
 51
242.7546283272870085
  0
LINE
  5
6A40
  8
0
 10
26.2014378595981192
 20
7.6634021604690448
 30
0.0
 11
26.1452093044853093
 21
7.4197427329118826
 31
0.0
  0
ARC
  5
6A41
  8
0
 10
26.384258496328961
 20
9.8961379890096666
 30
0.0
 40
2.5255097382132701
 50
265.0485048870193054
 51
276.2071997592482262
  0
ARC
  5
6A42
  8
0
 10
26.4428159438213299
 20
9.2763025889668516
 30
0.0
 40
1.9029970832759311
 50
276.4723064925619838
 51
293.9891636679327007
  0
ARC
  5
6A43
  8
0
 10
26.6611413227524885
 20
8.3225444804831703
 30
0.0
 40
1.064510137163637
 50
242.2977829392704052
 51
256.8282594125943774
  0
LINE
  5
6A44
  8
0
 62
     4
 10
17.9031473532159602
 20
10.9287685970686006
 30
0.0
 11
24.6329820359843588
 21
20.0952817181593808
 31
0.0
  0
LINE
  5
6A45
  8
0
 62
     4
 10
17.9031473532159602
 20
-0.0000000300842942
 30
0.0
 11
22.3963351323106608
 21
4.993614497796286
 31
0.0
  0
ENDBLK
  5
6A49
  8
0
  0
ENDSEC
  0
SECTION
  2
ENTITIES
  0
ATTDEF
  5
3930
  8
DEFPOINTS
 10
4112.1142415186850485
 20
59.6029444285732666
 30
0.0
 40
0.001
  1
K-6418M
  3

  2
MODELNUMBER
 70
     0
1001
ACDBATTR
1070
     0
1070
     1
  0
ATTDEF
  5
3931
  8
DEFPOINTS
 10
4112.1142415186850485
 20
59.6012777619066014
 30
0.0
 40
0.001
  1
CIMARRON
  3

  2
TRADENAME
 70
     0
1001
ACDBATTR
1070
     0
1070
     1
  0
ATTDEF
  5
3932
  8
DEFPOINTS
 10
4112.1142415186850485
 20
59.5996110952399434
 30
0.0
 40
0.001
  1
TOILET
  3

  2
PRODUCT
 70
     0
1001
ACDBATTR
1070
     0
1070
     1
  0
ARC
  5
9240
  8
0
 10
4136.2029630603692567
 20
-2426.2943958395599111
 30
0.0
 40
2516.5642766936648513
 50
90.54836182859556
 51
90.7459985607742539
  0
ARC
  5
9241
  8
0
 10
4103.4479602993642402
 20
89.9252865265999333
 30
0.0
 40
0.1316740472071458
 50
94.3853270665684505
 51
179.8847220393452062
  0
LINE
  5
9242
  8
0
 10
4103.3162865186686759
 20
89.9255514519665269
 30
0.0
 11
4103.3705923071693178
 21
88.3704372990665235
 31
0.0
  0
ARC
  5
9243
  8
0
 10
4103.4905193705671991
 20
88.3746254183938191
 30
0.0
 40
0.1200001703273108
 50
182.0000830236523939
 51
269.9999607537700967
  0
LINE
  5
9244
  8
0
 10
4103.4905192883697964
 20
88.2546252480665316
 30
0.0
 11
4120.7447054203021253
 21
88.2546277456699642
 31
0.0
  0
ARC
  5
9245
  8
0
 10
4215.3163683041384502
 20
93.0613960967259857
 30
0.0
 40
111.5530739929635047
 50
182.4696134881644127
 51
186.1133115991119098
  0
ARC
  5
9246
  8
0
 10
4130.8367934423613406
 20
84.0132821025984242
 30
0.0
 40
26.5903354796764404
 50
186.1133115991123077
 51
192.3994132005782092
  0
ARC
  5
9247
  8
0
 10
4113.4547517936380245
 20
80.3232733863905821
 30
0.0
 40
8.8201400281891562
 50
193.2364332930488047
 51
201.1597200489682109
  0
ARC
  5
9248
  8
0
 10
4120.133348262886102
 20
84.8979441515890159
 30
0.0
 40
15.7238919910480508
 50
187.8143156338691142
 51
206.1748907973012024
  0
ARC
  5
9249
  8
0
 10
4120.133348262886102
 20
84.8979441515890159
 30
0.0
 40
15.7238919910480508
 50
209.0071084521275964
 51
209.2369358928895906
  0
ARC
  5
924A
  8
0
 10
4153.3968312024626357
 20
91.1997037888530286
 30
0.0
 40
49.5651683153833105
 50
187.030821585540906
 51
189.8037145301221074
  0
ARC
  5
924B
  8
0
 10
4164.7236034047700741
 20
92.6763904968496348
 30
0.0
 40
60.9875709039807319
 50
185.5781118964218024
 51
187.105179356727092
  0
ARC
  5
924C
  8
0
 10
4148.4045198622379758
 20
91.1494870658213046
 30
0.0
 40
44.5973952302901182
 50
183.7217433308694012
 51
185.6636571869983925
  0
ARC
  5
924D
  8
0
 10
4066.4232519135348412
 20
-35220.5153214979873155
 30
0.0
 40
35298.8453921626933152
 50
89.925829954884307
 51
89.9309314317586654
  0
ARC
  5
924E
  8
0
 10
4109.1416524136211592
 20
-55.1141743544494886
 30
0.0
 40
133.4187014399547877
 50
90.0715337234189803
 51
90.4541096178774779
  0
ARC
  5
924F
  8
0
 10
4108.086667723328901
 20
78.0152879268999015
 30
0.0
 40
0.2850591687200786
 50
90.4908199537339328
 51
98.2182769287262261
  0
ARC
  5
9250
  8
0
 10
4101.2347378180102169
 20
150.1561876827499873
 30
0.0
 40
72.1808474218826035
 50
274.2462437321705124
 51
275.4146424825170243
  0
ARC
  5
9251
  8
0
 10
4106.6416586397290303
 20
77.541805242697933
 30
0.0
 40
0.6347456804513893
 50
95.644080707005628
 51
112.1410519030460051
  0
ARC
  5
9252
  8
0
 10
4077.8802889053749823
 20
142.2909632779021933
 30
0.0
 40
70.2152022110779512
 50
293.0400096029746919
 51
293.966996007844898
  0
ARC
  5
9253
  8
0
 10
4105.3777589682167672
 20
77.6375417729761921
 30
0.0
 40
0.0427227595133503
 50
113.562043121830996
 51
164.5515320123377876
  0
LINE
  5
9254
  8
0
 10
4105.3365797641254176
 20
77.6489219017465047
 30
0.0
 11
4105.2861668458099302
 21
77.4476865503465035
 31
0.0
  0
LINE
  5
9255
  8
0
 10
4105.2861668458099302
 20
77.4476865503465035
 30
0.0
 11
4105.2861668458099302
 21
77.4211303659570973
 31
0.0
  0
ARC
  5
9256
  8
0
 10
4105.3375026600233468
 20
77.4241000046617529
 30
0.0
 40
0.0514216352808861
 50
183.3107170518061935
 51
271.0220513827089235
  0
LINE
  5
9257
  8
0
 10
4105.3384198788262438
 20
77.3726865503465149
 30
0.0
 11
4118.897580537713111
 21
77.3726865503465007
 31
0.0
  0
ARC
  5
9258
  8
0
 10
4114.0768144648145608
 20
359.6735414542372951
 30
0.0
 40
281.8392230071884796
 50
269.1799671741288762
 51
269.601784690881118
  0
ARC
  5
9259
  8
0
 10
4110.8862045212354133
 20
136.7605120433838977
 30
0.0
 40
58.9033607666418106
 50
268.349010222062816
 51
269.1799671741288762
  0
ARC
  5
925A
  8
0
 10
4110.3797761405003257
 20
119.1903381339372032
 30
0.0
 40
41.3258899328439568
 50
266.1718722074588754
 51
268.349010222062816
  0
ARC
  5
925B
  8
0
 10
4109.2257600724124131
 20
101.9438310230140985
 30
0.0
 40
24.0408165858046488
 50
264.3382965441857095
 51
266.1718722074588754
  0
ARC
  5
925C
  8
0
 10
4107.2132269887388247
 20
81.6435635545897753
 30
0.0
 40
3.641033530525672
 50
258.1587166496472037
 51
264.3382965441857095
  0
ARC
  5
925D
  8
0
 10
4106.5178146471998843
 20
78.3267531237435293
 30
0.0
 40
0.2521060071144959
 50
241.9007226575556047
 51
258.1587166496472037
  0
ARC
  5
925E
  8
0
 10
4106.4117523118511599
 20
78.1155976698353527
 30
0.0
 40
0.0169414866621313
 50
123.3827851444430053
 51
221.5440737776270907
  0
ARC
  5
925F
  8
0
 10
4112.0501768202811945
 20
-64.717924593928899
 30
0.0
 40
142.3171163020763004
 50
89.9726948231343187
 51
90.600287983040559
  0
ARC
  5
9260
  8
0
 10
4110.8578469232106727
 20
49.0824065727017995
 30
0.0
 40
28.510539057093311
 50
90.600287983040559
 51
92.9988482735282957
  0
ARC
  5
9261
  8
0
 10
4110.6433981108393709
 20
56.9905358952061292
 30
0.0
 40
20.602986697796549
 50
93.5538380301195787
 51
96.7700490967051792
  0
ARC
  5
9262
  8
0
 10
4106.5633638276949569
 20
90.2953708912287993
 30
0.0
 40
12.9512045407404504
 50
273.8031071469645212
 51
277.3250388533019759
  0
LINE
  5
9263
  8
0
 10
4105.3606808920249023
 20
77.6767026398465106
 30
0.0
 11
4118.8753195245126335
 21
77.6767026398465248
 31
0.0
  0
LINE
  5
9264
  8
0
 10
4118.8244245016130662
 20
77.2180448252465084
 30
0.0
 11
4105.411575914925379
 21
77.2180448252465084
 31
0.0
  0
ARC
  5
9265
  8
0
 10
4105.411575914925379
 20
76.9672901635723861
 30
0.0
 40
0.2507546616741294
 50
90.0
 51
164.8689913467036945
  0
LINE
  5
9266
  8
0
 10
4105.1695145403245988
 20
77.0327438974465082
 30
0.0
 11
4105.0265899584246654
 21
76.4946439681779538
 31
0.0
  0
LINE
  5
9267
  8
0
 10
4105.0265899584246654
 20
76.4946439681779538
 30
0.0
 11
4105.0265899584246654
 21
76.4685630708643203
 31
0.0
  0
ARC
  5
9268
  8
0
 10
4105.0814844820069993
 20
76.4762765209988942
 30
0.0
 40
0.0554337986449954
 50
187.9984933323231076
 51
265.1730541382759156
  0
LINE
  5
9269
  8
0
 10
4105.076819923050607
 20
76.4210393240935417
 30
0.0
 11
4119.1591804934878382
 21
76.4210393240935417
 31
0.0
  0
ARC
  5
926A
  8
0
 10
4105.4229390763066476
 20
76.1985444344236669
 30
0.0
 40
0.2228763677122574
 50
14.2937660539977198
 51
86.6472408452513321
  0
ARC
  5
926B
  8
0
 10
4105.7451646680347039
 20
76.2795082084597738
 30
0.0
 40
0.1093689060468217
 50
193.7184963573346863
 51
270.5442985860078124
  0
ARC
  5
926C
  8
0
 10
4109.1945085642701088
 20
76.2351021501959849
 30
0.0
 40
0.2242652522455773
 50
123.9941270585270985
 51
174.8783908265467062
  0
ARC
  5
926D
  8
0
 10
4119.2462130776957565
 20
75.3341900842302152
 30
0.0
 40
10.31626238739263
 50
174.8783908265467062
 51
175.1265056092532859
  0
ARC
  5
926E
  8
0
 10
4108.8589486445725925
 20
76.2198523960945522
 30
0.0
 40
0.1086913359710337
 50
332.8211796629619812
 51
355.1265056092532859
  0
ARC
  5
926F
  8
0
 10
4107.3099941803629918
 20
76.1778644787115127
 30
0.0
 40
0.2485157787445953
 50
6.7740195411493618
 51
78.0999138423767363
  0
ARC
  5
9270
  8
0
 10
4107.6630432972206108
 20
76.2198006814241751
 30
0.0
 40
0.1070152663314358
 50
186.7740195411493005
 51
207.6092936952233003
  0
ARC
  5
9271
  8
0
 10
4106.7266626457249004
 20
74.9349982398580465
 30
0.0
 40
1.5114641199528349
 50
56.6092597906956314
 51
79.4764313130768159
  0
ARC
  5
9272
  8
0
 10
4107.4526408169249407
 20
76.1124727678790407
 30
0.0
 40
0.2233018275817411
 50
117.0200093170292064
 51
149.666445411311912
  0
ARC
  5
9273
  8
0
 10
4107.1638331871363334
 20
76.2815585986814
 30
0.0
 40
0.1113620010695233
 50
270.7265238616967054
 51
329.6250101500672827
  0
ARC
  5
9274
  8
0
 10
4111.9972469891317814
 20
38.8705732265832182
 30
0.0
 40
37.5500452789699608
 50
89.8157482449786642
 51
94.6094681645274562
  0
ARC
  5
9275
  8
0
 10
4105.8104504168859421
 20
77.2926865499631646
 30
0.0
 40
0.0800000004408626
 50
22.0232219776743712
 51
90.0
  0
ARC
  5
9276
  8
0
 10
4105.9587714098497599
 20
77.3526820598337679
 30
0.0
 40
0.0799955562421134
 50
202.0232219776740124
 51
270.0619466904412889
  0
LINE
  5
9277
  8
0
 10
4105.9588578989259986
 20
77.2726865503465064
 30
0.0
 11
4106.3887773461501638
 21
77.2731513681309394
 31
0.0
  0
ARC
  5
9278
  8
0
 10
4106.3886907289106603
 20
77.3532654205504144
 30
0.0
 40
0.0801140992436161
 50
270.0619466904412889
 51
357.0887739771980023
  0
LINE
  5
9279
  8
0
 10
4106.4687014349228775
 20
77.3491965360676659
 30
0.0
 11
4106.4698960019923106
 21
77.3726865503465149
 31
0.0
  0
ARC
  5
927A
  8
0
 10
4106.9232304608776758
 20
77.2926865504176419
 30
0.0
 40
0.0799999999183398
 50
2.5000001639889562
 51
90.0
  0
LINE
  5
927B
  8
0
 10
4107.003154318513225
 20
77.2961761016320708
 30
0.0
 11
4107.003458765425421
 21
77.2892031214021813
 31
0.0
  0
ARC
  5
927C
  8
0
 10
4107.0833919774286187
 20
77.2926930810372426
 30
0.0
 40
0.0800093631999543
 50
182.5000001639888865
 51
248.9064411908634895
  0
ARC
  5
927D
  8
0
 10
4107.7052162117261105
 20
77.2926865503465024
 30
0.0
 40
0.0799999999999978
 50
291.0891701118055721
 51
357.4996264979760099
  0
LINE
  5
927E
  8
0
 10
4107.7851400467015992
 20
77.2891964783464971
 30
0.0
 11
4107.7887858472649896
 21
77.3726865503465149
 31
0.0
  0
ARC
  5
927F
  8
0
 10
4108.1032554648081714
 20
77.3170029149002431
 30
0.0
 40
0.067223400366399
 50
124.0717066320995059
 51
179.3252369288750003
  0
LINE
  5
9280
  8
0
 10
4108.0360367261246211
 20
77.3177945756465022
 30
0.0
 11
4108.0351642763325799
 21
77.2180448252465084
 31
0.0
  0
LINE
  5
9281
  8
0
 10
4108.073087836824925
 20
77.3726865503465149
 30
0.0
 11
4108.0720801358893368
 21
77.2180448252465084
 31
0.0
  0
LINE
  5
9282
  8
0
 10
4108.0355939166420285
 20
77.2671668652465087
 30
0.0
 11
4108.0724002327178823
 21
77.2671668652465087
 31
0.0
  0
LINE
  5
9283
  8
0
 10
4108.1331568864643486
 20
77.3726865503465149
 30
0.0
 11
4108.1331398300471847
 21
77.2594620281160758
 31
0.0
  0
ARC
  5
9284
  8
0
 10
4108.228369762762668
 20
77.2559393855830336
 30
0.0
 40
0.0952950633320695
 50
177.8815424738668014
 51
203.4316640860290875
  0
LINE
  5
9285
  8
0
 10
4108.5632124826261133
 20
77.3726865503465149
 30
0.0
 11
4108.5629639679245884
 21
77.3357515348464943
 31
0.0
  0
ARC
  5
9286
  8
0
 10
4108.588301138175666
 20
77.335581055446994
 30
0.0
 40
0.0253377437734769
 50
179.614495123463513
 51
223.8904594333316993
  0
ARC
  5
9287
  8
0
 10
4108.6035365484185604
 20
77.3502375328487233
 30
0.0
 40
0.0464784640808783
 50
223.8904594333316993
 51
257.743841378160198
  0
ARC
  5
9288
  8
0
 10
4108.6178035498433019
 20
77.4159133102454859
 30
0.0
 40
0.1136860162328068
 50
257.743841378160198
 51
267.9615395443456123
  0
LINE
  5
9289
  8
0
 10
4108.6137596994258274
 20
77.302299237346503
 30
0.0
 11
4115.6222407171126179
 21
77.302299237346503
 31
0.0
  0
ARC
  5
928A
  8
0
 10
4040.4212942918679801
 20
74.7475834962814645
 30
0.0
 40
65.4965724843383157
 50
2.1616488821737261
 51
2.2772744253411199
  0
LINE
  5
928B
  8
0
 10
4119.2336970209698848
 20
76.1096252374665312
 30
0.0
 11
4105.0023033955685605
 21
76.1096252374665312
 31
0.0
  0
ARC
  5
928C
  8
0
 10
4105.0023033955685605
 20
75.9093148037136132
 30
0.0
 40
0.2003104337529278
 50
90.0
 51
158.2855690036597025
  0
LINE
  5
928D
  8
0
 10
4105.7462036354072552
 20
76.1701442374424715
 30
0.0
 11
4107.1652452454691229
 21
76.1701442374665305
 31
0.0
  0
LINE
  5
928E
  8
0
 10
4106.3017816822693931
 20
76.1701442374518933
 30
0.0
 11
4106.3024515552688172
 21
76.1096252374665312
 31
0.0
  0
LINE
  5
928F
  8
0
 10
4107.0708972937691215
 20
76.1701442374649389
 30
0.0
 11
4107.0708972937691215
 21
76.1096252374665312
 31
0.0
  0
ARC
  5
9290
  8
0
 10
4107.6704376137831787
 20
76.2243568620713745
 30
0.0
 40
0.1156807068802832
 50
207.9116913108865958
 51
262.6555975489644084
  0
ARC
  5
9291
  8
0
 10
4108.8566781713316232
 20
76.219987054510753
 30
0.0
 40
0.1107764212681502
 50
274.9586833062251117
 51
333.2956268009361906
  0
ARC
  5
9292
  8
0
 10
4110.3929625692599075
 20
73.7693662974561306
 30
0.0
 40
6.0001884146144651
 50
158.346144945387806
 51
175.5477423032803017
  0
ARC
  5
9293
  8
0
 10
4104.610276255176359
 20
74.2196255683017938
 30
0.0
 40
0.1999992437267699
 50
175.5477423032803017
 51
249.8659323319774046
  0
ARC
  5
9294
  8
0
 10
4104.472856496260647
 20
73.8447991555643313
 30
0.0
 40
0.1992237889577052
 50
359.890601789316122
 51
69.8659323319774046
  0
LINE
  5
9295
  8
0
 10
4104.6720799220693152
 20
73.844418766066525
 30
0.0
 11
4104.6717194445809582
 21
73.6556239638316299
 31
0.0
  0
ARC
  5
9296
  8
0
 10
4109.6993092204411369
 20
74.3926833922321862
 30
0.0
 40
5.0813300970632191
 50
188.3403170166126017
 51
217.5884392486958063
  0
ARC
  5
9297
  8
0
 10
4111.1816961035628992
 20
75.109533039154627
 30
0.0
 40
6.7016980360505896
 50
214.7129663231177972
 51
231.7945751523994886
  0
ARC
  5
9298
  8
0
 10
4108.9128450156649706
 20
72.3220371305564242
 30
0.0
 40
3.108599950995123
 50
232.8791632481820955
 51
254.440079557415288
  0
ARC
  5
9299
  8
0
 10
4107.5923299710857464
 20
68.9310592447037749
 30
0.0
 40
0.6276009111014585
 50
355.2380334727761237
 51
39.1581406332319304
  0
LINE
  5
929A
  8
0
 10
4108.2177645204692453
 20
68.8789581117665364
 30
0.0
 11
4107.6286433788691284
 21
60.3991090895665295
 31
0.0
  0
ARC
  5
929B
  8
0
 10
4108.1459861770654243
 20
60.2156468989458489
 30
0.0
 40
0.5489097804298694
 50
160.4742699662953953
 51
174.7374582338329958
  0
LINE
  5
929C
  8
0
 10
4107.5993901202691632
 20
60.26599268076653
 30
0.0
 11
4107.5486595465690698
 21
59.6056252374665334
 31
0.0
  0
LINE
  5
929D
  8
0
 10
4107.5486595465690698
 20
59.6056252374665334
 30
0.0
 11
4116.6873408699693755
 21
59.6056252374665334
 31
0.0
  0
ARC
  5
929E
  8
0
 10
4104.6363473790797798
 20
-956.4423515185922042
 30
0.0
 40
1046.6237174325349315
 50
89.1152144889680642
 51
89.5904251216473853
  0
ARC
  5
929F
  8
0
 10
4120.7805668460778179
 20
89.9183504429472862
 30
0.0
 40
0.1393332571679644
 50
2.962475191388235
 51
82.7674757027800609
  0
LINE
  5
92A0
  8
0
 10
4120.9197138978697694
 20
89.9255514519665269
 30
0.0
 11
4120.8654081093691275
 21
88.3704372990665235
 31
0.0
  0
ARC
  5
92A1
  8
0
 10
4120.7454810459721557
 20
88.3746254183938191
 30
0.0
 40
0.1200001703273108
 50
270.0000392462297896
 51
357.9999169763476061
  0
ARC
  5
92A2
  8
0
 10
4008.9196321124009046
 20
93.0613960967259857
 30
0.0
 40
111.5530739929635047
 50
353.8866884008875786
 51
357.5303877398844747
  0
ARC
  5
92A3
  8
0
 10
4093.3992069741771047
 20
84.0132821025984242
 30
0.0
 40
26.5903354796764404
 50
347.6005867994214213
 51
353.8866884008875786
  0
ARC
  5
92A4
  8
0
 10
4110.7812486228986018
 20
80.3232733863905821
 30
0.0
 40
8.8201400281891562
 50
338.8402799510316754
 51
346.7635667069508258
  0
ARC
  5
92A5
  8
0
 10
4104.1026521536523433
 20
84.8979441515890159
 30
0.0
 40
15.7238919910480508
 50
333.8251092026986839
 51
352.1856843661304879
  0
ARC
  5
92A6
  8
0
 10
4104.1026521536523433
 20
84.8979441515890159
 30
0.0
 40
15.7238919910480508
 50
330.763064107110381
 51
330.9928915478723752
  0
ARC
  5
92A7
  8
0
 10
4070.8391692140749001
 20
91.1997037888530286
 30
0.0
 40
49.5651683153833105
 50
350.1962854698779211
 51
352.9691784144587245
  0
ARC
  5
92A8
  8
0
 10
4059.5123970117679164
 20
92.6763904968496348
 30
0.0
 40
60.9875709039807319
 50
352.8948206432723964
 51
354.4218881035781124
  0
ARC
  5
92A9
  8
0
 10
4075.8314805543009243
 20
91.1494870658213046
 30
0.0
 40
44.5973952302901182
 50
354.3363428130015791
 51
356.2782597317494719
  0
ARC
  5
92AA
  8
0
 10
4157.8127485029590389
 20
-35220.5153215360332979
 30
0.0
 40
35298.8453922007320216
 50
90.0690685682413346
 51
90.0741700451157072
  0
ARC
  5
92AB
  8
0
 10
4115.0943480029181956
 20
-55.1141743544497729
 30
0.0
 40
133.4187014399551003
 50
89.5458903821225505
 51
89.9284662765810339
  0
ARC
  5
92AC
  8
0
 10
4116.1493326932104537
 20
78.0152879268999015
 30
0.0
 40
0.2850591687200786
 50
81.7817230712738166
 51
89.509180046266053
  0
ARC
  5
92AD
  8
0
 10
4123.0012625985300474
 20
150.1561876827499873
 30
0.0
 40
72.1808474218826035
 50
264.5853575174829757
 51
265.7537562678294876
  0
ARC
  5
92AE
  8
0
 10
4117.594341776809415
 20
77.541805242697933
 30
0.0
 40
0.6347456804513893
 50
67.8589480969540091
 51
84.355919292994372
  0
ARC
  5
92AF
  8
0
 10
4146.3557115111625535
 20
142.2909632779021933
 30
0.0
 40
70.2152022110779512
 50
246.0330039921549883
 51
246.9599903970253081
  0
ARC
  5
92B0
  8
0
 10
4118.8582414483207685
 20
77.6375417729761921
 30
0.0
 40
0.0427227595133503
 50
15.4484679876621698
 51
66.4379568781689329
  0
LINE
  5
92B1
  8
0
 10
4118.8994206524130277
 20
77.6489219017465047
 30
0.0
 11
4118.9498335707294245
 21
77.4476865503465035
 31
0.0
  0
LINE
  5
92B2
  8
0
 10
4118.9498335707294245
 20
77.4476865503465035
 30
0.0
 11
4118.9498335707294245
 21
77.4211303659570973
 31
0.0
  0
ARC
  5
92B3
  8
0
 10
4118.8967684960089173
 20
77.4259652397847447
 30
0.0
 40
0.0532848774042554
 50
270.8732001617689207
 51
354.7940314037115854
  0
ARC
  5
92B4
  8
0
 10
4110.1591859517238845
 20
359.6735414542372951
 30
0.0
 40
281.8392230071884796
 50
270.398215309118882
 51
270.8200328258711238
  0
ARC
  5
92B5
  8
0
 10
4113.349795895304851
 20
136.7605120433838977
 30
0.0
 40
58.9033607666418106
 50
270.8200328258711238
 51
271.650989777937184
  0
ARC
  5
92B6
  8
0
 10
4113.8562242760390291
 20
119.1903381339372032
 30
0.0
 40
41.3258899328439568
 50
271.650989777937184
 51
273.8281277925411246
  0
ARC
  5
92B7
  8
0
 10
4115.0102403441269416
 20
101.9438310230140985
 30
0.0
 40
24.0408165858046488
 50
273.8281277925411246
 51
275.6617034558141768
  0
ARC
  5
92B8
  8
0
 10
4117.0227734278014395
 20
81.6435635545897753
 30
0.0
 40
3.641033530525672
 50
275.6617034558141768
 51
281.8412833503526826
  0
ARC
  5
92B9
  8
0
 10
4117.7181857693376514
 20
78.3267531237435293
 30
0.0
 40
0.2521060071144959
 50
281.8412833503526826
 51
298.0992773424443953
  0
ARC
  5
92BA
  8
0
 10
4117.8242481046881949
 20
78.1155976698353527
 30
0.0
 40
0.0169414866621313
 50
318.4559262223729093
 51
56.6172148555569876
  0
ARC
  5
92BB
  8
0
 10
4112.1858235962572508
 20
-64.717924593928899
 30
0.0
 40
142.3171163020763004
 50
89.3997120169594552
 51
90.0273051768656813
  0
ARC
  5
92BC
  8
0
 10
4113.3781534933277726
 20
49.0824065727017995
 30
0.0
 40
28.510539057093311
 50
87.0011517264717043
 51
89.3997120169594552
  0
ARC
  5
92BD
  8
0
 10
4113.5926023056990743
 20
56.9905358952061292
 30
0.0
 40
20.602986697796549
 50
83.2299509032948066
 51
86.4461619698804071
  0
ARC
  5
92BE
  8
0
 10
4117.6726365888443979
 20
90.2953708912287993
 30
0.0
 40
12.9512045407404504
 50
262.6749611466980241
 51
266.1968928530355925
  0
ARC
  5
92BF
  8
0
 10
4118.8244245016130662
 20
76.9672901635723861
 30
0.0
 40
0.2507546616741294
 50
15.1310086532963304
 51
90.0
  0
LINE
  5
92C0
  8
0
 10
4119.066485876212937
 20
77.0327438974465082
 30
0.0
 11
4119.2094104581137799
 21
76.4946439681779538
 31
0.0
  0
LINE
  5
92C1
  8
0
 10
4119.2094104581137799
 20
76.4946439681779538
 30
0.0
 11
4119.2094104581137799
 21
76.4685630708643203
 31
0.0
  0
ARC
  5
92C2
  8
0
 10
4119.1556326508289203
 20
76.4750962138073618
 30
0.0
 40
0.0541731899842185
 50
273.7550308929734797
 51
353.0734216364718918
  0
ARC
  5
92C3
  8
0
 10
4118.8130613402317977
 20
76.1985444344236669
 30
0.0
 40
0.2228763677122574
 50
93.3527591547487248
 51
165.7062339460022997
  0
ARC
  5
92C4
  8
0
 10
4118.4908357485046508
 20
76.2795082084597738
 30
0.0
 40
0.1093689060468217
 50
269.4557014139921876
 51
346.2815036426649158
  0
ARC
  5
92C5
  8
0
 10
4115.0414918522683365
 20
76.2351021501959849
 30
0.0
 40
0.2242652522455773
 50
5.1216091734536908
 51
56.0058729414728802
  0
ARC
  5
92C6
  8
0
 10
4104.9897873388426888
 20
75.3341900842302152
 30
0.0
 40
10.31626238739263
 50
4.8734943907466999
 51
5.1216091734532858
  0
ARC
  5
92C7
  8
0
 10
4115.3770517719649433
 20
76.2198523960945522
 30
0.0
 40
0.1086913359710337
 50
184.8734943907462878
 51
207.1788203370379051
  0
ARC
  5
92C8
  8
0
 10
4116.926006236176363
 20
76.1778644787115127
 30
0.0
 40
0.2485157787445953
 50
101.9000861576233063
 51
173.2259804588505858
  0
ARC
  5
92C9
  8
0
 10
4116.5729571193178344
 20
76.2198006814241751
 30
0.0
 40
0.1070152663314358
 50
332.390706304776586
 51
353.2259804588505858
  0
ARC
  5
92CA
  8
0
 10
4117.5093377708144544
 20
74.9349982398580465
 30
0.0
 40
1.5114641199528349
 50
100.5235686869231984
 51
123.3907402093042975
  0
ARC
  5
92CB
  8
0
 10
4116.783359599614414
 20
76.1124727678790407
 30
0.0
 40
0.2233018275817411
 50
30.3335545886881199
 51
62.9799906829705591
  0
ARC
  5
92CC
  8
0
 10
4117.0721672294030213
 20
76.2815585986814
 30
0.0
 40
0.1113620010695233
 50
210.3749898499326889
 51
269.273476138303181
  0
ARC
  5
92CD
  8
0
 10
4112.2387534274066638
 20
38.8705732265832182
 30
0.0
 40
37.5500452789699608
 50
85.3905318354725438
 51
90.1842517550213358
  0
ARC
  5
92CE
  8
0
 10
4118.4255499996515937
 20
77.2926865499631646
 30
0.0
 40
0.0800000004408626
 50
90.0
 51
157.9767780223255897
  0
ARC
  5
92CF
  8
0
 10
4118.2772290066886853
 20
77.3526820598337679
 30
0.0
 40
0.0799955562421134
 50
269.9380533095585974
 51
337.9767780223256182
  0
LINE
  5
92D0
  8
0
 10
4118.2771425176133562
 20
77.2726865503465064
 30
0.0
 11
4117.847223070387372
 21
77.2731513681309394
 31
0.0
  0
ARC
  5
92D1
  8
0
 10
4117.847309687627785
 20
77.3532654205504144
 30
0.0
 40
0.0801140992436161
 50
182.9112260228019977
 51
269.9380533095585974
  0
LINE
  5
92D2
  8
0
 10
4117.7672989816155678
 20
77.3491965360676659
 30
0.0
 11
4117.7661044145452252
 21
77.3726865503465149
 31
0.0
  0
ARC
  5
92D3
  8
0
 10
4117.3127699556607695
 20
77.2926865504176419
 30
0.0
 40
0.0799999999183398
 50
90.0
 51
177.4999998360109998
  0
LINE
  5
92D4
  8
0
 10
4117.2328460980252203
 20
77.2961761016320708
 30
0.0
 11
4117.2325416511139338
 21
77.2892031214021813
 31
0.0
  0
ARC
  5
92D5
  8
0
 10
4117.1526084391080076
 20
77.2926930810372426
 30
0.0
 40
0.0800093631999543
 50
291.0935588091364821
 51
357.4999998360111135
  0
ARC
  5
92D6
  8
0
 10
4116.5307842048132443
 20
77.2926865503465024
 30
0.0
 40
0.0799999999999978
 50
182.5003735020235922
 51
248.9108298881943142
  0
LINE
  5
92D7
  8
0
 10
4116.4508603698359366
 20
77.2891964783464971
 30
0.0
 11
4116.4472145692725462
 21
77.3726865503465149
 31
0.0
  0
ARC
  5
92D8
  8
0
 10
4116.1327449517293644
 20
77.3170029149002431
 30
0.0
 40
0.067223400366399
 50
0.6747630711249908
 51
55.9282933679004515
  0
LINE
  5
92D9
  8
0
 10
4116.1999636904120052
 20
77.3177945756465022
 30
0.0
 11
4116.2008361402058654
 21
77.2180448252465084
 31
0.0
  0
LINE
  5
92DA
  8
0
 10
4116.1629125797126107
 20
77.3726865503465149
 30
0.0
 11
4116.1639202806491085
 21
77.2180448252465084
 31
0.0
  0
LINE
  5
92DB
  8
0
 10
4116.2004064998964168
 20
77.2671668652465087
 30
0.0
 11
4116.163600183820563
 21
77.2671668652465087
 31
0.0
  0
LINE
  5
92DC
  8
0
 10
4116.1028435300740966
 20
77.3726865503465149
 30
0.0
 11
4116.1028605864912606
 21
77.2594620281160758
 31
0.0
  0
ARC
  5
92DD
  8
0
 10
4116.0076306537757773
 20
77.2559393855830336
 30
0.0
 40
0.0952950633320695
 50
336.5683359139708841
 51
2.1184575261331511
  0
LINE
  5
92DE
  8
0
 10
4115.6727879339132414
 20
77.3726865503465149
 30
0.0
 11
4115.6730364486129474
 21
77.3357515348464943
 31
0.0
  0
ARC
  5
92DF
  8
0
 10
4115.6476992783627793
 20
77.335581055446994
 30
0.0
 40
0.0253377437734769
 50
316.1095405666681017
 51
0.3855048765364792
  0
ARC
  5
92E0
  8
0
 10
4115.6324638681189754
 20
77.3502375328487233
 30
0.0
 40
0.0464784640808783
 50
282.256158621839802
 51
316.1095405666682723
  0
ARC
  5
92E1
  8
0
 10
4115.6181968666969624
 20
77.4159133102454859
 30
0.0
 40
0.1136860162328068
 50
272.0384604556543877
 51
282.256158621839802
  0
ARC
  5
92E2
  8
0
 10
4183.8147061246700105
 20
74.7475834962814645
 30
0.0
 40
65.4965724843383157
 50
177.7227255746585115
 51
177.8383511178263063
  0
ARC
  5
92E3
  8
0
 10
4119.2336970209698848
 20
75.9093148037136132
 30
0.0
 40
0.2003104337529278
 50
21.7144309963403508
 51
90.0
  0
LINE
  5
92E4
  8
0
 10
4118.4897967811311901
 20
76.1701442374424715
 30
0.0
 11
4117.0707551710693224
 21
76.1701442374665305
 31
0.0
  0
LINE
  5
92E5
  8
0
 10
4117.9342187342690522
 20
76.1701442374518933
 30
0.0
 11
4117.9335488612696281
 21
76.1096252374665312
 31
0.0
  0
LINE
  5
92E6
  8
0
 10
4117.1651031227693238
 20
76.1701442374649389
 30
0.0
 11
4117.1651031227693238
 21
76.1096252374665312
 31
0.0
  0
ARC
  5
92E7
  8
0
 10
4116.5655628027561761
 20
76.2243568620713745
 30
0.0
 40
0.1156807068802832
 50
277.344402451035478
 51
332.0883086891133757
  0
ARC
  5
92E8
  8
0
 10
4115.3793222452059126
 20
76.219987054510753
 30
0.0
 40
0.1107764212681502
 50
206.7043731990636957
 51
265.0413166937748883
  0
ARC
  5
92E9
  8
0
 10
4113.8430378472767188
 20
73.7693662974561306
 30
0.0
 40
6.0001884146144651
 50
4.452257696719653
 51
21.6538550546121584
  0
ARC
  5
92EA
  8
0
 10
4119.6257241613620863
 20
74.2196255683017938
 30
0.0
 40
0.1999992437267699
 50
290.1340676680226238
 51
4.452257696719653
  0
ARC
  5
92EB
  8
0
 10
4119.7631439202768888
 20
73.8447991555643313
 30
0.0
 40
0.1992237889577052
 50
110.1340676680225954
 51
180.1093982106839064
  0
LINE
  5
92EC
  8
0
 10
4119.5639204944691301
 20
73.844418766066525
 30
0.0
 11
4119.5642809719565776
 21
73.6556239638316299
 31
0.0
  0
ARC
  5
92ED
  8
0
 10
4114.5366911960973084
 20
74.3926833922321862
 30
0.0
 40
5.0813300970632191
 50
322.4115607513041937
 51
351.659682983386972
  0
ARC
  5
92EE
  8
0
 10
4113.0543043129746366
 20
75.109533039154627
 30
0.0
 40
6.7016980360505896
 50
308.2054248476003977
 51
325.2870336768821744
  0
ARC
  5
92EF
  8
0
 10
4115.3231554008725652
 20
72.3220371305564242
 30
0.0
 40
3.108599950995123
 50
285.559920442584712
 51
307.1208367518178761
  0
ARC
  5
92F0
  8
0
 10
4116.6436704454517894
 20
68.9310592447037749
 30
0.0
 40
0.6276009111014585
 50
140.8418593667680057
 51
184.7619665272239047
  0
LINE
  5
92F1
  8
0
 10
4116.0182358960692
 20
68.8789581117665364
 30
0.0
 11
4116.6073570376693169
 21
60.3991090895665295
 31
0.0
  0
ARC
  5
92F2
  8
0
 10
4116.0900142394739305
 20
60.2156468989458489
 30
0.0
 40
0.5489097804298694
 50
5.2625417661670078
 51
19.5257300337042388
  0
LINE
  5
92F3
  8
0
 10
4116.6366102962692821
 20
60.26599268076653
 30
0.0
 11
4116.6873408699693755
 21
59.6056252374665334
 31
0.0
  0
LINE
  5
92F4
  8
0
 10
4119.6945675035685781
 20
74.0318483286665412
 30
0.0
 11
4104.5414329129689577
 21
74.0318483286665412
 31
0.0
  0
ARC
  5
92F5
  8
0
 10
4112.1358043844256827
 20
40.1208451024527335
 30
0.0
 40
30.2884264432494703
 50
90.0336796701042346
 51
95.1863888695566516
  0
ARC
  5
92F6
  8
0
 10
4110.204980537726442
 20
61.3930135634250078
 30
0.0
 40
8.9288095983954925
 50
95.1863888603477051
 51
102.5010650014233988
  0
ARC
  5
92F7
  8
0
 10
4108.4768092754129611
 20
69.1876047190449412
 30
0.0
 40
0.9449366538183204
 50
102.5010650014233988
 51
131.5356342563584064
  0
ARC
  5
92F8
  8
0
 10
4108.0553550688618998
 20
69.6864030101373828
 30
0.0
 40
0.2925029975379281
 50
134.527946568234114
 51
215.5791489401275953
  0
ARC
  5
92F9
  8
0
 10
4108.2865453978247388
 20
69.8903014468935311
 30
0.0
 40
0.5999846659977341
 50
218.5714610680840053
 51
249.7596727370211056
  0
LINE
  5
92FA
  8
0
 10
4116.8879561420699247
 20
90.1096557772795848
 30
0.0
 11
4116.8879561420699247
 21
90.1514765417665274
 31
0.0
  0
ARC
  5
92FB
  8
0
 10
4116.9142959413902645
 20
90.1515209336443633
 30
0.0
 40
0.026339836728094
 50
125.7228573077112941
 51
180.0965635616720135
  0
ARC
  5
92FC
  8
0
 10
4116.9627616070365548
 20
90.0841154952094314
 30
0.0
 40
0.1093603995937495
 50
100.7362819824432023
 51
125.7182456138458946
  0
ARC
  5
92FD
  8
0
 10
4117.1358838421601831
 20
89.1710615271999671
 30
0.0
 40
1.038682118263988
 50
94.147243389983359
 51
100.7362819824432023
  0
ARC
  5
92FE
  8
0
 10
4117.6869732808690969
 20
68.6874111206842883
 30
0.0
 40
21.5287219036635307
 50
90.6892161629044153
 51
91.6667996984225368
  0
ARC
  5
92FF
  8
0
 10
4114.392609793909287
 20
-30.9998973160361118
 30
0.0
 40
121.2524723614277065
 50
88.4299680425155543
 51
88.5655244339507561
  0
ARC
  5
9300
  8
0
 10
4117.6582930093500181
 20
89.2604958516689351
 30
0.0
 40
0.9482429606625251
 50
80.8046656167575463
 51
86.584751776869993
  0
ARC
  5
9301
  8
0
 10
4117.7353284897262711
 20
89.8319107763450546
 30
0.0
 40
0.3721740653915168
 50
69.7900608547482051
 51
78.453661435219729
  0
ARC
  5
9302
  8
0
 10
4117.8498309955130026
 20
90.1429529609088718
 30
0.0
 40
0.0407256313782047
 50
31.0149751795148205
 51
69.7900608547482051
  0
ARC
  5
9303
  8
0
 10
4117.8649927296119131
 20
90.1520282040772258
 30
0.0
 40
0.0230554271204959
 50
1.236518489213682
 51
31.100680092648151
  0
LINE
  5
9304
  8
0
 10
4117.8880427878693808
 20
90.1525257319792814
 30
0.0
 11
4117.8880427878693808
 21
90.0974702087475805
 31
0.0
  0
ARC
  5
9305
  8
0
 10
4112.1001960321127626
 20
40.1208451024495503
 30
0.0
 40
30.2884264432526606
 50
84.8136111304433342
 51
89.966320329895737
  0
ARC
  5
9306
  8
0
 10
4114.0310198788129128
 20
61.3930135634250078
 30
0.0
 40
8.9288095983954925
 50
77.4989349985765728
 51
84.8136111396523091
  0
ARC
  5
9307
  8
0
 10
4115.7591911411263936
 20
69.1876047190449412
 30
0.0
 40
0.9449366538183204
 50
48.4643657436416291
 51
77.4989349985765728
  0
ARC
  5
9308
  8
0
 10
4116.1806453476747265
 20
69.6864030101373828
 30
0.0
 40
0.2925029975379281
 50
324.4208510598724047
 51
45.4720534317658789
  0
ARC
  5
9309
  8
0
 10
4115.949455018712797
 20
69.8903014468935311
 30
0.0
 40
0.5999846659977341
 50
290.2403272629788944
 51
321.4285389319159094
  0
ENDSEC
  0
EOF
