  0
SECTION
  2
HEADER
  9
$ACADVER
  1
AC1009
  9
$INSBASE
 10
143.8379031981639002
 20
-31.4407986346887789
 30
0.0
  9
$EXTMIN
 10
136.9128544861738135
 20
-31.4411678702546205
 30
-0.0000000349181948
  9
$EXTMAX
 10
146.5624788951344897
 20
-19.7193121871520383
 30
0.0000000814935746
  9
$LIMMIN
 10
0.0
 20
0.0
  9
$LIMMAX
 10
11.6929133858000007
 20
8.2677165353999982
  9
$ORTHOMODE
 70
     0
  9
$REGENMODE
 70
     1
  9
$FILLMODE
 70
     1
  9
$QTEXTMODE
 70
     0
  9
$MIRRTEXT
 70
     0
  9
$DRAGMODE
 70
     2
  9
$LTSCALE
 40
0.6431102362
  9
$OSMODE
 70
  2047
  9
$ATTMODE
 70
     1
  9
$TEXTSIZE
 40
0.2
  9
$TRACEWID
 40
0.05
  9
$TEXTSTYLE
  7
STANDARD
  9
$CLAYER
  8
0
  9
$CELTYPE
  6
BYLAYER
  9
$CECOLOR
 62
   256
  9
$DIMSCALE
 40
1.0
  9
$DIMASZ
 40
0.1875
  9
$DIMEXO
 40
0.0625
  9
$DIMDLI
 40
0.4443307087
  9
$DIMRND
 40
0.0
  9
$DIMDLE
 40
0.0
  9
$DIMEXE
 40
0.125
  9
$DIMTP
 40
0.01
  9
$DIMTM
 40
0.01
  9
$DIMTXT
 40
1.0
  9
$DIMCEN
 40
0.1052362205
  9
$DIMTSZ
 40
0.0
  9
$DIMTOL
 70
     1
  9
$DIMLIM
 70
     0
  9
$DIMTIH
 70
     1
  9
$DIMTOH
 70
     1
  9
$DIMSE1
 70
     0
  9
$DIMSE2
 70
     0
  9
$DIMTAD
 70
     0
  9
$DIMZIN
 70
     0
  9
$DIMBLK
  1

  9
$DIMASO
 70
     1
  9
$DIMSHO
 70
     1
  9
$DIMPOST
  1
\X
  9
$DIMAPOST
  1

  9
$DIMALT
 70
     1
  9
$DIMALTD
 70
     2
  9
$DIMALTF
 40
25.3999999999999986
  9
$DIMLFAC
 40
1.0
  9
$DIMTOFL
 70
     0
  9
$DIMTVP
 40
0.0
  9
$DIMTIX
 70
     0
  9
$DIMSOXD
 70
     0
  9
$DIMSAH
 70
     0
  9
$DIMBLK1
  1

  9
$DIMBLK2
  1

  9
$DIMSTYLE
  2
STANDARD
  9
$DIMCLRD
 70
     0
  9
$DIMCLRE
 70
     0
  9
$DIMCLRT
 70
     0
  9
$DIMTFAC
 40
1.0
  9
$DIMGAP
 40
0.09
  9
$LUNITS
 70
     2
  9
$LUPREC
 70
     4
  9
$SKETCHINC
 40
0.1
  9
$FILLETRAD
 40
0.0
  9
$AUNITS
 70
     0
  9
$AUPREC
 70
     0
  9
$MENU
  1
.
  9
$ELEVATION
 40
0.0
  9
$PELEVATION
 40
0.0
  9
$THICKNESS
 40
0.0
  9
$LIMCHECK
 70
     0
  9
$BLIPMODE
 70
     0
  9
$CHAMFERA
 40
0.0
  9
$CHAMFERB
 40
0.0
  9
$SKPOLY
 70
     0
  9
$TDCREATE
 40
2458172.4620254631154239
  9
$TDUPDATE
 40
2459038.6350694447755814
  9
$TDINDWG
 40
0.0844040856
  9
$TDUSRTIMER
 40
0.0844040856
  9
$USRTIMER
 70
     1
  9
$ANGBASE
 50
0.0
  9
$ANGDIR
 70
     0
  9
$PDMODE
 70
     0
  9
$PDSIZE
 40
0.3125
  9
$PLINEWID
 40
0.0
  9
$COORDS
 70
     1
  9
$SPLFRAME
 70
     0
  9
$SPLINETYPE
 70
     6
  9
$SPLINESEGS
 70
     8
  9
$ATTDIA
 70
     1
  9
$ATTREQ
 70
     1
  9
$HANDLING
 70
     1
  9
$HANDSEED
  5
576C
  9
$SURFTAB1
 70
     6
  9
$SURFTAB2
 70
     6
  9
$SURFTYPE
 70
     6
  9
$SURFU
 70
     6
  9
$SURFV
 70
     6
  9
$UCSNAME
  2

  9
$UCSORG
 10
0.0
 20
0.0
 30
0.0
  9
$UCSXDIR
 10
1.0
 20
0.0
 30
0.0
  9
$UCSYDIR
 10
0.0
 20
1.0
 30
0.0
  9
$PUCSNAME
  2

  9
$PUCSORG
 10
0.0
 20
0.0
 30
0.0
  9
$PUCSXDIR
 10
1.0
 20
0.0
 30
0.0
  9
$PUCSYDIR
 10
0.0
 20
1.0
 30
0.0
  9
$USERI1
 70
     0
  9
$USERI2
 70
     0
  9
$USERI3
 70
     0
  9
$USERI4
 70
     0
  9
$USERI5
 70
     0
  9
$USERR1
 40
0.0
  9
$USERR2
 40
0.0
  9
$USERR3
 40
0.0
  9
$USERR4
 40
0.0
  9
$USERR5
 40
0.0
  9
$WORLDVIEW
 70
     1
  9
$SHADEDGE
 70
     3
  9
$SHADEDIF
 70
    70
  9
$TILEMODE
 70
     1
  9
$MAXACTVP
 70
    64
  9
$PLIMCHECK
 70
     0
  9
$PEXTMIN
 10
1.0000000000000000E+20
 20
1.0000000000000000E+20
 30
1.0000000000000000E+20
  9
$PEXTMAX
 10
-1.0000000000000000E+20
 20
-1.0000000000000000E+20
 30
-1.0000000000000000E+20
  9
$PLIMMIN
 10
0.0
 20
0.0
  9
$PLIMMAX
 10
12.0
 20
9.0
  9
$UNITMODE
 70
     0
  9
$VISRETAIN
 70
     1
  9
$PLINEGEN
 70
     0
  9
$PSLTSCALE
 70
     1
  0
ENDSEC
  0
SECTION
  2
TABLES
  0
TABLE
  2
VPORT
 70
     1
  0
VPORT
  2
*ACTIVE
 70
     0
 10
0.0
 20
0.0
 11
1.0
 21
1.0
 12
17.1265080905815097
 22
-30.8925141990811589
 13
0.0
 23
0.0
 14
1.0
 24
1.0
 15
0.0
 25
0.0
 16
0.0
 26
0.0
 36
30.6214257250603907
 17
124.6111586000725993
 27
5.3122741703778242
 37
0.0
 40
11.8194023323378197
 41
2.6486111111111108
 42
50.0
 43
0.0
 44
0.0
 50
0.0
 51
0.0
 71
     0
 72
   100
 73
     1
 74
     1
 75
     0
 76
     0
 77
     0
 78
     0
  0
ENDTAB
  0
TABLE
  2
LTYPE
 70
     2
  0
LTYPE
  2
CONTINUOUS
 70
     0
  3
Solid line
 72
    65
 73
     0
 40
0.0
  0
LTYPE
  2
PHANTOM2
 70
     0
  3
___ _ _ ___ _ _ ___ _ _ ___ _ _
 72
    65
 73
     6
 40
1.25
 49
0.625
 49
-0.125
 49
0.125
 49
-0.125
 49
0.125
 49
-0.125
  0
ENDTAB
  0
TABLE
  2
LAYER
 70
     2
  0
LAYER
  2
0
 70
     0
 62
   255
  6
CONTINUOUS
  0
LAYER
  2
DEFPOINTS
 70
     0
 62
     7
  6
CONTINUOUS
  0
ENDTAB
  0
TABLE
  2
STYLE
 70
     1
  0
STYLE
  2
STANDARD
 70
     0
 40
0.0
 41
0.8
 50
0.0
 71
     0
 42
0.2
  3
txt
  4

  0
ENDTAB
  0
TABLE
  2
VIEW
 70
     0
  0
ENDTAB
  0
TABLE
  2
UCS
 70
     0
  0
ENDTAB
  0
TABLE
  2
APPID
 70
     9
  0
APPID
  2
ACAD
 70
     0
  0
APPID
  2
ACAD_MLEADERVER
 70
     0
  0
APPID
  2
ACAD_EXEMPT_FROM_CAD_STANDARDS
 70
     0
  0
APPID
  2
ACAD_DSTYLE_DIMJAG
 70
     0
  0
APPID
  2
ACAD_DSTYLE_DIMTALN
 70
     0
  0
APPID
  2
ACAD_NAV_VCDISPLAY
 70
     0
  0
APPID
  2
ACAECLAYERSTANDARD
 70
     0
  0
APPID
  2
ACCMTRANSPARENCY
 70
     0
  0
APPID
  2
ACDBATTR
 70
     0
  0
ENDTAB
  0
TABLE
  2
DIMSTYLE
 70
     1
  0
DIMSTYLE
  2
STANDARD
 70
     0
  3

  4

  5

  6

  7

 40
1.0
 41
0.1875
 42
0.0625
 43
0.38
 44
0.125
 45
0.0
 46
0.0
 47
0.01
 48
0.01
140
0.15625
141
0.09
142
0.0
143
25.3999999999999986
144
1.0
145
0.0
146
1.0
147
0.09
 71
     1
 72
     0
 73
     1
 74
     1
 75
     0
 76
     0
 77
     0
 78
     4
170
     0
171
     2
172
     0
173
     0
174
     0
175
     0
176
     0
177
     0
178
     0
  0
ENDTAB
  0
ENDSEC
  0
SECTION
  2
BLOCKS
  0
BLOCK
  8
0
  2
$MODEL_SPACE
 70
     0
 10
0.0
 20
0.0
 30
0.0
  3
$MODEL_SPACE
  1

  0
ENDBLK
  5
21
  8
0
  0
BLOCK
 67
     1
  8
0
  2
$PAPER_SPACE
 70
     0
 10
0.0
 20
0.0
 30
0.0
  3
$PAPER_SPACE
  1

  0
ENDBLK
  5
1D
 67
     1
  8
0
  0
BLOCK
  8
0
  2
_FILLED
 70
     0
 10
0.0
 20
0.0
 30
0.0
  3
_FILLED
  1

  0
SOLID
  5
51DB
  8
0
  6
BYBLOCK
 62
     0
 10
0.0
 20
0.0
 30
0.0
 11
-1.0
 21
0.1666666667
 31
0.0
 12
-1.0
 22
-0.1666666667
 32
0.0
 13
-1.0
 23
-0.1666666667
 33
0.0
  0
ENDBLK
  5
51DC
  8
0
  6
BYBLOCK
 62
     0
  0
ENDSEC
  0
SECTION
  2
ENTITIES
  0
ATTDEF
  5
30B4
  8
DEFPOINTS
 10
143.8382166058273981
 20
-31.4371678205577609
 30
0.0
 40
0.001
  1
K-668X
  3

  2
MODELNUMBER
 70
     0
1001
ACDBATTR
1070
     0
1070
     1
  0
ATTDEF
  5
30B5
  8
DEFPOINTS
 10
143.8382166058273981
 20
-31.4388344872244296
 30
0.0
 40
0.001
  1
CANDIDE
  3

  2
TRADENAME
 70
     0
1001
ACDBATTR
1070
     0
1070
     1
  0
ATTDEF
  5
30B6
  8
DEFPOINTS
 10
143.8382166058273981
 20
-31.4405011538910912
 30
0.0
 40
0.001
  1
KITCHEN SINK FAUCET
  3

  2
PRODUCT
 70
     0
1001
ACDBATTR
1070
     0
1070
     1
  0
ARC
  5
5491
  8
0
 10
142.9088879858427106
 20
-644.8031966378597417
 30
0.0
 40
618.0426819902445459
 50
89.9117641921688033
 51
90.1527628430766441
  0
ARC
  5
5492
  8
0
 10
141.3142822234719063
 20
-46.7260606205743514
 30
0.0
 40
19.9634201911283
 50
90.1527628430766441
 51
92.3415036884692029
  0
ARC
  5
5493
  8
0
 10
140.7852173415795107
 20
-39.581974012193001
 30
0.0
 40
12.8058718090299202
 50
91.2821928564990088
 51
92.6218630277470396
  0
ARC
  5
5494
  8
0
 10
140.1995136384718137
 20
-26.810721897456439
 30
0.0
 40
0.0212145382540476
 50
90.2439429177478729
 51
108.5387106731117939
  0
ARC
  5
5495
  8
0
 10
141.381260590769898
 20
-29.9384535067191599
 30
0.0
 40
3.3647352548023579
 50
110.6843958226366027
 51
114.5387413238073009
  0
ARC
  5
5496
  8
0
 10
139.9952032254115863
 20
-26.8937203822888016
 30
0.0
 40
0.0196971806988587
 50
125.169609134121103
 51
193.3995340838694972
  0
ARC
  5
5497
  8
0
 10
140.3222959978685935
 20
-26.8206240474223101
 30
0.0
 40
0.3548561472880874
 50
192.6416113809829085
 51
214.828243014518506
  0
ARC
  5
5498
  8
0
 10
140.0477389972409128
 20
-27.010802379884769
 30
0.0
 40
0.0208783425869594
 50
216.7310643704751101
 51
264.1779842944293932
  0
ARC
  5
5499
  8
0
 10
140.7235810007371128
 20
-24.0841905255330815
 30
0.0
 40
3.022506463029023
 50
258.0624059294812014
 51
265.737115109601973
  0
ARC
  5
549A
  8
0
 10
139.3574592072986889
 20
-30.9004602492926814
 30
0.0
 40
3.9296125968049069
 50
79.1318326408414805
 51
79.9142376746707441
  0
ARC
  5
549B
  8
0
 10
141.999888594602993
 20
-6.5884403253760366
 30
0.0
 40
20.5647447215429899
 50
265.8143758467421094
 51
268.3037106498650815
  0
ARC
  5
549C
  8
0
 10
141.5670946952141094
 20
-79.1558024851077562
 30
0.0
 40
52.0119269566886473
 50
89.418256284676076
 51
90.1938289484891129
  0
ARC
  5
549D
  8
0
 10
142.1090407475523136
 20
-27.7534099962126284
 30
0.0
 40
0.6070117847498313
 50
53.3552868863195968
 51
91.3083745832991838
  0
LINE
  5
549E
  8
0
 10
142.5699466881800106
 20
-27.6055999173793083
 30
0.0
 11
142.5593174169540873
 21
-27.5004515962056395
 31
0.0
  0
ARC
  5
549F
  8
0
 10
142.2452817844983883
 20
-27.4849115875067582
 30
0.0
 40
0.314419894921087
 50
357.1670373819519
 51
44.0314875415915026
  0
LINE
  5
54A0
  8
0
 10
142.5699466881798969
 20
-27.6055999172887816
 30
0.0
 11
145.1120847332832113
 21
-27.6055999172887816
 31
0.0
  0
ARC
  5
54A1
  8
0
 10
130.5011358094430989
 20
-28.0443640357031398
 30
0.0
 40
14.6175354422922492
 50
1.720064836686245
 51
4.3967898278891431
  0
ARC
  5
54A2
  8
0
 10
145.0561064440518066
 20
-26.9252403935163684
 30
0.0
 40
0.019603811378855
 50
4.396789827889549
 51
76.593079405423282
  0
ARC
  5
54A3
  8
0
 10
143.8525430322328873
 20
-31.868996310847681
 30
0.0
 40
5.1077552592808546
 50
76.3185007544096123
 51
89.9087617822329719
  0
ARC
  5
54A4
  8
0
 10
144.8012339150060086
 20
-28.1915476228892601
 30
0.0
 40
2.1360825904959659
 50
164.0791320577943111
 51
172.7018180000627012
  0
ARC
  5
54A5
  8
0
 10
147.7203973482768049
 20
-28.4743939763953904
 30
0.0
 40
5.0683312491890398
 50
173.7224074576108137
 51
184.200871887727601
  0
ARC
  5
54A6
  8
0
 10
177.2990955260538044
 20
-26.2338351273993311
 30
0.0
 40
34.7317568612631504
 50
184.3127190336375918
 51
187.9659115976897965
  0
LINE
  5
54A7
  8
0
 10
142.9024759734759016
 20
-31.0470978487887805
 30
0.0
 11
142.9024759734759016
 21
-31.4407986346887789
 31
0.0
  0
LINE
  5
54A8
  8
0
 10
142.9024759739139085
 20
-31.4407986346887789
 30
0.0
 11
144.7733304224138919
 21
-31.4407986346887789
 31
0.0
  0
LINE
  5
54A9
  8
0
 10
144.7733304219759134
 20
-31.4407986346887789
 30
0.0
 11
144.773330422607188
 21
-31.0470978502887789
 31
0.0
  0
ARC
  5
54AA
  8
0
 10
145.3102524413289132
 20
-31.1346616775931118
 30
0.0
 40
0.5440153288651902
 50
108.5632041768923983
 51
170.7374714750309863
  0
ARC
  5
54AB
  8
0
 10
146.0138389924865976
 20
-33.0543133634542698
 30
0.0
 40
2.5883833878657052
 50
90.8535119013657066
 51
109.799777447972204
  0
ARC
  5
54AC
  8
0
 10
148.7008109560809999
 20
-90.5023795539080993
 30
0.0
 40
60.0979974792825615
 50
92.4990098751174088
 51
92.599335659235507
  0
ARC
  5
54AD
  8
0
 10
146.1269888520479867
 20
-30.0365271137317791
 30
0.0
 40
0.42755435290722
 50
263.7457319288142799
 51
356.0608891748764222
  0
LINE
  5
54AE
  8
0
 10
146.5535331583758989
 20
-30.0658985186887797
 30
0.0
 11
146.5535331583758989
 21
-29.3963451563230187
 31
0.0
  0
ARC
  5
54AF
  8
0
 10
147.0666847064578064
 20
-29.2294053394887783
 30
0.0
 40
0.5391350164662378
 50
162.139349740871296
 51
197.8606502591302956
  0
LINE
  5
54B0
  8
0
 10
146.5535331583758989
 20
-29.0640510087887805
 30
0.0
 11
146.5535331583758989
 21
-28.6782242370887808
 31
0.0
  0
LINE
  5
54B1
  8
0
 10
146.5535331583758989
 20
-28.6782242370887808
 30
0.0
 11
145.8428662081759057
 21
-28.6782242370887808
 31
0.0
  0
LINE
  5
54B2
  8
0
 10
145.8428662081759057
 20
-28.6782242370887808
 30
0.0
 11
145.8428662081759057
 21
-28.6585391976887784
 31
0.0
  0
LINE
  5
54B3
  8
0
 10
145.8428662081759057
 20
-28.6585391976887784
 30
0.0
 11
145.3862670578114091
 21
-28.6585391976887784
 31
0.0
  0
ARC
  5
54B4
  8
0
 10
142.2898233444192897
 20
-28.3100102322960616
 30
0.0
 40
2.7313294667720429
 50
0.705156159869218
 51
14.9455016546088206
  0
ARC
  5
54B5
  8
0
 10
145.4144773480850859
 20
-28.2648314429298715
 30
0.0
 40
0.3937012699433918
 50
181.6832155378976097
 51
219.9589571165338953
  0
ARC
  5
54B6
  8
0
 10
145.4282017575472992
 20
-28.2410199043701908
 30
0.0
 40
0.4196199224717566
 50
221.2476556587911887
 51
264.2645748606473717
  0
ARC
  5
54B7
  8
0
 10
145.5308165837757883
 20
-28.6506651819887992
 30
0.0
 40
0.0275590550999143
 50
179.9999999999743068
 51
196.6162791830263927
  0
LINE
  5
54B8
  8
0
 10
145.5032575286759027
 20
-28.6506651819887814
 30
0.0
 11
145.5032575286761016
 21
-28.2549958906887788
 31
0.0
  0
ARC
  5
54B9
  8
0
 10
145.5131000483760886
 20
-28.2549958906887895
 30
0.0
 40
0.0098425197000047
 50
90.000000001055227
 51
179.9999999999770068
  0
LINE
  5
54BA
  8
0
 10
145.5131000483758896
 20
-28.2451533709887812
 30
0.0
 11
146.4382968987758886
 21
-28.2451533709717495
 31
0.0
  0
ARC
  5
54BB
  8
0
 10
146.4382968987760876
 20
-28.2549958906715695
 30
0.0
 40
0.00984251969982
 50
359.9999998998056867
 51
90.000000001055227
  0
LINE
  5
54BC
  8
0
 10
146.448139418475904
 20
-28.2549958906887788
 30
0.0
 11
146.4481394177840059
 21
-28.6506651819887814
 31
0.0
  0
ARC
  5
54BD
  8
0
 10
146.4205803626358033
 20
-28.6506651819405889
 30
0.0
 40
0.0275590551481919
 50
270.0000013307791278
 51
359.9999998998043225
  0
LINE
  5
54BE
  8
0
 10
146.4087693396758993
 20
-28.2451533709887812
 30
0.0
 11
146.4087693396758993
 21
-24.4459407724887789
 31
0.0
  0
ARC
  5
54BF
  8
0
 10
141.6843598908758963
 20
-24.4459407724887789
 30
0.0
 40
4.7244094487999986
 50
0.0
 51
156.9999999999996874
  0
LINE
  5
54C0
  8
0
 10
137.3355180635759041
 20
-22.5999669371887784
 30
0.0
 11
137.3109050790758943
 21
-22.6579514948887812
 31
0.0
  0
ARC
  5
54C1
  8
0
 10
141.6843598908758963
 20
-24.4459407724887789
 30
0.0
 40
3.8582677164999981
 50
0.0
 51
156.9999999999996874
  0
LINE
  5
54C2
  8
0
 10
145.5426276073758913
 20
-24.4459407724887789
 30
0.0
 11
145.5426276073758913
 21
-28.2451533709882412
 31
0.0
  0
ARC
  5
54C3
  8
0
 10
143.8606742965723981
 20
-61.8827454460154271
 30
0.0
 40
34.9971530022505704
 50
88.0350650090877593
 51
89.9999330188903741
  0
ARC
  5
54C4
  8
0
 10
143.8607223766584013
 20
-20.7549408837413196
 30
0.0
 40
6.13065156005164
 50
265.0217888405832127
 51
269.9999330188903741
  0
ARC
  5
54C5
  8
0
 10
142.0914323601884064
 20
-38.987049643798791
 30
0.0
 40
12.1875515393886005
 50
84.1732430847002036
 51
89.0889359003051453
  0
ARC
  5
54C6
  8
0
 10
141.0134156831935002
 20
-68.2000254900649452
 30
0.0
 40
41.4185173505306494
 50
88.2403900695678942
 51
91.1260984929248394
  0
LINE
  5
54C7
  8
0
 10
142.9024759734759016
 20
-31.0470978487887805
 30
0.0
 11
144.7733304228518989
 21
-31.0470978487887805
 31
0.0
  0
ARC
  5
54C8
  8
0
 10
146.2920446102127983
 20
-4.4378826696498201
 30
0.0
 40
25.6293498282615992
 50
269.8233740173454862
 51
270.5845817487385148
  0
ARC
  5
54C9
  8
0
 10
146.2032900986897062
 20
-33.2386158007759533
 30
0.0
 40
3.1715200589640662
 50
89.823914759073034
 51
94.0667210539457272
  0
ARC
  5
54CA
  8
0
 10
145.9873251602028006
 20
-32.1651378545727908
 30
0.0
 40
2.0900758531086949
 50
90.2454374092133378
 51
115.7626816250241006
  0
LINE
  5
54CB
  8
0
 10
144.2110917418773113
 20
-31.0470978487887805
 30
0.0
 11
144.211091764275892
 21
-31.044013329788779
 31
0.0
  0
ARC
  5
54CC
  8
0
 10
147.2347697595384943
 20
-33.6158407098893335
 30
0.0
 40
3.9694992999205598
 50
122.8957743814043937
 51
139.6167551802367939
  0
LINE
  5
54CD
  8
0
 10
137.2674166607758934
 20
-22.6394917564887805
 30
0.0
 11
138.1516811656759103
 21
-23.0148397696887805
 31
0.0
  0
LINE
  5
54CE
  8
0
 10
138.1328057319188076
 20
-22.9383954736069988
 30
0.0
 11
138.1081927474293991
 21
-22.9963800313462308
 31
0.0
  0
LINE
  5
54CF
  8
0
 10
138.1516811656759103
 20
-23.0148397696887805
 30
0.0
 11
138.1579383356759934
 21
-23.0303268088887805
 31
0.0
  0
LINE
  5
54D0
  8
0
 10
138.1579383356759934
 20
-23.0303268088887805
 30
0.0
 11
137.821048110788098
 21
-23.8239904423363917
 31
0.0
  0
LINE
  5
54D1
  8
0
 10
137.821048110788098
 20
-23.8239904423363917
 30
0.0
 11
137.8055610715759087
 21
-23.8302476122887796
 31
0.0
  0
LINE
  5
54D2
  8
0
 10
137.8055610715759087
 20
-23.8302476122887796
 30
0.0
 11
136.9212965666758919
 21
-23.4548995990887796
 31
0.0
  0
LINE
  5
54D3
  8
0
 10
136.9212965666758919
 20
-23.4548995990887796
 30
0.0
 11
136.9150393966758941
 21
-23.4394125599887815
 31
0.0
  0
LINE
  5
54D4
  8
0
 10
136.9150393966758941
 20
-23.4394125599887815
 30
0.0
 11
137.251929621675913
 21
-22.6457489264887784
 31
0.0
  0
LINE
  5
54D5
  8
0
 10
137.251929621675913
 20
-22.6457489264887784
 30
0.0
 11
137.2674166607758934
 21
-22.6394917564887805
 31
0.0
  0
ARC
  5
54D6
  8
0
 10
137.0421543225758967
 20
-23.4976466540887792
 30
0.0
 40
0.0157480315000011
 50
186.9999999999984936
 51
246.9999999999942872
  0
LINE
  5
54D7
  8
0
 10
137.0360010764565004
 20
-23.5121427935168512
 30
0.0
 11
137.6847033156774955
 21
-23.7875005572850604
 31
0.0
  0
ARC
  5
54D8
  8
0
 10
137.6908565618068963
 20
-23.7730044178335689
 30
0.0
 40
0.0157480315254363
 50
246.9999999999924967
 51
306.9999999354321858
  0
ENDSEC
  0
EOF
