  0
SECTION
  2
HEADER
  9
$ACADVER
  1
AC1009
  9
$INSBASE
 10
0.0
 20
0.0
 30
0.0
  9
$EXTMIN
 10
-1.3190829051450981
 20
-0.0051
 30
0.0
  9
$EXTMAX
 10
8.6522961586348188
 20
15.892576474467351
 30
0.0
  9
$LIMMIN
 10
0.0
 20
0.0
  9
$LIMMAX
 10
0.0
 20
0.0
  9
$ORTHOMODE
 70
     1
  9
$REGENMODE
 70
     1
  9
$FILLMODE
 70
     1
  9
$QTEXTMODE
 70
     0
  9
$MIRRTEXT
 70
     1
  9
$DRAGMODE
 70
     2
  9
$LTSCALE
 40
1.0
  9
$OSMODE
 70
    37
  9
$ATTMODE
 70
     1
  9
$TEXTSIZE
 40
0.0
  9
$TRACEWID
 40
0.05
  9
$TEXTSTYLE
  7
STANDARD
  9
$CLAYER
  8
0
  9
$CELTYPE
  6
BYLAYER
  9
$CECOLOR
 62
   256
  9
$DIMSCALE
 40
1.0
  9
$DIMASZ
 40
0.2362204724409449
  9
$DIMEXO
 40
0.0393700787401575
  9
$DIMDLI
 40
0.38
  9
$DIMRND
 40
0.0
  9
$DIMDLE
 40
0.0393700787401575
  9
$DIMEXE
 40
0.18
  9
$DIMTP
 40
0.0
  9
$DIMTM
 40
0.0
  9
$DIMTXT
 40
0.25
  9
$DIMCEN
 40
0.09
  9
$DIMTSZ
 40
0.0
  9
$DIMTOL
 70
     0
  9
$DIMLIM
 70
     0
  9
$DIMTIH
 70
     1
  9
$DIMTOH
 70
     1
  9
$DIMSE1
 70
     0
  9
$DIMSE2
 70
     0
  9
$DIMTAD
 70
     1
  9
$DIMZIN
 70
     0
  9
$DIMBLK
  1

  9
$DIMASO
 70
     1
  9
$DIMSHO
 70
     1
  9
$DIMPOST
  1

  9
$DIMAPOST
  1

  9
$DIMALT
 70
     0
  9
$DIMALTD
 70
     2
  9
$DIMALTF
 40
25.399999999999999
  9
$DIMLFAC
 40
1.0
  9
$DIMTOFL
 70
     0
  9
$DIMTVP
 40
0.0
  9
$DIMTIX
 70
     0
  9
$DIMSOXD
 70
     0
  9
$DIMSAH
 70
     0
  9
$DIMBLK1
  1

  9
$DIMBLK2
  1

  9
$DIMSTYLE
  2
STANDARD
  9
$DIMCLRD
 70
     0
  9
$DIMCLRE
 70
     0
  9
$DIMCLRT
 70
     0
  9
$DIMTFAC
 40
1.0
  9
$DIMGAP
 40
0.0393700787401575
  9
$LUNITS
 70
     2
  9
$LUPREC
 70
     3
  9
$SKETCHINC
 40
0.1
  9
$FILLETRAD
 40
0.0
  9
$AUNITS
 70
     0
  9
$AUPREC
 70
     2
  9
$MENU
  1
acad
  9
$ELEVATION
 40
0.0
  9
$PELEVATION
 40
0.0
  9
$THICKNESS
 40
0.0
  9
$LIMCHECK
 70
     0
  9
$BLIPMODE
 70
     0
  9
$CHAMFERA
 40
0.0
  9
$CHAMFERB
 40
0.0
  9
$SKPOLY
 70
     0
  9
$TDCREATE
 40
2444971.75
  9
$TDUPDATE
 40
2453417.6612319099
  9
$TDINDWG
 40
0.0100803125
  9
$TDUSRTIMER
 40
0.0100803125
  9
$USRTIMER
 70
     1
  9
$ANGBASE
 50
0.0
  9
$ANGDIR
 70
     0
  9
$PDMODE
 70
     0
  9
$PDSIZE
 40
-1.0
  9
$PLINEWID
 40
0.0
  9
$COORDS
 70
     1
  9
$SPLFRAME
 70
     0
  9
$SPLINETYPE
 70
     6
  9
$SPLINESEGS
 70
     8
  9
$ATTDIA
 70
     0
  9
$ATTREQ
 70
     1
  9
$HANDLING
 70
     1
  9
$HANDSEED
  5
21C
  9
$SURFTAB1
 70
     6
  9
$SURFTAB2
 70
     6
  9
$SURFTYPE
 70
     6
  9
$SURFU
 70
     6
  9
$SURFV
 70
     6
  9
$UCSNAME
  2

  9
$UCSORG
 10
0.0
 20
0.0
 30
0.0
  9
$UCSXDIR
 10
1.0
 20
0.0
 30
0.0
  9
$UCSYDIR
 10
0.0
 20
1.0
 30
0.0
  9
$PUCSNAME
  2

  9
$PUCSORG
 10
0.0
 20
0.0
 30
0.0
  9
$PUCSXDIR
 10
1.0
 20
0.0
 30
0.0
  9
$PUCSYDIR
 10
0.0
 20
1.0
 30
0.0
  9
$USERI1
 70
     0
  9
$USERI2
 70
     0
  9
$USERI3
 70
     0
  9
$USERI4
 70
     0
  9
$USERI5
 70
     0
  9
$USERR1
 40
0.0
  9
$USERR2
 40
0.0
  9
$USERR3
 40
0.0
  9
$USERR4
 40
0.0
  9
$USERR5
 40
0.0
  9
$WORLDVIEW
 70
     1
  9
$SHADEDGE
 70
     3
  9
$SHADEDIF
 70
    70
  9
$TILEMODE
 70
     1
  9
$MAXACTVP
 70
    16
  9
$PLIMCHECK
 70
     0
  9
$PEXTMIN
 10
1.0000000000000000E+020
 20
1.0000000000000000E+020
 30
1.0000000000000000E+020
  9
$PEXTMAX
 10
-1.0000000000000000E+020
 20
-1.0000000000000000E+020
 30
-1.0000000000000000E+020
  9
$PLIMMIN
 10
0.0
 20
0.0
  9
$PLIMMAX
 10
12.0
 20
9.0
  9
$UNITMODE
 70
     0
  9
$VISRETAIN
 70
     0
  9
$PLINEGEN
 70
     1
  9
$PSLTSCALE
 70
     1
  0
ENDSEC
  0
SECTION
  2
TABLES
  0
TABLE
  2
VPORT
 70
     2
  0
VPORT
  2
*ACTIVE
 70
     0
 10
0.0
 20
0.0
 11
1.0
 21
1.0
 12
7.4726235257189648
 22
9.5618073511068715
 13
0.0
 23
0.0
 14
1.0
 24
1.0
 15
0.0
 25
0.0
 16
0.0
 26
0.0
 36
1.0
 17
0.0
 27
0.0
 37
0.0
 40
38.878606808174297
 41
1.9608247422680409
 42
50.0
 43
0.0
 44
0.0
 50
0.0
 51
0.0
 71
     0
 72
  2000
 73
     1
 74
     3
 75
     0
 76
     0
 77
     0
 78
     0
  0
ENDTAB
  0
TABLE
  2
LTYPE
 70
     2
  0
LTYPE
  2
CONTINUOUS
 70
     0
  3
Solid line
 72
    65
 73
     0
 40
0.0
  0
LTYPE
  2
CENTERX2
 70
     0
  3
Center (2x) ________  __  ________  __  _____
 72
    65
 73
     4
 40
0.8
 49
0.5
 49
-0.1
 49
0.1
 49
-0.1
  0
ENDTAB
  0
TABLE
  2
LAYER
 70
     1
  0
LAYER
  2
0
 70
     0
 62
     7
  6
CONTINUOUS
  0
ENDTAB
  0
TABLE
  2
STYLE
 70
     1
  0
STYLE
  2
STANDARD
 70
     0
 40
0.0
 41
1.0
 50
0.0
 71
     0
 42
0.0
  3
txt
  4

  0
ENDTAB
  0
TABLE
  2
VIEW
 70
     0
  0
ENDTAB
  0
TABLE
  2
UCS
 70
     0
  0
ENDTAB
  0
TABLE
  2
APPID
 70
     2
  0
APPID
  2
ACAD
 70
     0
  0
APPID
  2
DCO15
 70
     0
  0
ENDTAB
  0
TABLE
  2
DIMSTYLE
 70
     1
  0
DIMSTYLE
  2
STANDARD
 70
     0
  3

  4

  5

  6

  7

 40
1.0
 41
0.18
 42
0.0625
 43
0.38
 44
0.18
 45
0.0
 46
0.0
 47
0.0
 48
0.0
140
0.18
141
0.09
142
0.0
143
25.399999999999999
144
1.0
145
0.0
146
1.0
147
0.09
 71
     0
 72
     0
 73
     1
 74
     1
 75
     0
 76
     0
 77
     0
 78
     0
170
     0
171
     2
172
     0
173
     0
174
     0
175
     0
176
     0
177
     0
178
     0
  0
ENDTAB
  0
ENDSEC
  0
SECTION
  2
BLOCKS
  0
BLOCK
  8
0
  2
$MODEL_SPACE
 70
     0
 10
0.0
 20
0.0
 30
0.0
  3
$MODEL_SPACE
  1

  0
ENDBLK
  5
67
  8
0
  0
BLOCK
 67
     1
  8
0
  2
$PAPER_SPACE
 70
     0
 10
0.0
 20
0.0
 30
0.0
  3
$PAPER_SPACE
  1

  0
ENDBLK
  5
6C
 67
     1
  8
0
  0
BLOCK
  8
0
 62
     0
  2
SW_CENTERMARK4
 70
     0
 10
0.0
 20
0.0
 30
0.0
  3
SW_CENTERMARK4
  1

  0
LINE
  5
5D
  8
0
  6
CONTINUOUS
 62
     7
 10
12.279789597303241
 20
-3.450402284637089
 30
0.0
 11
12.279789597303241
 21
-3.3519770877866959
 31
0.0
  0
LINE
  5
5E
  8
0
  6
CONTINUOUS
 62
     7
 10
12.279789597303241
 20
-3.450402284637089
 30
0.0
 11
12.181364400452839
 21
-3.450402284637089
 31
0.0
  0
LINE
  5
5F
  8
0
  6
CONTINUOUS
 62
     7
 10
12.279789597303241
 20
-3.450402284637089
 30
0.0
 11
12.279789597303241
 21
-3.5488274814874829
 31
0.0
  0
LINE
  5
60
  8
0
  6
CONTINUOUS
 62
     7
 10
12.279789597303241
 20
-3.450402284637089
 30
0.0
 11
12.37821479415363
 21
-3.450402284637089
 31
0.0
  0
LINE
  5
61
  8
0
  6
CENTERX2
 62
     7
 10
12.279789597303241
 20
-3.2535518909363019
 30
0.0
 11
12.279789597303241
 21
-2.3669886677961678
 31
0.0
  0
LINE
  5
63
  8
0
  6
CENTERX2
 62
     7
 10
12.08293920360245
 20
-3.450402284637089
 30
0.0
 11
11.196375980462321
 21
-3.450402284637089
 31
0.0
  0
LINE
  5
64
  8
0
  6
CENTERX2
 62
     7
 10
12.279789597303241
 20
-3.6472526783378769
 30
0.0
 11
12.279789597303241
 21
-4.5338159014780111
 31
0.0
  0
LINE
  5
65
  8
0
  6
CENTERX2
 62
     7
 10
12.47663999100403
 20
-3.450402284637089
 30
0.0
 11
13.363203214144161
 21
-3.450402284637089
 31
0.0
  0
ENDBLK
  5
66
  8
0
  0
ENDSEC
  0
SECTION
  2
ENTITIES
  0
ATTDEF
  5
B
  8
0
 62
     7
 10
0.0
 20
0.0
 30
0.0
 40
0.001
  1
K-691
  3

  2
MODELNUMBER
 70
     8
  0
ATTDEF
  5
D
  8
0
 62
     7
 10
0.0
 20
-0.0017
 30
0.0
 40
0.001
  1
Vinnata
  3

  2
TRADENAME
 70
     8
  0
ATTDEF
  5
E
  8
0
 62
     7
 10
0.0
 20
-0.0034
 30
0.0
 40
0.001
  1
Faucets
  3

  2
PRODUCT
 70
     8
  0
ATTDEF
  5
F
  8
0
 62
     7
 10
0.0
 20
-0.0051
 30
0.0
 40
0.001
  1
Brass
  3

  2
MATERIAL
 70
     8
  0
ARC
  5
10
  8
0
 10
0.0000000000000018
 20
3.2200000000000002
 30
0.0
 40
0.4240000000000011
 50
180.0
 51
241.85541869149341
  0
ARC
  5
11
  8
0
 10
0.0000000000000018
 20
3.2200000000000002
 30
0.0
 40
0.4240000000000002
 50
298.14458130850483
 51
58.743655292697959
  0
ARC
  5
12
  8
0
 10
0.0000000000000018
 20
3.2200000000000002
 30
0.0
 40
0.4239999999999995
 50
121.25634470730201
 51
180.0
  0
ARC
  5
13
  8
0
 10
-3.1404057177325182
 20
4.562516231422781
 30
0.0
 40
3.500405717732519
 50
343.74074402145078
 51
11.52946709253276
  0
ARC
  5
14
  8
0
 10
3.1404057177325209
 20
4.562516231422781
 30
0.0
 40
3.500405717732519
 50
168.4705329074672
 51
196.2592559785476
  0
ARC
  5
15
  8
0
 10
-0.2866326093812255
 20
2.4500000000000002
 30
0.0
 40
0.0499999999999998
 50
160.58097534745261
 51
269.9999999999992
  0
ARC
  5
16
  8
0
 10
0.286632609381229
 20
2.4500000000000002
 30
0.0
 40
0.0499999999999998
 50
269.9999999999992
 51
19.419024652547289
  0
LINE
  5
17
  8
0
 10
-0.3337882250928459
 20
2.466623715194201
 30
0.0
 11
-0.1999999999999993
 21
2.846133713742466
 31
0.0
  0
LINE
  5
18
  8
0
 10
0.2000000000000011
 20
2.846133713742466
 30
0.0
 11
0.3337882250928494
 21
2.466623715194201
 31
0.0
  0
POLYLINE
  5
19
  8
0
 66
     1
 10
0.0
 20
0.0
 30
0.0
 70
   128
  0
VERTEX
  5
1DD
  8
0
 10
-0.2049999999999983
 20
5.5486891991213838
 30
0.0
  0
VERTEX
  5
1DE
  8
0
 10
-0.2564465689550399
 20
5.6011237174759252
 30
0.0
  0
VERTEX
  5
1DF
  8
0
 10
-0.2922202331812951
 20
5.6629662944519543
 30
0.0
  0
VERTEX
  5
1E0
  8
0
 10
-0.2998752370183215
 20
5.7364085812322587
 30
0.0
  0
VERTEX
  5
1E1
  8
0
 10
-0.2762321667518197
 20
5.8034410274123038
 30
0.0
  0
VERTEX
  5
1E2
  8
0
 10
-0.2169463859936318
 20
5.8570748928013199
 30
0.0
  0
VERTEX
  5
1E3
  8
0
 10
-0.1361764574127271
 20
5.8900333358491048
 30
0.0
  0
VERTEX
  5
1E4
  8
0
 10
0.0000000000000018
 20
5.9076135385048332
 30
0.0
  0
SEQEND
  5
1E5
  8
0
  0
POLYLINE
  5
1A
  8
0
 66
     1
 10
0.0
 20
0.0
 30
0.0
 70
   128
  0
VERTEX
  5
1E6
  8
0
 10
0.0000000000000018
 20
5.9076135385048332
 30
0.0
  0
VERTEX
  5
1E7
  8
0
 10
0.0858409827830897
 20
5.9007936740978444
 30
0.0
  0
VERTEX
  5
1E8
  8
0
 10
0.1725120673695279
 20
5.8782383423793991
 30
0.0
  0
VERTEX
  5
1E9
  8
0
 10
0.2319429512580715
 20
5.847429571021566
 30
0.0
  0
VERTEX
  5
1EA
  8
0
 10
0.2762321667518233
 20
5.8034410274123038
 30
0.0
  0
VERTEX
  5
1EB
  8
0
 10
0.2998752370183233
 20
5.7364085812322587
 30
0.0
  0
VERTEX
  5
1EC
  8
0
 10
0.2922202331812968
 20
5.6629662944519543
 30
0.0
  0
VERTEX
  5
1ED
  8
0
 10
0.2564465689550417
 20
5.6011237174759252
 30
0.0
  0
VERTEX
  5
1EE
  8
0
 10
0.2050000000000018
 20
5.5486891991213838
 30
0.0
  0
SEQEND
  5
1EF
  8
0
  0
ARC
  5
1B
  8
0
 10
-0.1777339345947375
 20
5.2393767088716769
 30
0.0
 40
0.1139339758928198
 50
103.8460918386193
 51
168.4705329074672
  0
ARC
  5
1C
  8
0
 10
0.1777339345947411
 20
5.2393767088716769
 30
0.0
 40
0.1139339758928198
 50
11.5294670925328
 51
76.153908161381494
  0
LINE
  5
1D
  8
0
 10
-0.2049999999999983
 20
5.3499999999999996
 30
0.0
 11
-0.2049999999999983
 21
5.5486891991213829
 31
0.0
  0
LINE
  5
1E
  8
0
 10
0.2049992584119931
 20
5.5486891991213829
 30
0.0
 11
0.2050000000000001
 21
5.3499999999999996
 31
0.0
  0
ARC
  5
1F
  8
0
 10
-4.9318251703476159
 20
3.3358904957900659
 30
0.0
 40
6.1901974040304459
 50
339.44707215893737
 51
20.641688905870719
  0
ARC
  5
20
  8
0
 10
4.9318251703475946
 20
3.3358904957900659
 30
0.0
 40
6.190197404030445
 50
159.35831109412911
 51
200.55292784106101
  0
ARC
  5
21
  8
0
 10
8.4229999999999894
 20
9.1600000000000001
 30
0.0
 40
0.1600000000000006
 50
269.9999999999992
 51
49.018617542822803
  0
ARC
  5
22
  8
0
 10
6.5769999999999893
 20
9.1600000000000001
 30
0.0
 40
0.1600000000000006
 50
130.9813824571772
 51
269.9999999999992
  0
ARC
  5
23
  8
0
 10
7.819999999999987
 20
10.357661189674561
 30
0.0
 40
1.3999999999999999
 50
141.457194262608
 51
206.24192523429329
  0
ARC
  5
24
  8
0
 10
7.1799999999999899
 20
10.357661189674561
 30
0.0
 40
1.3999999999999999
 50
333.75807476570498
 51
38.542805737391951
  0
LINE
  5
25
  8
0
 10
-1.036847509274005
 20
0.5110000000000002
 30
0.0
 11
-1.036847509274005
 21
0.9259940381558272
 31
0.0
  0
LINE
  5
26
  8
0
 10
1.0368475092739839
 20
0.9259940381558272
 30
0.0
 11
1.0368475092739839
 21
0.5110000000000002
 31
0.0
  0
ARC
  5
27
  8
0
 10
-0.7882131069335792
 20
0.9259940381558272
 30
0.0
 40
0.2486344023404278
 50
107.83293025603299
 51
180.0
  0
ARC
  5
28
  8
0
 10
0.788213106933558
 20
0.9259940381558272
 30
0.0
 40
0.2486344023404278
 50
359.9999999999996
 51
72.167069743966962
  0
ARC
  5
29
  8
0
 10
8.7787577834215025
 20
9.5695211917944718
 30
0.0
 40
0.3824677013369129
 50
153.758074765706
 51
229.01861754282129
  0
ARC
  5
2A
  8
0
 10
6.2212422165784762
 20
9.5695211917944718
 30
0.0
 40
0.3824677013369129
 50
310.98138245717712
 51
26.241925234293969
  0
POLYLINE
  5
2B
  8
0
 66
     1
 10
0.0
 20
0.0
 30
0.0
 70
   128
  0
VERTEX
  5
1F0
  8
0
 10
7.7553573956500097
 20
12.50955564872312
 30
0.0
  0
VERTEX
  5
1F1
  8
0
 10
7.8051740687413949
 20
12.388135043452751
 30
0.0
  0
VERTEX
  5
1F2
  8
0
 10
7.8393922467001049
 20
12.29150557616307
 30
0.0
  0
VERTEX
  5
1F3
  8
0
 10
7.8637985612067691
 20
12.215761697175351
 30
0.0
  0
VERTEX
  5
1F4
  8
0
 10
7.88861410968578
 20
12.13522501265877
 30
0.0
  0
VERTEX
  5
1F5
  8
0
 10
7.9033576870158964
 20
12.087808824228111
 30
0.0
  0
VERTEX
  5
1F6
  8
0
 10
7.9182783189022716
 20
12.0420097335763
 30
0.0
  0
VERTEX
  5
1F7
  8
0
 10
7.9381375486680996
 20
11.985958370712281
 30
0.0
  0
VERTEX
  5
1F8
  8
0
 10
7.964084500277683
 20
11.921524905156931
 30
0.0
  0
VERTEX
  5
1F9
  8
0
 10
7.9915038013024757
 20
11.862675443656981
 30
0.0
  0
VERTEX
  5
1FA
  8
0
 10
8.0418157432096837
 20
11.771391493589221
 30
0.0
  0
VERTEX
  5
1FB
  8
0
 10
8.094214483408491
 20
11.688694823216769
 30
0.0
  0
VERTEX
  5
1FC
  8
0
 10
8.1330660730946622
 20
11.62969405657679
 30
0.0
  0
VERTEX
  5
1FD
  8
0
 10
8.1871729303368017
 20
11.54159998088782
 30
0.0
  0
VERTEX
  5
1FE
  8
0
 10
8.2167927095171596
 20
11.4843998939233
 30
0.0
  0
VERTEX
  5
1FF
  8
0
 10
8.2445831161620813
 20
11.415839780686021
 30
0.0
  0
VERTEX
  5
200
  8
0
 10
8.2661101362272387
 20
11.332630016710869
 30
0.0
  0
VERTEX
  5
201
  8
0
 10
8.2749946168284847
 20
11.23
 30
0.0
  0
SEQEND
  5
202
  8
0
  0
POLYLINE
  5
2C
  8
0
 66
     1
 10
0.0
 20
0.0
 30
0.0
 70
   128
  0
VERTEX
  5
203
  8
0
 10
6.7250053831714904
 20
11.23
 30
0.0
  0
VERTEX
  5
204
  8
0
 10
6.7293705395556831
 20
11.29222236353163
 30
0.0
  0
VERTEX
  5
205
  8
0
 10
6.740206552772916
 20
11.345675675701839
 30
0.0
  0
VERTEX
  5
206
  8
0
 10
6.770295943150864
 20
11.43095785748951
 30
0.0
  0
VERTEX
  5
207
  8
0
 10
6.8003152500976478
 20
11.49334201351823
 30
0.0
  0
VERTEX
  5
208
  8
0
 10
6.823685918173358
 20
11.5377765610737
 30
0.0
  0
VERTEX
  5
209
  8
0
 10
6.8388364279845826
 20
11.56731259906755
 30
0.0
  0
VERTEX
  5
20A
  8
0
 10
6.8490049780945501
 20
11.58898765205655
 30
0.0
  0
VERTEX
  5
20B
  8
0
 10
6.8632366124256503
 20
11.63495175242271
 30
0.0
  0
VERTEX
  5
20C
  8
0
 10
6.8611884225005157
 20
11.67200942376679
 30
0.0
  0
VERTEX
  5
20D
  8
0
 10
6.8582007469726651
 20
11.68210626776081
 30
0.0
  0
VERTEX
  5
20E
  8
0
 10
6.8535537643755946
 20
11.694147413157379
 30
0.0
  0
VERTEX
  5
20F
  8
0
 10
6.8376674281774976
 20
11.72500759406576
 30
0.0
  0
VERTEX
  5
210
  8
0
 10
6.8106321761788786
 20
11.76724714151956
 30
0.0
  0
VERTEX
  5
211
  8
0
 10
6.7707502479565216
 20
11.82538352969449
 30
0.0
  0
VERTEX
  5
212
  8
0
 10
6.7372234906792388
 20
11.87637177934686
 30
0.0
  0
VERTEX
  5
213
  8
0
 10
6.6993110222463113
 20
11.94048008879793
 30
0.0
  0
VERTEX
  5
214
  8
0
 10
6.6591106581381299
 20
12.021475155006939
 30
0.0
  0
SEQEND
  5
215
  8
0
  0
ARC
  5
2D
  8
0
 10
-4.9307924130173841
 20
7.0511969561526211
 30
0.0
 40
4.3490021713695697
 50
339.35831109412948
 51
347.59052117766669
  0
ARC
  5
2E
  8
0
 10
4.9307924130173619
 20
7.0511969561526211
 30
0.0
 40
4.3490021713695688
 50
192.40947882233161
 51
200.64168890586879
  0
ARC
  5
2F
  8
0
 10
-0.0892496293397702
 20
6.5605182235952277
 30
0.0
 40
0.7416642508351675
 50
133.5236893690832
 51
216.7646943588727
  0
ARC
  5
30
  8
0
 10
0.0892496293397507
 20
6.5605182235952277
 30
0.0
 40
0.7416642508351663
 50
323.23530564112548
 51
46.476310630916927
  0
LINE
  5
31
  8
0
 10
-0.6000000000000103
 20
7.0982913354531183
 30
0.0
 11
-0.6000000000000103
 21
10.733570517957251
 31
0.0
  0
LINE
  5
32
  8
0
 10
0.599999999999989
 20
10.733570517957251
 30
0.0
 11
0.599999999999989
 21
7.0982913354531183
 31
0.0
  0
ARC
  5
33
  8
0
 10
3.766429482042736
 20
10.733570517957251
 30
0.0
 40
3.1664294820427492
 50
23.999999999999879
 51
180.0
  0
ARC
  5
34
  8
0
 10
3.766429482042736
 20
10.733570517957251
 30
0.0
 40
4.3664294820427481
 50
23.999999999999829
 51
180.0
  0
LINE
  5
35
  8
0
 10
1.1499999999999979
 20
0.25
 30
0.0
 11
-1.1499999999999999
 21
0.25
 31
0.0
  0
LINE
  5
36
  8
0
 10
-1.1499999999999999
 20
0.25
 30
0.0
 11
-1.25
 21
0.1499999999999995
 31
0.0
  0
LINE
  5
37
  8
0
 10
-1.25
 20
0.1499999999999995
 30
0.0
 11
1.25
 21
0.1499999999999995
 31
0.0
  0
LINE
  5
38
  8
0
 10
1.1499999999999979
 20
0.25
 30
0.0
 11
1.25
 21
0.1499999999999995
 31
0.0
  0
LINE
  5
39
  8
0
 10
1.25
 20
0.1499999999999995
 30
0.0
 11
1.25
 21
0.0
 31
0.0
  0
LINE
  5
3A
  8
0
 10
-1.25
 20
0.1499999999999995
 30
0.0
 11
-1.25
 21
0.0
 31
0.0
  0
LINE
  5
3B
  8
0
 10
1.25
 20
0.0
 30
0.0
 11
-1.25
 21
0.0
 31
0.0
  0
LINE
  5
3C
  8
0
 10
0.9499999999999992
 20
0.4999999999999992
 30
0.0
 11
-0.9499999999999992
 21
0.4999999999999992
 31
0.0
  0
LINE
  5
3D
  8
0
 10
-0.9499999999999992
 20
0.4999999999999992
 30
0.0
 11
-1.049999999999998
 21
0.4000000000000004
 31
0.0
  0
LINE
  5
3E
  8
0
 10
-1.049999999999998
 20
0.4000000000000004
 30
0.0
 11
1.049999999999998
 21
0.4000000000000004
 31
0.0
  0
LINE
  5
3F
  8
0
 10
0.9499999999999992
 20
0.4999999999999992
 30
0.0
 11
1.049999999999998
 21
0.4000000000000004
 31
0.0
  0
LINE
  5
40
  8
0
 10
1.049999999999998
 20
0.4000000000000004
 30
0.0
 11
1.049999999999998
 21
0.25
 31
0.0
  0
LINE
  5
41
  8
0
 10
-1.049999999999998
 20
0.4000000000000004
 30
0.0
 11
-1.049999999999998
 21
0.25
 31
0.0
  0
LINE
  5
42
  8
0
 10
-0.2199999999999971
 20
3.5824582734605448
 30
0.0
 11
0.2200000000000006
 21
3.5824582734605448
 31
0.0
  0
LINE
  5
43
  8
0
 10
-0.1999999999999993
 20
2.846133713742466
 30
0.0
 11
0.2000000000000011
 21
2.846133713742466
 31
0.0
  0
LINE
  5
44
  8
0
 10
-0.2866326093812255
 20
2.3999999999999999
 30
0.0
 11
0.286632609381229
 21
2.3999999999999999
 31
0.0
  0
LINE
  5
45
  8
0
 10
-0.2049999999999983
 20
5.5486891991213829
 30
0.0
 11
0.2049992584119931
 21
5.5486891991213829
 31
0.0
  0
LINE
  5
46
  8
0
 10
-0.2049999999999983
 20
5.3499999999999996
 30
0.0
 11
0.2050000000000001
 21
5.3499999999999996
 31
0.0
  0
ARC
  5
47
  8
0
 10
-0.0000000000000036
 20
3.2200000000000002
 30
0.0
 40
0.9600000000000009
 50
359.9999999999996
 51
69.766505601105308
  0
ARC
  5
48
  8
0
 10
-0.0000000000000036
 20
3.2200000000000002
 30
0.0
 40
0.9600000000000009
 50
110.23349439889409
 51
359.9999999999996
  0
ARC
  5
49
  8
0
 10
-0.0000000000000036
 20
3.2200000000000002
 30
0.0
 40
0.9849884199905289
 50
359.9999999999996
 51
70.107017059090992
  0
ARC
  5
4A
  8
0
 10
-0.0000000000000036
 20
3.2200000000000002
 30
0.0
 40
0.9849884199905289
 50
109.8929829409085
 51
359.9999999999996
  0
LINE
  5
4B
  8
0
 10
-0.8643555235698219
 20
1.1626824375673199
 30
0.0
 11
0.8643555235698006
 21
1.162682437567319
 31
0.0
  0
LINE
  5
4C
  8
0
 10
8.4229999999999894
 20
8.9999999999999982
 30
0.0
 11
6.5770000055305617
 21
8.9999999999999982
 31
0.0
  0
LINE
  5
4D
  8
0
 10
8.2749999999999897
 20
11.23
 30
0.0
 11
6.7249999999999881
 21
11.23
 31
0.0
  0
LINE
  5
4E
  8
0
 10
-1.036847509274005
 20
0.5110000000000002
 30
0.0
 11
1.0368475092739839
 21
0.5110000000000002
 31
0.0
  0
LINE
  5
4F
  8
0
 10
-0.6833971106667534
 20
6.1166098643591216
 30
0.0
 11
0.6833971106667321
 21
6.1166098643591216
 31
0.0
  0
LINE
  5
50
  8
0
 10
-0.6000000000000103
 20
7.0982913354531183
 30
0.0
 11
0.599999999999989
 21
7.0982913354531183
 31
0.0
  0
LINE
  5
51
  8
0
 10
-0.2893689553411054
 20
5.2621489069584602
 30
0.0
 11
0.2893689553411089
 21
5.2621489069584602
 31
0.0
  0
LINE
  5
52
  8
0
 10
-0.3337882250928459
 20
2.466623715194201
 30
0.0
 11
0.3337882250928494
 21
2.466623715194201
 31
0.0
  0
LINE
  5
53
  8
0
 10
-0.8609818948107204
 20
5.5180752282811412
 30
0.0
 11
-0.2049999999999983
 21
5.5180752282811412
 31
0.0
  0
LINE
  5
54
  8
0
 10
0.2050000000000001
 20
5.5180752282811412
 30
0.0
 11
0.8609818948107026
 21
5.5180752282811412
 31
0.0
  0
LINE
  5
55
  8
0
 10
8.5279302017560727
 20
9.2807876349608147
 30
0.0
 11
6.472069798243905
 21
9.2807876349608147
 31
0.0
  0
LINE
  5
56
  8
0
 10
8.4357090908919847
 20
9.7386339858691056
 30
0.0
 11
6.5642909091079931
 21
9.7386339858691056
 31
0.0
  0
LINE
  5
57
  8
0
 10
-1.036847509274005
 20
0.9259940381558272
 30
0.0
 11
1.0368475092739839
 21
0.9259940381558272
 31
0.0
  0
LINE
  5
58
  8
0
 10
6.6591067523085083
 20
12.02147341601955
 30
0.0
 11
7.755357125249895
 21
12.50955552833323
 31
0.0
  0
LINE
  5
59
  8
0
 10
0.599999999999989
 20
10.733570517957251
 30
0.0
 11
-0.6000000000000103
 21
10.733570517957251
 31
0.0
  0
INSERT
  5
5A
  8
0
  2
SW_CENTERMARK4
 10
12.279789597303241
 20
6.6704022846370901
 30
0.0
 41
-1.0
  0
ENDSEC
  0
EOF
