  0
SECTION
  2
HEADER
  9
$ACADVER
  1
AC1009
  9
$INSBASE
 10
7484.3995477628923254
 20
2182.870777772970996
 30
0.0
  9
$EXTMIN
 10
7448.5803754116814162
 20
2161.7757773302460009
 30
0.0
  9
$EXTMAX
 10
7520.2187201141032347
 20
2203.9657777729998998
 30
0.0
  9
$LIMMIN
 10
0.0
 20
0.0
  9
$LIMMAX
 10
11.6929133858000007
 20
8.2677165353999982
  9
$ORTHOMODE
 70
     0
  9
$REGENMODE
 70
     1
  9
$FILLMODE
 70
     1
  9
$QTEXTMODE
 70
     0
  9
$MIRRTEXT
 70
     0
  9
$DRAGMODE
 70
     2
  9
$LTSCALE
 40
0.6431102362
  9
$OSMODE
 70
  4095
  9
$ATTMODE
 70
     1
  9
$TEXTSIZE
 40
0.2
  9
$TRACEWID
 40
0.05
  9
$TEXTSTYLE
  7
STANDARD
  9
$CLAYER
  8
0
  9
$CELTYPE
  6
BYLAYER
  9
$CECOLOR
 62
   256
  9
$DIMSCALE
 40
1.0
  9
$DIMASZ
 40
0.1875
  9
$DIMEXO
 40
0.0625
  9
$DIMDLI
 40
0.4443307087
  9
$DIMRND
 40
0.0
  9
$DIMDLE
 40
0.0
  9
$DIMEXE
 40
0.125
  9
$DIMTP
 40
0.01
  9
$DIMTM
 40
0.01
  9
$DIMTXT
 40
2.0
  9
$DIMCEN
 40
0.1052362205
  9
$DIMTSZ
 40
0.0
  9
$DIMTOL
 70
     1
  9
$DIMLIM
 70
     0
  9
$DIMTIH
 70
     1
  9
$DIMTOH
 70
     1
  9
$DIMSE1
 70
     0
  9
$DIMSE2
 70
     0
  9
$DIMTAD
 70
     0
  9
$DIMZIN
 70
     0
  9
$DIMBLK
  1

  9
$DIMASO
 70
     1
  9
$DIMSHO
 70
     1
  9
$DIMPOST
  1
\X
  9
$DIMAPOST
  1

  9
$DIMALT
 70
     1
  9
$DIMALTD
 70
     2
  9
$DIMALTF
 40
25.3999999999999986
  9
$DIMLFAC
 40
1.0
  9
$DIMTOFL
 70
     0
  9
$DIMTVP
 40
0.0
  9
$DIMTIX
 70
     0
  9
$DIMSOXD
 70
     0
  9
$DIMSAH
 70
     0
  9
$DIMBLK1
  1

  9
$DIMBLK2
  1

  9
$DIMSTYLE
  2
STANDARD
  9
$DIMCLRD
 70
     0
  9
$DIMCLRE
 70
     0
  9
$DIMCLRT
 70
     0
  9
$DIMTFAC
 40
1.0
  9
$DIMGAP
 40
0.09
  9
$LUNITS
 70
     2
  9
$LUPREC
 70
     4
  9
$SKETCHINC
 40
0.1
  9
$FILLETRAD
 40
0.0
  9
$AUNITS
 70
     0
  9
$AUPREC
 70
     0
  9
$MENU
  1
.
  9
$ELEVATION
 40
0.0
  9
$PELEVATION
 40
0.0
  9
$THICKNESS
 40
0.0
  9
$LIMCHECK
 70
     0
  9
$BLIPMODE
 70
     0
  9
$CHAMFERA
 40
0.0
  9
$CHAMFERB
 40
0.0
  9
$SKPOLY
 70
     0
  9
$TDCREATE
 40
2458060.468368056230247
  9
$TDUPDATE
 40
2459363.891585648059845
  9
$TDINDWG
 40
0.3750417824
  9
$TDUSRTIMER
 40
0.3750417824
  9
$USRTIMER
 70
     1
  9
$ANGBASE
 50
0.0
  9
$ANGDIR
 70
     0
  9
$PDMODE
 70
     0
  9
$PDSIZE
 40
0.3125
  9
$PLINEWID
 40
0.0
  9
$COORDS
 70
     1
  9
$SPLFRAME
 70
     0
  9
$SPLINETYPE
 70
     6
  9
$SPLINESEGS
 70
     8
  9
$ATTDIA
 70
     1
  9
$ATTREQ
 70
     1
  9
$HANDLING
 70
     1
  9
$HANDSEED
  5
D0AF
  9
$SURFTAB1
 70
     6
  9
$SURFTAB2
 70
     6
  9
$SURFTYPE
 70
     6
  9
$SURFU
 70
     6
  9
$SURFV
 70
     6
  9
$UCSNAME
  2

  9
$UCSORG
 10
0.0
 20
0.0
 30
0.0
  9
$UCSXDIR
 10
1.0
 20
0.0
 30
0.0
  9
$UCSYDIR
 10
0.0
 20
1.0
 30
0.0
  9
$PUCSNAME
  2

  9
$PUCSORG
 10
0.0
 20
0.0
 30
0.0
  9
$PUCSXDIR
 10
1.0
 20
0.0
 30
0.0
  9
$PUCSYDIR
 10
0.0
 20
1.0
 30
0.0
  9
$USERI1
 70
     0
  9
$USERI2
 70
     0
  9
$USERI3
 70
     0
  9
$USERI4
 70
     0
  9
$USERI5
 70
     0
  9
$USERR1
 40
0.0
  9
$USERR2
 40
0.0
  9
$USERR3
 40
0.0
  9
$USERR4
 40
0.0
  9
$USERR5
 40
0.0
  9
$WORLDVIEW
 70
     1
  9
$SHADEDGE
 70
     3
  9
$SHADEDIF
 70
    70
  9
$TILEMODE
 70
     1
  9
$MAXACTVP
 70
    64
  9
$PLIMCHECK
 70
     0
  9
$PEXTMIN
 10
1.0000000000000000E+20
 20
1.0000000000000000E+20
 30
1.0000000000000000E+20
  9
$PEXTMAX
 10
-1.0000000000000000E+20
 20
-1.0000000000000000E+20
 30
-1.0000000000000000E+20
  9
$PLIMMIN
 10
0.0
 20
0.0
  9
$PLIMMAX
 10
12.0
 20
9.0
  9
$UNITMODE
 70
     0
  9
$VISRETAIN
 70
     1
  9
$PLINEGEN
 70
     0
  9
$PSLTSCALE
 70
     1
  0
ENDSEC
  0
SECTION
  2
TABLES
  0
TABLE
  2
VPORT
 70
     1
  0
VPORT
  2
*ACTIVE
 70
     0
 10
0.0
 20
0.0
 11
1.0
 21
1.0
 12
2669.156932056253936
 22
1935.7877537742720051
 13
0.0
 23
0.0
 14
1.0
 24
1.0
 15
0.0
 25
0.0
 16
0.0
 26
0.0
 36
9.5192988075487186
 17
4815.2983398437490905
 27
247.8086242675780966
 37
0.0
 40
44.0079098984141766
 41
2.103846153846153
 42
50.0
 43
0.0
 44
0.0
 50
0.0
 51
0.0
 71
     0
 72
   100
 73
     1
 74
     1
 75
     0
 76
     0
 77
     0
 78
     0
  0
ENDTAB
  0
TABLE
  2
LTYPE
 70
     2
  0
LTYPE
  2
CONTINUOUS
 70
     0
  3
Solid line
 72
    65
 73
     0
 40
0.0
  0
LTYPE
  2
PHANTOM2
 70
     0
  3
___ _ _ ___ _ _ ___ _ _ ___ _ _
 72
    65
 73
     6
 40
1.25
 49
0.625
 49
-0.125
 49
0.125
 49
-0.125
 49
0.125
 49
-0.125
  0
ENDTAB
  0
TABLE
  2
LAYER
 70
     2
  0
LAYER
  2
0
 70
     0
 62
   255
  6
CONTINUOUS
  0
LAYER
  2
DEFPOINTS
 70
     0
 62
     7
  6
CONTINUOUS
  0
ENDTAB
  0
TABLE
  2
STYLE
 70
     1
  0
STYLE
  2
STANDARD
 70
     0
 40
0.0
 41
0.8
 50
0.0
 71
     0
 42
0.2
  3
txt
  4

  0
ENDTAB
  0
TABLE
  2
VIEW
 70
     0
  0
ENDTAB
  0
TABLE
  2
UCS
 70
     0
  0
ENDTAB
  0
TABLE
  2
APPID
 70
    10
  0
APPID
  2
ACAD
 70
     0
  0
APPID
  2
ACAD_MLEADERVER
 70
     0
  0
APPID
  2
ACAD_EXEMPT_FROM_CAD_STANDARDS
 70
     0
  0
APPID
  2
ACAD_NAV_VCDISPLAY
 70
     0
  0
APPID
  2
ACAECLAYERSTANDARD
 70
     0
  0
APPID
  2
ACCMTRANSPARENCY
 70
     0
  0
APPID
  2
ACAD_DSTYLE_DIMJAG
 70
     0
  0
APPID
  2
ACAD_DSTYLE_DIMTALN
 70
     0
  0
APPID
  2
ACDBATTR
 70
     0
  0
APPID
  2
ACADANNOTATIVE
 70
     0
  0
ENDTAB
  0
TABLE
  2
DIMSTYLE
 70
     2
  0
DIMSTYLE
  2
STANDARD
 70
     0
  3

  4

  5

  6

  7

 40
1.0
 41
0.1875
 42
0.0625
 43
0.38
 44
0.125
 45
0.0
 46
0.0
 47
0.01
 48
0.01
140
0.15625
141
0.09
142
0.0
143
25.3999999999999986
144
1.0
145
0.0
146
1.0
147
0.09
 71
     1
 72
     0
 73
     1
 74
     1
 75
     0
 76
     0
 77
     0
 78
     4
170
     0
171
     2
172
     0
173
     0
174
     0
175
     0
176
     0
177
     0
178
     0
  0
DIMSTYLE
  2
ANNOTATIVE
 70
     0
  3

  4

  5

  6

  7

 40
0.0
 41
0.18
 42
0.0625
 43
0.38
 44
0.18
 45
0.0
 46
0.0
 47
0.0
 48
0.0
140
0.18
141
0.09
142
0.0
143
25.3999999999999986
144
1.0
145
0.0
146
1.0
147
0.09
 71
     0
 72
     0
 73
     1
 74
     1
 75
     0
 76
     0
 77
     0
 78
     0
170
     0
171
     2
172
     0
173
     0
174
     0
175
     0
176
     0
177
     0
178
     0
  0
ENDTAB
  0
ENDSEC
  0
SECTION
  2
BLOCKS
  0
BLOCK
  8
0
  2
$MODEL_SPACE
 70
     0
 10
0.0
 20
0.0
 30
0.0
  3
$MODEL_SPACE
  1

  0
ENDBLK
  5
21
  8
0
  0
BLOCK
 67
     1
  8
0
  2
$PAPER_SPACE
 70
     0
 10
0.0
 20
0.0
 30
0.0
  3
$PAPER_SPACE
  1

  0
ENDBLK
  5
1D
 67
     1
  8
0
  0
ENDSEC
  0
SECTION
  2
ENTITIES
  0
ATTDEF
  5
3930
  8
DEFPOINTS
 10
7484.3882493146638808
 20
2182.8701241771050263
 30
0.0
 40
0.001
  1
K-700T
  3

  2
MODELNUMBER
 70
     0
1001
ACDBATTR
1070
     0
1070
     1
  0
ATTDEF
  5
3931
  8
DEFPOINTS
 10
7484.3882493146638808
 20
2182.8684575104389296
 30
0.0
 40
0.001
  1
VINTAGE
  3

  2
TRADENAME
 70
     0
1001
ACDBATTR
1070
     0
1070
     1
  0
ATTDEF
  5
3932
  8
DEFPOINTS
 10
7484.3882493146638808
 20
2182.8667908437719234
 30
0.0
 40
0.001
  1
BATH
  3

  2
PRODUCT
 70
     0
1001
ACDBATTR
1070
     0
1070
     1
  0
ARC
  5
D030
  8
0
 10
7468.6993203247184283
 20
2182.8716954322349011
 30
0.0
 40
20.1189449130360494
 50
97.1051866823155478
 51
262.8871295450372827
  0
ARC
  5
D031
  8
0
 10
7484.4011765280965847
 20
2056.9420660795649383
 30
0.0
 40
147.02371170245749
 50
90.0006347368813095
 51
97.1070873590704053
  0
ARC
  5
D032
  8
0
 10
7484.388155730804101
 20
2308.3536205886348398
 30
0.0
 40
146.577843258387702
 50
262.8752564644065046
 51
270.004453028785008
  0
ARC
  5
D033
  8
0
 10
7469.3876589618548678
 20
2182.8707777662680201
 30
0.0
 40
16.1453838988935416
 50
92.3856160026152935
 51
267.6143839860670823
  0
ARC
  5
D034
  8
0
 10
7474.0435964378220888
 20
2183.0805057598749954
 30
0.0
 40
11.2549870782526806
 50
96.856769322000531
 51
263.3970900270592779
  0
ARC
  5
D035
  8
0
 10
7486.5483468552583872
 20
2119.9826303288291456
 30
0.0
 40
75.5523909093669346
 50
91.6297793071137221
 51
100.5618070561371979
  0
ARC
  5
D036
  8
0
 10
7484.0823465355260851
 20
2301.5249081327838212
 30
0.0
 40
130.1192035660866111
 50
265.0034042828710881
 51
270.1396743069889794
  0
ARC
  5
D037
  8
0
 10
7483.7878530740954375
 20
1952.7888558377319441
 30
0.0
 40
246.6742141149165093
 50
89.8579196448810649
 51
93.5030583283683114
  0
ARC
  5
D038
  8
0
 10
7483.7878532325476044
 20
2412.9527123376001327
 30
0.0
 40
246.6742267438345948
 50
266.4969418135847832
 51
270.1420803110336237
  0
CIRCLE
  5
D039
  8
0
 10
7484.3995477628923254
 20
2193.0857777729911504
 30
0.0
 40
1.125
  0
CIRCLE
  5
D03A
  8
0
 10
7484.3995477628923254
 20
2193.0857777729911504
 30
0.0
 40
2.201837192099998
  0
ARC
  5
D03B
  8
0
 10
7484.383841720644341
 20
2191.4030287871810287
 30
0.0
 40
7.7258144035457672
 50
89.8835215931343896
 51
95.1467284609846047
  0
ARC
  5
D03C
  8
0
 10
7483.9213936544783792
 20
2196.354803510424972
 30
0.0
 40
2.7525681444458741
 50
94.8058392526745735
 51
103.6259551945990012
  0
ARC
  5
D03D
  8
0
 10
7483.3846111790790019
 20
2198.5965376102681148
 30
0.0
 40
0.4475188610662566
 50
104.4503267923894043
 51
117.9930586669954948
  0
ARC
  5
D03E
  8
0
 10
7483.1795737188467683
 20
2198.9560763151630454
 30
0.0
 40
0.0396301991446703
 50
195.1913386602957132
 51
229.3019908394607
  0
ARC
  5
D03F
  8
0
 10
7483.2300796865583834
 20
2199.0091336975601735
 30
0.0
 40
0.1128500375731123
 50
227.4260428036056112
 51
240.5303308124998125
  0
ARC
  5
D040
  8
0
 10
7483.1745507058722069
 20
2198.9501281020579881
 30
0.0
 40
0.0335172836351289
 50
128.3990298999497952
 51
187.6064498781611007
  0
ARC
  5
D041
  8
0
 10
7483.2314920710341539
 20
2198.8923803134530317
 30
0.0
 40
0.1144780524542811
 50
119.8217971137906943
 51
132.7856698495349121
  0
ARC
  5
D042
  8
0
 10
7483.9492626065966761
 20
2201.9130526505668968
 30
0.0
 40
3.1158902583584052
 50
258.5516635009410038
 51
265.2415828398252984
  0
ARC
  5
D043
  8
0
 10
7483.4346139397530351
 20
2199.4345351290598956
 30
0.0
 40
0.5846683132504339
 50
243.5903534461222932
 51
259.7730490447700049
  0
ARC
  5
D044
  8
0
 10
7484.379815087238967
 20
2206.7995985392681177
 30
0.0
 40
8.0213451652093113
 50
265.0722455128188813
 51
270.1409489494249101
  0
ARC
  5
D045
  8
0
 10
7500.0997752010680415
 20
2182.8716954322349011
 30
0.0
 40
20.1189449130361595
 50
277.1128704549627173
 51
82.8948133176844379
  0
ARC
  5
D046
  8
0
 10
7484.3979189976898851
 20
2056.9420660795658478
 30
0.0
 40
147.0237117024560121
 50
82.8929126409296231
 51
89.9993652631186762
  0
ARC
  5
D047
  8
0
 10
7484.4109397949796403
 20
2308.3536205886571224
 30
0.0
 40
146.5778432584100983
 50
269.9955469711629235
 51
277.1247435355934954
  0
ARC
  5
D048
  8
0
 10
7499.4114365639306925
 20
2182.8707777662680201
 30
0.0
 40
16.1453838988931793
 50
272.3856160140891234
 51
87.6143839973847065
  0
ARC
  5
D049
  8
0
 10
7494.7557539842500773
 20
2183.0805051951911082
 30
0.0
 40
11.2549572102479196
 50
276.6016213062313227
 51
83.1445193445480442
  0
ARC
  5
D04A
  8
0
 10
7482.2507486703607356
 20
2119.9826303277009174
 30
0.0
 40
75.5523909105059062
 50
79.4381929438627736
 51
88.3702206926258356
  0
ARC
  5
D04B
  8
0
 10
7484.7167489902649322
 20
2301.5249081326610394
 30
0.0
 40
130.1192035659636019
 50
269.8603256930110206
 51
274.9965957171287982
  0
ARC
  5
D04C
  8
0
 10
7485.0112424516973988
 20
1952.788855837887013
 30
0.0
 40
246.6742141147605878
 50
86.4969416716317028
 51
90.1420803551189493
  0
ARC
  5
D04D
  8
0
 10
7485.0112422932370464
 20
2412.9527123376260533
 30
0.0
 40
246.6742267438607996
 50
269.8579196889663763
 51
273.5030581864671717
  0
ARC
  5
D04E
  8
0
 10
7484.4152538051430383
 20
2191.4030287872101326
 30
0.0
 40
7.7258144035166891
 50
84.8532715390153953
 51
90.11647840691775
  0
ARC
  5
D04F
  8
0
 10
7484.8777018713017242
 20
2196.3548035103931397
 30
0.0
 40
2.7525681444789578
 50
76.374044805508376
 51
85.1941607472735143
  0
ARC
  5
D050
  8
0
 10
7485.4144843467011015
 20
2198.5965376102558366
 30
0.0
 40
0.4475188610786221
 50
62.0069413331209489
 51
75.5496732073956991
  0
ARC
  5
D051
  8
0
 10
7485.619521806936973
 20
2198.9560763151630454
 30
0.0
 40
0.0396301991446703
 50
310.6980091605394136
 51
344.8086613397043152
  0
ARC
  5
D052
  8
0
 10
7485.5690158392280864
 20
2199.0091336975601735
 30
0.0
 40
0.1128500375731123
 50
299.4696691875000738
 51
312.5739571963944172
  0
ARC
  5
D053
  8
0
 10
7485.6245448199133534
 20
2198.9501281020579881
 30
0.0
 40
0.0335172836345501
 50
352.3935501216063813
 51
51.6009701009208968
  0
ARC
  5
D054
  8
0
 10
7485.5676034547495874
 20
2198.8923803134530317
 30
0.0
 40
0.1144780524542811
 50
47.2143301504650168
 51
60.1782028862092417
  0
ARC
  5
D055
  8
0
 10
7484.8498329191870653
 20
2201.9130526505668968
 30
0.0
 40
3.1158902583584052
 50
274.7584171601747016
 51
281.4483364990588825
  0
ARC
  5
D056
  8
0
 10
7485.3644815860316157
 20
2199.4345351290598956
 30
0.0
 40
0.5846683132504339
 50
280.2269509552298814
 51
296.4096465538776783
  0
ARC
  5
D057
  8
0
 10
7484.4192804385465934
 20
2206.799598539264025
 30
0.0
 40
8.0213451652060304
 50
269.8590510505752036
 51
274.9277544871811187
  0
ENDSEC
  0
EOF
