  0
SECTION
  2
HEADER
  9
$ACADVER
  1
AC1009
  9
$INSBASE
 10
5012.5318093328405666
 20
308.1699369126217221
 30
0.0
  9
$EXTMIN
 10
5009.1223350594418662
 20
308.1640023288691168
 30
0.0
  9
$EXTMAX
 10
5016.3585649807428126
 20
397.9415904559215846
 30
0.0
  9
$LIMMIN
 10
0.0
 20
0.0
  9
$LIMMAX
 10
11.6929133858000007
 20
8.2677165353999982
  9
$ORTHOMODE
 70
     0
  9
$REGENMODE
 70
     1
  9
$FILLMODE
 70
     1
  9
$QTEXTMODE
 70
     0
  9
$MIRRTEXT
 70
     0
  9
$DRAGMODE
 70
     2
  9
$LTSCALE
 40
0.6431102362
  9
$OSMODE
 70
  4095
  9
$ATTMODE
 70
     1
  9
$TEXTSIZE
 40
0.2
  9
$TRACEWID
 40
0.05
  9
$TEXTSTYLE
  7
STANDARD
  9
$CLAYER
  8
0
  9
$CELTYPE
  6
BYLAYER
  9
$CECOLOR
 62
   256
  9
$DIMSCALE
 40
1.0
  9
$DIMASZ
 40
0.1875
  9
$DIMEXO
 40
0.0625
  9
$DIMDLI
 40
0.4443307087
  9
$DIMRND
 40
0.0
  9
$DIMDLE
 40
0.0
  9
$DIMEXE
 40
0.125
  9
$DIMTP
 40
0.01
  9
$DIMTM
 40
0.01
  9
$DIMTXT
 40
2.0
  9
$DIMCEN
 40
0.1052362205
  9
$DIMTSZ
 40
0.0
  9
$DIMTOL
 70
     1
  9
$DIMLIM
 70
     0
  9
$DIMTIH
 70
     1
  9
$DIMTOH
 70
     1
  9
$DIMSE1
 70
     0
  9
$DIMSE2
 70
     0
  9
$DIMTAD
 70
     0
  9
$DIMZIN
 70
     0
  9
$DIMBLK
  1

  9
$DIMASO
 70
     1
  9
$DIMSHO
 70
     1
  9
$DIMPOST
  1
\X
  9
$DIMAPOST
  1

  9
$DIMALT
 70
     1
  9
$DIMALTD
 70
     2
  9
$DIMALTF
 40
25.3999999999999986
  9
$DIMLFAC
 40
1.0
  9
$DIMTOFL
 70
     0
  9
$DIMTVP
 40
0.0
  9
$DIMTIX
 70
     0
  9
$DIMSOXD
 70
     0
  9
$DIMSAH
 70
     0
  9
$DIMBLK1
  1

  9
$DIMBLK2
  1

  9
$DIMSTYLE
  2
STANDARD
  9
$DIMCLRD
 70
     0
  9
$DIMCLRE
 70
     0
  9
$DIMCLRT
 70
     0
  9
$DIMTFAC
 40
1.0
  9
$DIMGAP
 40
0.09
  9
$LUNITS
 70
     2
  9
$LUPREC
 70
     4
  9
$SKETCHINC
 40
0.1
  9
$FILLETRAD
 40
0.0
  9
$AUNITS
 70
     0
  9
$AUPREC
 70
     0
  9
$MENU
  1
.
  9
$ELEVATION
 40
0.0
  9
$PELEVATION
 40
0.0
  9
$THICKNESS
 40
0.0
  9
$LIMCHECK
 70
     0
  9
$BLIPMODE
 70
     0
  9
$CHAMFERA
 40
0.0
  9
$CHAMFERB
 40
0.0
  9
$SKPOLY
 70
     0
  9
$TDCREATE
 40
2458060.468368056230247
  9
$TDUPDATE
 40
2459163.4067592588253319
  9
$TDINDWG
 40
0.3516390046
  9
$TDUSRTIMER
 40
0.3516390046
  9
$USRTIMER
 70
     1
  9
$ANGBASE
 50
0.0
  9
$ANGDIR
 70
     0
  9
$PDMODE
 70
     0
  9
$PDSIZE
 40
0.3125
  9
$PLINEWID
 40
0.0
  9
$COORDS
 70
     1
  9
$SPLFRAME
 70
     0
  9
$SPLINETYPE
 70
     6
  9
$SPLINESEGS
 70
     8
  9
$ATTDIA
 70
     1
  9
$ATTREQ
 70
     1
  9
$HANDLING
 70
     1
  9
$HANDSEED
  5
D2A9
  9
$SURFTAB1
 70
     6
  9
$SURFTAB2
 70
     6
  9
$SURFTYPE
 70
     6
  9
$SURFU
 70
     6
  9
$SURFV
 70
     6
  9
$UCSNAME
  2

  9
$UCSORG
 10
0.0
 20
0.0
 30
0.0
  9
$UCSXDIR
 10
1.0
 20
0.0
 30
0.0
  9
$UCSYDIR
 10
0.0
 20
1.0
 30
0.0
  9
$PUCSNAME
  2

  9
$PUCSORG
 10
0.0
 20
0.0
 30
0.0
  9
$PUCSXDIR
 10
1.0
 20
0.0
 30
0.0
  9
$PUCSYDIR
 10
0.0
 20
1.0
 30
0.0
  9
$USERI1
 70
     0
  9
$USERI2
 70
     0
  9
$USERI3
 70
     0
  9
$USERI4
 70
     0
  9
$USERI5
 70
     0
  9
$USERR1
 40
0.0
  9
$USERR2
 40
0.0
  9
$USERR3
 40
0.0
  9
$USERR4
 40
0.0
  9
$USERR5
 40
0.0
  9
$WORLDVIEW
 70
     1
  9
$SHADEDGE
 70
     3
  9
$SHADEDIF
 70
    70
  9
$TILEMODE
 70
     1
  9
$MAXACTVP
 70
    64
  9
$PLIMCHECK
 70
     0
  9
$PEXTMIN
 10
1.0000000000000000E+20
 20
1.0000000000000000E+20
 30
1.0000000000000000E+20
  9
$PEXTMAX
 10
-1.0000000000000000E+20
 20
-1.0000000000000000E+20
 30
-1.0000000000000000E+20
  9
$PLIMMIN
 10
0.0
 20
0.0
  9
$PLIMMAX
 10
12.0
 20
9.0
  9
$UNITMODE
 70
     0
  9
$VISRETAIN
 70
     1
  9
$PLINEGEN
 70
     0
  9
$PSLTSCALE
 70
     1
  0
ENDSEC
  0
SECTION
  2
TABLES
  0
TABLE
  2
VPORT
 70
     1
  0
VPORT
  2
*ACTIVE
 70
     0
 10
0.0
 20
0.0
 11
1.0
 21
1.0
 12
0.0
 22
0.0
 13
0.0
 23
0.0
 14
1.0
 24
1.0
 15
0.0
 25
0.0
 16
0.0
 26
0.0
 36
255.2076787170547902
 17
5012.7404500200918847
 27
353.0527963923954076
 37
0.0
 40
90.0841903668939352
 41
2.1186252771618621
 42
50.0
 43
0.0
 44
0.0
 50
0.0
 51
0.0
 71
     0
 72
   100
 73
     1
 74
     1
 75
     0
 76
     0
 77
     0
 78
     0
  0
ENDTAB
  0
TABLE
  2
LTYPE
 70
     2
  0
LTYPE
  2
CONTINUOUS
 70
     0
  3
Solid line
 72
    65
 73
     0
 40
0.0
  0
LTYPE
  2
PHANTOM2
 70
     0
  3
___ _ _ ___ _ _ ___ _ _ ___ _ _
 72
    65
 73
     6
 40
1.25
 49
0.625
 49
-0.125
 49
0.125
 49
-0.125
 49
0.125
 49
-0.125
  0
ENDTAB
  0
TABLE
  2
LAYER
 70
     2
  0
LAYER
  2
0
 70
     0
 62
   255
  6
CONTINUOUS
  0
LAYER
  2
DEFPOINTS
 70
     0
 62
     7
  6
CONTINUOUS
  0
ENDTAB
  0
TABLE
  2
STYLE
 70
     1
  0
STYLE
  2
STANDARD
 70
     0
 40
0.0
 41
0.8
 50
0.0
 71
     0
 42
0.2
  3
txt
  4

  0
ENDTAB
  0
TABLE
  2
VIEW
 70
     0
  0
ENDTAB
  0
TABLE
  2
UCS
 70
     0
  0
ENDTAB
  0
TABLE
  2
APPID
 70
     9
  0
APPID
  2
ACAD
 70
     0
  0
APPID
  2
ACAD_MLEADERVER
 70
     0
  0
APPID
  2
ACAD_EXEMPT_FROM_CAD_STANDARDS
 70
     0
  0
APPID
  2
ACAD_NAV_VCDISPLAY
 70
     0
  0
APPID
  2
ACAECLAYERSTANDARD
 70
     0
  0
APPID
  2
ACCMTRANSPARENCY
 70
     0
  0
APPID
  2
ACAD_DSTYLE_DIMJAG
 70
     0
  0
APPID
  2
ACAD_DSTYLE_DIMTALN
 70
     0
  0
APPID
  2
ACDBATTR
 70
     0
  0
ENDTAB
  0
TABLE
  2
DIMSTYLE
 70
     1
  0
DIMSTYLE
  2
STANDARD
 70
     0
  3

  4

  5

  6

  7

 40
1.0
 41
0.1875
 42
0.0625
 43
0.38
 44
0.125
 45
0.0
 46
0.0
 47
0.01
 48
0.01
140
0.15625
141
0.09
142
0.0
143
25.3999999999999986
144
1.0
145
0.0
146
1.0
147
0.09
 71
     1
 72
     0
 73
     1
 74
     1
 75
     0
 76
     0
 77
     0
 78
     4
170
     0
171
     2
172
     0
173
     0
174
     0
175
     0
176
     0
177
     0
178
     0
  0
ENDTAB
  0
ENDSEC
  0
SECTION
  2
BLOCKS
  0
BLOCK
  8
0
  2
$MODEL_SPACE
 70
     0
 10
0.0
 20
0.0
 30
0.0
  3
$MODEL_SPACE
  1

  0
ENDBLK
  5
21
  8
0
  0
BLOCK
 67
     1
  8
0
  2
$PAPER_SPACE
 70
     0
 10
0.0
 20
0.0
 30
0.0
  3
$PAPER_SPACE
  1

  0
ENDBLK
  5
1D
 67
     1
  8
0
  0
BLOCK
  8
0
  2
_FILLED
 70
     0
 10
0.0
 20
0.0
 30
0.0
  3
_FILLED
  1

  0
SOLID
  5
C857
  8
0
  6
BYBLOCK
 62
     0
 10
0.0
 20
0.0
 30
0.0
 11
-1.0
 21
0.1666666667
 31
0.0
 12
-1.0
 22
-0.1666666667
 32
0.0
 13
-1.0
 23
-0.1666666667
 33
0.0
  0
ENDBLK
  5
C858
  8
0
  6
BYBLOCK
 62
     0
  0
ENDSEC
  0
SECTION
  2
ENTITIES
  0
ATTDEF
  5
3930
  8
DEFPOINTS
 10
5012.5279306236116099
 20
308.1673356622023903
 30
0.0
 40
0.001
  1
K-701574T-FM
  3

  2
MODELNUMBER
 70
     0
1001
ACDBATTR
1070
     0
1070
     1
  0
ATTDEF
  5
3931
  8
DEFPOINTS
 10
5012.5279306236116099
 20
308.1656689955357251
 30
0.0
 40
0.001
  1
PURIST
  3

  2
TRADENAME
 70
     0
1001
ACDBATTR
1070
     0
1070
     1
  0
ATTDEF
  5
3932
  8
DEFPOINTS
 10
5012.5279306236116099
 20
308.1640023288691168
 30
0.0
 40
0.001
  1
SHOWER DOOR
  3

  2
PRODUCT
 70
     0
1001
ACDBATTR
1070
     0
1070
     1
  0
LINE
  5
D06E
  8
0
 10
5012.374303563340618
 20
310.5715117158216003
 30
0.0
 11
5012.3113114373418284
 21
310.5715117158216003
 31
0.0
  0
LINE
  5
D06F
  8
0
 10
5012.1223350594418662
 20
310.5715117158216003
 30
0.0
 11
5012.0593429334412576
 21
310.5715117158216003
 31
0.0
  0
LINE
  5
D070
  8
0
 10
5012.3113114373418284
 20
310.6108424244216053
 30
0.0
 11
5012.3664295476419284
 21
310.6108424244216053
 31
0.0
  0
LINE
  5
D071
  8
0
 10
5012.0672169491417662
 20
310.6108817945216742
 30
0.0
 11
5012.1223350594418662
 21
310.6108817945216742
 31
0.0
  0
LINE
  5
D072
  8
0
 10
5012.9963508074406491
 20
310.6502518732216913
 30
0.0
 11
5012.9176106499417074
 21
310.6502518732216913
 31
0.0
  0
LINE
  5
D073
  8
0
 10
5012.7758783665412921
 20
310.6502518732216913
 30
0.0
 11
5012.6971382090414409
 21
310.6502518732216913
 31
0.0
  0
LINE
  5
D074
  8
0
 10
5012.3664295476419284
 20
310.6502518732216913
 30
0.0
 11
5012.2876893901420772
 21
310.6502518732216913
 31
0.0
  0
LINE
  5
D075
  8
0
 10
5012.1459571066416174
 20
310.6502518732216913
 30
0.0
 11
5012.0672169491417662
 21
310.6502518732216913
 31
0.0
  0
LINE
  5
D076
  8
0
 10
5012.0672169491417662
 20
310.6896219520215823
 30
0.0
 11
5012.1459571066416174
 21
310.6896219520215823
 31
0.0
  0
LINE
  5
D077
  8
0
 10
5012.2876893901420772
 20
310.6896219520215823
 30
0.0
 11
5012.3664295476419284
 21
310.6896219520215823
 31
0.0
  0
LINE
  5
D078
  8
0
 10
5012.6971382090414409
 20
310.6896219520215823
 30
0.0
 11
5012.7758783665412921
 21
310.6896219520215823
 31
0.0
  0
LINE
  5
D079
  8
0
 10
5012.9176106499417074
 20
310.6896219520215823
 30
0.0
 11
5012.9963508074406491
 21
310.6896219520215823
 31
0.0
  0
LINE
  5
D07A
  8
0
 10
5012.5593429334421671
 20
310.728992030721713
 30
0.0
 11
5012.4451697050417351
 21
310.728992030721713
 31
0.0
  0
LINE
  5
D07B
  8
0
 10
5013.3979256106413231
 20
310.8471022669215813
 30
0.0
 11
5013.0947760043418384
 21
310.8471022669215813
 31
0.0
  0
LINE
  5
D07C
  8
0
 10
5012.9963508074406491
 20
310.8471022669215813
 30
0.0
 11
5012.6971382090414409
 21
310.8471022669215813
 31
0.0
  0
LINE
  5
D07D
  8
0
 10
5012.5987130121420705
 20
310.8471022669215813
 30
0.0
 11
5012.4648547444412543
 21
310.8471022669215813
 31
0.0
  0
LINE
  5
D07E
  8
0
 10
5012.3664295476419284
 20
310.8471022669215813
 30
0.0
 11
5012.0672169491417662
 21
310.8471022669215813
 31
0.0
  0
LINE
  5
D07F
  8
0
 10
5011.9687917523406213
 20
310.8667873063217257
 30
0.0
 11
5011.9412326972424125
 21
310.8667873063217257
 31
0.0
  0
LINE
  5
D080
  8
0
 10
5012.0002878153418351
 20
310.9258424244217167
 30
0.0
 11
5013.4767166771416669
 21
310.9258424244217167
 31
0.0
  0
LINE
  5
D081
  8
0
 10
5012.4215476578419839
 20
310.9455274638215769
 30
0.0
 11
5012.4685007140406015
 21
310.9455274638215769
 31
0.0
  0
LINE
  5
D082
  8
0
 10
5011.9018626184406457
 20
310.984897542521594
 30
0.0
 11
5011.8349334846407146
 21
310.984897542521594
 31
0.0
  0
LINE
  5
D083
  8
0
 10
5012.0278468704418628
 20
311.0045825819216248
 30
0.0
 11
5012.4215476578419839
 21
311.0045825819216248
 31
0.0
  0
LINE
  5
D084
  8
0
 10
5011.8861145869423126
 20
311.043952660621585
 30
0.0
 11
5011.9097366342411988
 21
311.043952660621585
 31
0.0
  0
LINE
  5
D085
  8
0
 10
5011.9058891821414363
 20
311.0743533883216969
 30
0.0
 11
5011.8981047221423069
 21
311.0743533883216969
 31
0.0
  0
LINE
  5
D086
  8
0
 10
5011.9333586814418595
 20
311.0911967551217003
 30
0.0
 11
5011.9687917523406213
 21
311.0911967551217003
 31
0.0
  0
LINE
  5
D087
  8
0
 10
5011.97432218654194
 20
311.1113295733217115
 30
0.0
 11
5011.9331347919423933
 21
311.1113295733217115
 31
0.0
  0
LINE
  5
D088
  8
0
 10
5011.9687917523406213
 20
311.1502518732215776
 30
0.0
 11
5011.9333586814418595
 21
311.1502518732215776
 31
0.0
  0
LINE
  5
D089
  8
0
 10
5011.9331347919423933
 20
311.1502518732215776
 30
0.0
 11
5011.9743221866419844
 21
311.1502518732215776
 31
0.0
  0
LINE
  5
D08A
  8
0
 10
5012.425260401541891
 20
311.1620628969216114
 30
0.0
 11
5012.4685007140406015
 21
311.1620628969216114
 31
0.0
  0
LINE
  5
D08B
  8
0
 10
5011.7955634058416763
 20
311.1817479362215977
 30
0.0
 11
5011.6656421460411366
 21
311.1817479362215977
 31
0.0
  0
LINE
  5
D08C
  8
0
 10
5011.8981047221423069
 20
311.1872280582215922
 30
0.0
 11
5011.9058891821414363
 21
311.1872280582215922
 31
0.0
  0
LINE
  5
D08D
  8
0
 10
5011.9097366342411988
 20
311.2014329756215716
 30
0.0
 11
5011.8861145869423126
 21
311.2014329756215716
 31
0.0
  0
LINE
  5
D08E
  8
0
 10
5011.5869019885412854
 20
311.2408030543217023
 30
0.0
 11
5011.9609177365418873
 21
311.2408030543217023
 31
0.0
  0
LINE
  5
D08F
  8
0
 10
5012.0278468704418628
 20
311.2408030543217023
 30
0.0
 11
5013.3900515948416796
 21
311.2408030543217023
 31
0.0
  0
LINE
  5
D090
  8
0
 10
5012.1380830909420183
 20
315.0892282512215843
 30
0.0
 11
5012.5317838781420505
 21
315.0892282512215843
 31
0.0
  0
LINE
  5
D091
  8
0
 10
5012.1380830909420183
 20
315.2663936055217277
 30
0.0
 11
5012.5317838783412299
 21
315.2663936055217277
 31
0.0
  0
LINE
  5
D092
  8
0
 10
5009.1341582163413477
 20
342.9140314008216137
 30
0.0
 11
5010.4884646583413996
 21
342.9140314008216137
 31
0.0
  0
LINE
  5
D093
  8
0
 10
5011.5869019885412854
 20
344.8726928181216067
 30
0.0
 11
5010.2273089925411114
 21
344.8726928181216067
 31
0.0
  0
LINE
  5
D094
  8
0
 10
5010.227309000241803
 20
345.994740062221581
 30
0.0
 11
5011.5869019885412854
 21
345.994740062221581
 31
0.0
  0
LINE
  5
D095
  8
0
 10
5009.1223350594418662
 20
342.9258424244217167
 30
0.0
 11
5009.1223350594418662
 21
365.6581258890216191
 31
0.0
  0
LINE
  5
D096
  8
0
 10
5010.2112376634413522
 20
344.8845037012217176
 30
0.0
 11
5010.2112376755412697
 21
345.9829288327217114
 31
0.0
  0
LINE
  5
D097
  8
0
 10
5010.5002878153418351
 20
342.9258424244217167
 30
0.0
 11
5010.5002878153418351
 21
344.8726928181216067
 31
0.0
  0
LINE
  5
D098
  8
0
 10
5010.5002878153418351
 20
345.994740062221581
 30
0.0
 11
5010.5002878153418351
 21
362.589228251221698
 31
0.0
  0
LINE
  5
D099
  8
0
 10
5010.5002878153418351
 20
363.7112754953216154
 30
0.0
 11
5010.5002878153418351
 21
365.6581258890216191
 31
0.0
  0
LINE
  5
D09A
  8
0
 10
5011.5869019885412854
 20
310.5518266764216833
 30
0.0
 11
5011.5869019885412854
 21
311.221118015021716
 31
0.0
  0
LINE
  5
D09B
  8
0
 10
5011.5869019885412854
 20
311.2408030543217023
 30
0.0
 11
5011.5869019885412854
 21
397.20536998342169
 31
0.0
  0
LINE
  5
D09C
  8
0
 10
5011.6459571066407079
 20
311.1620628969216114
 30
0.0
 11
5011.6459571066407079
 21
310.5518266764216833
 31
0.0
  0
LINE
  5
D09D
  8
0
 10
5011.7384739849412654
 20
397.1463148653215853
 30
0.0
 11
5011.7384739849412654
 21
311.2408030543217023
 31
0.0
  0
LINE
  5
D09E
  8
0
 10
5011.8093401266405635
 20
311.2408030543217023
 30
0.0
 11
5011.8093401266405635
 21
397.1463148653215853
 31
0.0
  0
LINE
  5
D09F
  8
0
 10
5011.8152484452411954
 20
311.0045825819216248
 30
0.0
 11
5011.8152484452411954
 21
311.1620628969216114
 31
0.0
  0
LINE
  5
D0A0
  8
0
 10
5011.874303563342437
 20
311.1896219520215823
 30
0.0
 11
5011.874303563342437
 21
311.0557636843216756
 31
0.0
  0
LINE
  5
D0A1
  8
0
 10
5011.8903202621422679
 20
311.0821378483216222
 30
0.0
 11
5011.8903202621422679
 21
311.0916071040215911
 31
0.0
  0
LINE
  5
D0A2
  8
0
 10
5011.8903202621422679
 20
311.1699743425215843
 30
0.0
 11
5011.8903202621422679
 21
311.1794435982217237
 31
0.0
  0
LINE
  5
D0A3
  8
0
 10
5011.8938148080424071
 20
311.2014329756215716
 30
0.0
 11
5011.8938148081560939
 21
311.185939324161609
 31
0.0
  0
LINE
  5
D0A4
  8
0
 10
5011.9018598116417706
 20
397.1463148653215853
 30
0.0
 11
5011.9018598116417706
 21
311.2408030543217023
 31
0.0
  0
LINE
  5
D0A5
  8
0
 10
5011.9136736420414309
 20
311.1794435982217237
 30
0.0
 11
5011.9136736420414309
 21
311.169713023221675
 31
0.0
  0
LINE
  5
D0A6
  8
0
 10
5011.9136736420414309
 20
311.0918684233217277
 30
0.0
 11
5011.9136736420414309
 21
311.0821378483216222
 31
0.0
  0
LINE
  5
D0A7
  8
0
 10
5011.9215476578410744
 20
310.886472345721586
 30
0.0
 11
5011.9215476578410744
 21
310.9652125032217214
 31
0.0
  0
LINE
  5
D0A8
  8
0
 10
5011.9215476578410744
 20
311.0557636843216756
 30
0.0
 11
5011.9215476578410744
 21
311.079385731521711
 31
0.0
  0
LINE
  5
D0A9
  8
0
 10
5011.9215476578410744
 20
311.1620628969216114
 30
0.0
 11
5011.9215476578410744
 21
311.1896219520215823
 31
0.0
  0
LINE
  5
D0AA
  8
0
 10
5011.9471346558411824
 20
311.0911967551217003
 30
0.0
 11
5011.9471346558411824
 21
311.1113295733217115
 31
0.0
  0
LINE
  5
D0AB
  8
0
 10
5011.9806027759423159
 20
311.221118015021716
 30
0.0
 11
5011.9806027759423159
 21
311.2166822222014275
 31
0.0
  0
LINE
  5
D0AC
  8
0
 10
5011.9806027759423159
 20
311.2005850999250924
 30
0.0
 11
5011.9806027759423159
 21
311.1620628969216114
 31
0.0
  0
LINE
  5
D0AD
  8
0
 10
5011.9806027759423159
 20
311.079385731521711
 30
0.0
 11
5011.9806027759423159
 21
311.0608723427436075
 31
0.0
  0
LINE
  5
D0AE
  8
0
 10
5011.9806027759423159
 20
311.0455938980613837
 30
0.0
 11
5011.9806027759423159
 21
310.9455274638215769
 31
0.0
  0
LINE
  5
D0AF
  8
0
 10
5011.9884767917419595
 20
310.5518266764216833
 30
0.0
 11
5011.9884767917419595
 21
310.8471022669215813
 31
0.0
  0
LINE
  5
D0B0
  8
0
 10
5012.0081618310414342
 20
310.9455274638215769
 30
0.0
 11
5012.0081618310414342
 21
311.0211408864216764
 31
0.0
  0
LINE
  5
D0B1
  8
0
 10
5012.0278468704418628
 20
311.0671039698041227
 30
0.0
 11
5012.0278468704418628
 21
311.1945639277159898
 31
0.0
  0
LINE
  5
D0B2
  8
0
 10
5012.0278468704418628
 20
311.2227661963256082
 30
0.0
 11
5012.0278468704418628
 21
311.2408030543217023
 31
0.0
  0
LINE
  5
D0B3
  8
0
 10
5012.0278468704418628
 20
311.0391517302750231
 30
0.0
 11
5012.0278468704418628
 21
310.9258424244217167
 31
0.0
  0
LINE
  5
D0B4
  8
0
 10
5012.0475319098422915
 20
310.8274172276217087
 30
0.0
 11
5012.0475319098422915
 21
310.7093069914217267
 31
0.0
  0
LINE
  5
D0B5
  8
0
 10
5012.0475319098422915
 20
310.5597006921216234
 30
0.0
 11
5012.0475319098422915
 21
310.543952660621585
 31
0.0
  0
LINE
  5
D0B6
  8
0
 10
5012.0554059255418906
 20
310.638440849621702
 30
0.0
 11
5012.0554059255418906
 21
310.6226928181217204
 31
0.0
  0
LINE
  5
D0B7
  8
0
 10
5012.1341460830417418
 20
310.5990707709216281
 30
0.0
 11
5012.1341460830417418
 21
310.5833227394215896
 31
0.0
  0
LINE
  5
D0B8
  8
0
 10
5012.1577681302424025
 20
310.6778109284217066
 30
0.0
 11
5012.1577681302424025
 21
310.662062896921725
 31
0.0
  0
LINE
  5
D0B9
  8
0
 10
5012.2758783665412921
 20
310.662062896921725
 30
0.0
 11
5012.2758783665412921
 21
310.6778109284217066
 31
0.0
  0
LINE
  5
D0BA
  8
0
 10
5012.2995004137419528
 20
310.5833227394215896
 30
0.0
 11
5012.2995004137419528
 21
310.5990314008216728
 31
0.0
  0
LINE
  5
D0BB
  8
0
 10
5012.378240571241804
 20
310.6226534480215946
 30
0.0
 11
5012.378240571241804
 21
310.638440849621702
 31
0.0
  0
LINE
  5
D0BC
  8
0
 10
5012.3861145869414031
 20
310.543952660621585
 30
0.0
 11
5012.3861145869414031
 21
310.5597006921216234
 31
0.0
  0
LINE
  5
D0BD
  8
0
 10
5012.3861145869414031
 20
310.7093069914217267
 30
0.0
 11
5012.3861145869414031
 21
310.8274172276217087
 31
0.0
  0
LINE
  5
D0BE
  8
0
 10
5012.4215476578419839
 20
310.9258424244217167
 30
0.0
 11
5012.4215476578419839
 21
311.2408030543217023
 31
0.0
  0
LINE
  5
D0BF
  8
0
 10
5012.4451697050417351
 20
310.8274172276217087
 30
0.0
 11
5012.4451697050417351
 21
310.5521416370215775
 31
0.0
  0
LINE
  5
D0C0
  8
0
 10
5012.4606939541417887
 20
311.1620628969216114
 30
0.0
 11
5012.4606939541417887
 21
311.2408030543217023
 31
0.0
  0
LINE
  5
D0C1
  8
0
 10
5012.4685007140406015
 20
311.1620628969216114
 30
0.0
 11
5012.4685007140406015
 21
310.9258424244217167
 31
0.0
  0
LINE
  5
D0C2
  8
0
 10
5012.4845397838416829
 20
397.1463148653215853
 30
0.0
 11
5012.4845397838416829
 21
393.2978896684215897
 31
0.0
  0
LINE
  5
D0C3
  8
0
 10
5012.4845397838416829
 20
393.1207243141216168
 30
0.0
 11
5012.4845397838416829
 21
373.6128502983215753
 31
0.0
  0
LINE
  5
D0C4
  8
0
 10
5012.4845397838416829
 20
373.4356849440217161
 30
0.0
 11
5012.4845397838416829
 21
354.2821416369217218
 31
0.0
  0
LINE
  5
D0C5
  8
0
 10
5012.4845397838416829
 20
354.1049762826215783
 30
0.0
 11
5012.4845397838416829
 21
334.9514329756215716
 31
0.0
  0
LINE
  5
D0C6
  8
0
 10
5012.4845397838416829
 20
334.7742676213217123
 30
0.0
 11
5012.4845397838416829
 21
315.2663936055217277
 31
0.0
  0
LINE
  5
D0C7
  8
0
 10
5012.4845397838416829
 20
315.0892282512215843
 30
0.0
 11
5012.4845397838416829
 21
311.2408030543217023
 31
0.0
  0
LINE
  5
D0C8
  8
0
 10
5012.5632799413424436
 20
397.1463148653215853
 30
0.0
 11
5012.5632799413424436
 21
393.2921012466503043
 31
0.0
  0
LINE
  5
D0C9
  8
0
 10
5012.5632799413424436
 20
393.1265127359931171
 30
0.0
 11
5012.5632799413424436
 21
373.60706187655029
 31
0.0
  0
LINE
  5
D0CA
  8
0
 10
5012.5632799413424436
 20
373.441473365892989
 30
0.0
 11
5012.5632799413424436
 21
354.2763532151503227
 31
0.0
  0
LINE
  5
D0CB
  8
0
 10
5012.5632799413424436
 20
354.1107647044930218
 30
0.0
 11
5012.5632799413424436
 21
334.9456445538502862
 31
0.0
  0
LINE
  5
D0CC
  8
0
 10
5012.5632799413424436
 20
334.7800560431929853
 30
0.0
 11
5012.5632799413424436
 21
315.2606051837502719
 31
0.0
  0
LINE
  5
D0CD
  8
0
 10
5012.5632799413424436
 20
315.0950166730930277
 30
0.0
 11
5012.5632799413424436
 21
311.2408030543217023
 31
0.0
  0
LINE
  5
D0CE
  8
0
 10
5012.5790279728416863
 20
310.8471022669215813
 30
0.0
 11
5012.5790279728416863
 21
310.7486770701215733
 31
0.0
  0
LINE
  5
D0CF
  8
0
 10
5012.6183980515406802
 20
310.5518266764216833
 30
0.0
 11
5012.6183980515406802
 21
310.8274172276217087
 31
0.0
  0
LINE
  5
D0D0
  8
0
 10
5012.6631114274423453
 20
311.2408030543217023
 30
0.0
 11
5012.6631114274423453
 21
310.9258424244217167
 31
0.0
  0
LINE
  5
D0D1
  8
0
 10
5012.6774531696419217
 20
310.8274172276217087
 30
0.0
 11
5012.6774531696419217
 21
310.7093069914217267
 31
0.0
  0
LINE
  5
D0D2
  8
0
 10
5012.6774531696419217
 20
310.630566833921705
 30
0.0
 11
5012.6774531696419217
 21
310.543952660621585
 31
0.0
  0
LINE
  5
D0D3
  8
0
 10
5012.7876893901411677
 20
310.6778109284217066
 30
0.0
 11
5012.7876893901411677
 21
310.662062896921725
 31
0.0
  0
LINE
  5
D0D4
  8
0
 10
5012.9057996263409223
 20
310.662062896921725
 30
0.0
 11
5012.9057996263409223
 21
310.6778109284217066
 31
0.0
  0
LINE
  5
D0D5
  8
0
 10
5012.958676698041927
 20
311.2408030543217023
 30
0.0
 11
5012.958676698041927
 21
310.9258424244217167
 31
0.0
  0
LINE
  5
D0D6
  8
0
 10
5013.0160358468419872
 20
310.543952660621585
 30
0.0
 11
5013.0160358468419872
 21
310.630566833921705
 31
0.0
  0
LINE
  5
D0D7
  8
0
 10
5013.0160358468419872
 20
310.7093069914217267
 30
0.0
 11
5013.0160358468419872
 21
310.8274172276217087
 31
0.0
  0
LINE
  5
D0D8
  8
0
 10
5013.0750909649414098
 20
397.1463148653215853
 30
0.0
 11
5013.0750909649414098
 21
311.2408030543217023
 31
0.0
  0
LINE
  5
D0D9
  8
0
 10
5013.0750909649414098
 20
310.8274172276217087
 30
0.0
 11
5013.0750909649414098
 21
310.5521416370215775
 31
0.0
  0
LINE
  5
D0DA
  8
0
 10
5013.1676106499417074
 20
397.1463148653215853
 30
0.0
 11
5013.1676106499417074
 21
311.2408030543217023
 31
0.0
  0
LINE
  5
D0DB
  8
0
 10
5013.2384767917419595
 20
311.2408030543217023
 30
0.0
 11
5013.2384767917419595
 21
397.1463148653215853
 31
0.0
  0
LINE
  5
D0DC
  8
0
 10
5013.282673964940841
 20
311.2408030543217023
 30
0.0
 11
5013.282673964940841
 21
310.9258424244217167
 31
0.0
  0
LINE
  5
D0DD
  8
0
 10
5013.3900515948416796
 20
397.1463148653215853
 30
0.0
 11
5013.3900515948416796
 21
311.2408030543217023
 31
0.0
  0
LINE
  5
D0DE
  8
0
 10
5013.4097869078423173
 20
397.1463148653215853
 30
0.0
 11
5013.4097869078423173
 21
310.9258424244217167
 31
0.0
  0
LINE
  5
D0DF
  8
0
 10
5013.4176106499407979
 20
310.5518266764216833
 30
0.0
 11
5013.4176106499407979
 21
310.8274172276217087
 31
0.0
  0
LINE
  5
D0E0
  8
0
 10
5013.4766657680420394
 20
310.9061573851216735
 30
0.0
 11
5013.4766657680420394
 21
310.5518266764216833
 31
0.0
  0
LINE
  5
D0E1
  8
0
 10
5013.4767166771416669
 20
397.2053699835216776
 30
0.0
 11
5013.4767166771416669
 21
310.9258424244217167
 31
0.0
  0
LINE
  5
D0E2
  8
0
 10
5009.1342532757416848
 20
365.6699369126217221
 30
0.0
 11
5010.4883695950411493
 21
365.6699369126217221
 31
0.0
  0
ARC
  5
D0E3
  8
0
 10
5010.4884767917419595
 20
342.9258424244217167
 30
0.0
 40
0.0118110236
 50
270.0
 51
0.0
  0
ARC
  5
D0E4
  8
0
 10
5009.1341460830417418
 20
342.9258424244217167
 30
0.0
 40
0.0118110236
 50
180.0
 51
270.0
  0
ARC
  5
D0E5
  8
0
 10
5011.7955959325609001
 20
311.130790723271673
 30
0.0
 40
0.1025088027050595
 50
337.5271015049755761
 51
22.4728984950183417
  0
ARC
  5
D0E6
  8
0
 10
5011.8349334846407146
 20
311.0045825819216248
 30
0.0
 40
0.0196850394
 50
179.9999999997980069
 51
270.000000000208388
  0
ARC
  5
D0E7
  8
0
 10
5011.7955634058416763
 20
311.1620628969216114
 30
0.0
 40
0.0196850394
 50
0.0
 51
90.0000000002084306
  0
ARC
  5
D0E8
  8
0
 10
5011.6656421460411366
 20
311.1620628969216114
 30
0.0
 40
0.0196850394
 50
89.9999999997915552
 51
180.0000000001986109
  0
ARC
  5
D0E9
  8
0
 10
5011.6262720672411888
 20
310.5518266764216833
 30
0.0
 40
0.0196850394
 50
270.000000000104194
 51
0.0
  0
ARC
  5
D0EA
  8
0
 10
5011.606587027941714
 20
310.5518266764216833
 30
0.0
 40
0.0196850394
 50
179.9999999997980069
 51
269.999999999895806
  0
ARC
  5
D0EB
  8
0
 10
5011.6065791772161901
 20
311.2211258656471955
 30
0.0
 40
0.0196771902405541
 50
89.9771403614995222
 51
180.0228593474323873
  0
ARC
  5
D0EC
  8
0
 10
5012.0081618310414342
 20
310.5518266764216833
 30
0.0
 40
0.0196850394
 50
179.9999999997980069
 51
270.000000000104194
  0
ARC
  5
D0ED
  8
0
 10
5011.9687917523406213
 20
310.8471022669215813
 30
0.0
 40
0.0196850394
 50
0.0
 51
90.0000000002084306
  0
ARC
  5
D0EE
  8
0
 10
5011.9468486461419161
 20
311.0829291736217215
 30
0.0
 40
0.0389223
 50
337.3791528942036848
 51
14.1243670806995194
  0
ARC
  5
D0EF
  8
0
 10
5011.9468486461419161
 20
311.1786522729216244
 30
0.0
 40
0.0389223
 50
345.8756330454053227
 51
22.6208470601036993
  0
ARC
  5
D0F0
  8
0
 10
5011.9412326972424125
 20
310.886472345721586
 30
0.0
 40
0.0196850394
 50
179.9999999997980069
 51
269.9999999991140953
  0
ARC
  5
D0F1
  8
0
 10
5011.9018626184406457
 20
310.9652125032217214
 30
0.0
 40
0.0196850394
 50
0.0
 51
89.9999999992183461
  0
ARC
  5
D0F2
  8
0
 10
5011.9609177365418873
 20
311.221118015021716
 30
0.0
 40
0.0196850394
 50
0.0
 51
90.0000000002084306
  0
ARC
  5
D0F3
  8
0
 10
5012.0002878153418351
 20
310.9455274638215769
 30
0.0
 40
0.0196850394
 50
180.0000000008988934
 51
270.000000000208388
  0
ARC
  5
D0F4
  8
0
 10
5011.9331347920406188
 20
311.0918684233217277
 30
0.0
 40
0.01946115
 50
90.000000305886914
 51
179.9999999998989892
  0
ARC
  5
D0F5
  8
0
 10
5011.9331347920406188
 20
311.169713023221675
 30
0.0
 40
0.01946115
 50
180.0000000001008971
 51
269.9999997085997165
  0
ARC
  5
D0F6
  8
0
 10
5011.9687939407704107
 20
311.1620607083942218
 30
0.0
 40
0.0118088353753399
 50
269.9893818785376993
 51
0.0106186073671996
  0
ARC
  5
D0F7
  8
0
 10
5011.9333624252813024
 20
311.162064447670673
 30
0.0
 40
0.0118147675411615
 50
180.00752036517531
 51
268.8960225726929139
  0
ARC
  5
D0F8
  8
0
 10
5011.9097366342411988
 20
311.1896219520215823
 30
0.0
 40
0.0118110236
 50
0.0000000008989011
 51
89.9999999992183461
  0
ARC
  5
D0F9
  8
0
 10
5011.8861145869423126
 20
311.1896219520215823
 30
0.0
 40
0.0118110236
 50
90.0000000009900987
 51
180.0000000008988934
  0
ARC
  5
D0FA
  8
0
 10
5011.8861145869423126
 20
311.0557636843216756
 30
0.0
 40
0.0118110236
 50
179.9999999991011066
 51
269.9999999991140953
  0
ARC
  5
D0FB
  8
0
 10
5011.9097366342411988
 20
311.0557636843216756
 30
0.0
 40
0.0118110236
 50
270.000000000885791
 51
359.9999999991010782
  0
ARC
  5
D0FC
  8
0
 10
5011.9333586814418595
 20
311.079385731521711
 30
0.0
 40
0.0118110236
 50
89.9999999992183461
 51
180.0000000008988934
  0
ARC
  5
D0FD
  8
0
 10
5011.9687917523406213
 20
311.079385731521711
 30
0.0
 40
0.0118110236
 50
0.0
 51
90.0000000008858763
  0
ARC
  5
D0FE
  8
0
 10
5011.97432218654194
 20
311.1035451133216725
 30
0.0
 40
0.00778446
 50
9.504840945598346
 51
90.0000000005732232
  0
ARC
  5
D0FF
  8
0
 10
5011.9058891821414363
 20
311.0821378483216222
 30
0.0
 40
0.00778446
 50
270.000000000104194
 51
0.0
  0
ARC
  5
D100
  8
0
 10
5011.8981047221423069
 20
311.0821378483216222
 30
0.0
 40
0.00778446
 50
180.0
 51
270.000000000104194
  0
ARC
  5
D101
  8
0
 10
5011.8981047221423069
 20
311.1794435982217237
 30
0.0
 40
0.00778446
 50
90.0000000007816539
 51
180.0000000001008971
  0
ARC
  5
D102
  8
0
 10
5011.9058891821414363
 20
311.1794435982217237
 30
0.0
 40
0.00778446
 50
0.0
 51
89.9999999966128428
  0
ARC
  5
D103
  8
0
 10
5011.9742860512196785
 20
311.1581266952873079
 30
0.0
 40
0.0078749049727388
 50
270.262912487871688
 51
356.0947132164686195
  0
ARC
  5
D104
  8
0
 10
5012.0672169491417662
 20
310.8274172276217087
 30
0.0
 40
0.0196850394
 50
89.9999999997915552
 51
180.0000000001986109
  0
ARC
  5
D105
  8
0
 10
5012.0672169491417662
 20
310.7093069914217267
 30
0.0
 40
0.0196850394
 50
179.9999999997980069
 51
269.9999999992182893
  0
ARC
  5
D106
  8
0
 10
5012.1459571066416174
 20
310.6778109284217066
 30
0.0
 40
0.0118110236
 50
0.0000000002019271
 51
90.0000000008858763
  0
ARC
  5
D107
  8
0
 10
5012.1459571066416174
 20
310.662062896921725
 30
0.0
 40
0.0118110236
 50
270.000000000885791
 51
359.9999999997980922
  0
ARC
  5
D108
  8
0
 10
5012.0672169491417662
 20
310.638440849621702
 30
0.0
 40
0.0118110236
 50
90.0000000009900987
 51
179.9999999991011066
  0
ARC
  5
D109
  8
0
 10
5012.0672169491417662
 20
310.6226928181217204
 30
0.0
 40
0.0118110236
 50
180.0000000008988934
 51
270.0
  0
ARC
  5
D10A
  8
0
 10
5012.1223350594418662
 20
310.5990707709216281
 30
0.0
 40
0.0118110236
 50
0.0
 51
90.0
  0
ARC
  5
D10B
  8
0
 10
5012.1223350594418662
 20
310.5833227394215896
 30
0.0
 40
0.0118110236
 50
270.0
 51
0.0
  0
ARC
  5
D10C
  8
0
 10
5012.0593429334412576
 20
310.5597006921216234
 30
0.0
 40
0.0118110236
 50
90.0000000002084306
 51
180.0000000008988934
  0
ARC
  5
D10D
  8
0
 10
5012.0357208861405525
 20
310.543952660621585
 30
0.0
 40
0.0118110236
 50
270.000000000104194
 51
359.9999999990001243
  0
ARC
  5
D10E
  8
0
 10
5012.1370510676406411
 20
311.1307907233216952
 30
0.0
 40
0.1572095156
 50
189.5048410183985084
 51
194.1243672442049899
  0
ARC
  5
D10F
  8
0
 10
5012.1370510676406411
 20
311.1307907232215939
 30
0.0
 40
0.1572095156
 50
165.8756327288936063
 51
170.1848060449968045
  0
ARC
  5
D110
  8
0
 10
5012.1329360287072632
 20
311.1307940963820897
 30
0.0
 40
0.1224583917113433
 50
150.8077219117105869
 51
209.1950028608366949
  0
ARC
  5
D111
  8
0
 10
5012.0278468704418628
 20
310.9455274638215769
 30
0.0
 40
0.0196850394
 50
180.0
 51
270.0
  0
ARC
  5
D112
  8
0
 10
5012.1380830909420183
 20
315.177810928421593
 30
0.0
 40
0.0885826772
 50
89.9999999887963043
 51
270.0000000112037242
  0
ARC
  5
D113
  8
0
 10
5009.1341460830417418
 20
365.6581258890216191
 30
0.0
 40
0.0118110236
 50
89.7229096702189537
 51
180.0
  0
ARC
  5
D114
  8
0
 10
5010.4884767917419595
 20
365.6581258890216191
 30
0.0
 40
0.0118110236
 50
0.0
 51
90.2771097443955739
  0
ARC
  5
D115
  8
0
 10
5012.4251697050412986
 20
310.5521416370215775
 30
0.0
 40
0.02
 50
269.999999999895806
 51
0.0
  0
ARC
  5
D116
  8
0
 10
5012.6971382090414409
 20
310.8274172276217087
 30
0.0
 40
0.0196850394
 50
89.9999999997915552
 51
180.0000000001986109
  0
ARC
  5
D117
  8
0
 10
5012.6971382090414409
 20
310.7093069914217267
 30
0.0
 40
0.0196850394
 50
179.9999999997980069
 51
269.9999999992182893
  0
ARC
  5
D118
  8
0
 10
5012.6971382090414409
 20
310.630566833921705
 30
0.0
 40
0.0196850394
 50
89.9999999997915552
 51
180.0000000001008971
  0
ARC
  5
D119
  8
0
 10
5012.6380830909420183
 20
310.5518266764216833
 30
0.0
 40
0.0196850394
 50
179.9999999997980069
 51
269.999999999895806
  0
ARC
  5
D11A
  8
0
 10
5012.5987130121420705
 20
310.8274172276217087
 30
0.0
 40
0.0196850394
 50
0.0
 51
90.0000000002084306
  0
ARC
  5
D11B
  8
0
 10
5012.4648547444412543
 20
310.8274172276217087
 30
0.0
 40
0.0196850394
 50
89.9999999997915552
 51
180.0000000001986109
  0
ARC
  5
D11C
  8
0
 10
5012.3664295476419284
 20
310.7093069914217267
 30
0.0
 40
0.0196850394
 50
270.000000000885791
 51
0.0
  0
ARC
  5
D11D
  8
0
 10
5012.3664295476419284
 20
310.8274172276217087
 30
0.0
 40
0.0196850394
 50
0.0
 51
90.0000000002084306
  0
ARC
  5
D11E
  8
0
 10
5012.5593429334421671
 20
310.7486770701215733
 30
0.0
 40
0.0196850394
 50
270.0
 51
0.0
  0
ARC
  5
D11F
  8
0
 10
5012.7758783665412921
 20
310.6778109284217066
 30
0.0
 40
0.0118110236
 50
0.0
 51
90.0000000008858763
  0
ARC
  5
D120
  8
0
 10
5012.7758783665412921
 20
310.662062896921725
 30
0.0
 40
0.0118110236
 50
270.0000000007817107
 51
0.0
  0
ARC
  5
D121
  8
0
 10
5012.6656421460411366
 20
310.543952660621585
 30
0.0
 40
0.0118110236
 50
269.999999999791612
 51
359.9999999987982164
  0
ARC
  5
D122
  8
0
 10
5012.3979256106422326
 20
310.543952660621585
 30
0.0
 40
0.0118110236
 50
180.000000000801208
 51
269.999999999895806
  0
ARC
  5
D123
  8
0
 10
5012.374303563340618
 20
310.5597006921216234
 30
0.0
 40
0.0118110236
 50
0.0
 51
89.9999999997915552
  0
ARC
  5
D124
  8
0
 10
5012.3113114373418284
 20
310.5833227394215896
 30
0.0
 40
0.0118110236
 50
180.0
 51
270.0
  0
ARC
  5
D125
  8
0
 10
5012.3113114373418284
 20
310.5990314008216728
 30
0.0
 40
0.0118110236
 50
90.0
 51
180.0
  0
ARC
  5
D126
  8
0
 10
5012.3664295476419284
 20
310.6226534480215946
 30
0.0
 40
0.0118110236
 50
270.000000000208388
 51
359.9999999991010782
  0
ARC
  5
D127
  8
0
 10
5012.3664295476419284
 20
310.638440849621702
 30
0.0
 40
0.0118110236
 50
0.0000000009998646
 51
89.9999999993225543
  0
ARC
  5
D128
  8
0
 10
5012.2876893901420772
 20
310.662062896921725
 30
0.0
 40
0.0118110236
 50
180.0000000001008971
 51
269.9999999990099013
  0
ARC
  5
D129
  8
0
 10
5012.2876893901420772
 20
310.6778109284217066
 30
0.0
 40
0.0118110236
 50
89.9999999992183461
 51
179.9999999997980069
  0
ARC
  5
D12A
  8
0
 10
5012.5317838783412299
 20
315.177810928421593
 30
0.0
 40
0.0885826772
 50
269.9999998651908868
 51
90.0000001348091132
  0
ARC
  5
D12B
  8
0
 10
5013.0550909649418827
 20
310.5521416370215775
 30
0.0
 40
0.02
 50
269.999999999895806
 51
0.0
  0
ARC
  5
D12C
  8
0
 10
5013.4569844139914494
 20
310.906161070271196
 30
0.0
 40
0.0196813544954972
 50
359.989271902058988
 51
90.0107283901033952
  0
ARC
  5
D12D
  8
0
 10
5013.4569807287416552
 20
310.5518266764216833
 30
0.0
 40
0.0196850394
 50
270.0
 51
359.9999999991010782
  0
ARC
  5
D12E
  8
0
 10
5013.437295689342136
 20
310.5518266764216833
 30
0.0
 40
0.0196850394
 50
180.000000000801208
 51
269.999999999895806
  0
ARC
  5
D12F
  8
0
 10
5013.3979256106413231
 20
310.8274172276217087
 30
0.0
 40
0.0196850394
 50
0.0000000008989011
 51
90.0000000002084306
  0
ARC
  5
D130
  8
0
 10
5013.0947760043418384
 20
310.8274172276217087
 30
0.0
 40
0.0196850394
 50
89.9999999997915552
 51
180.0000000001986109
  0
ARC
  5
D131
  8
0
 10
5012.9963508074406491
 20
310.630566833921705
 30
0.0
 40
0.0196850394
 50
0.0
 51
90.0000000002084306
  0
ARC
  5
D132
  8
0
 10
5012.9963508074406491
 20
310.7093069914217267
 30
0.0
 40
0.0196850394
 50
270.000000000885791
 51
0.0
  0
ARC
  5
D133
  8
0
 10
5012.9963508074406491
 20
310.8274172276217087
 30
0.0
 40
0.0196850394
 50
0.0
 51
90.0000000002084306
  0
ARC
  5
D134
  8
0
 10
5013.0278468704418628
 20
310.543952660621585
 30
0.0
 40
0.0118110236
 50
180.0000000008988934
 51
270.0
  0
ARC
  5
D135
  8
0
 10
5012.9176106499417074
 20
310.662062896921725
 30
0.0
 40
0.0118110236
 50
180.0000000008988934
 51
269.9999999991140953
  0
ARC
  5
D136
  8
0
 10
5012.9176106499417074
 20
310.6778109284217066
 30
0.0
 40
0.0118110236
 50
89.9999999991141237
 51
179.9999999991011066
  0
ARC
  5
D137
  8
0
 10
5012.0181398985751002
 20
311.053233120402524
 30
0.0
 40
0.0383065698483686
 50
157.3930554169131995
 51
222.7664907198706032
  0
ARC
  5
D138
  8
0
 10
5011.9921129935346471
 20
311.0531278500395729
 30
0.0
 40
0.0383698043048212
 50
320.1730885579013943
 51
27.8639913063238183
  0
ARC
  5
D139
  8
0
 10
5012.0052011337884323
 20
311.0420732991269119
 30
0.0
 40
0.0212384945486623
 50
224.366049584193604
 51
320.462117377907191
  0
ARC
  5
D13A
  8
0
 10
5012.0186144150584369
 20
311.2086336610631747
 30
0.0
 40
0.0388543954354192
 50
153.7519052523431071
 51
202.7263942938546961
  0
ARC
  5
D13B
  8
0
 10
5011.9910482671220961
 20
311.2086650620207138
 30
0.0
 40
0.0394078570206814
 50
332.5879195217491997
 51
23.0447565952734692
  0
ARC
  5
D13C
  8
0
 10
5012.0078741190172877
 20
311.2148157751133226
 30
0.0
 40
0.0264993820135869
 50
109.4707349601186053
 51
155.4703614113192032
  0
ARC
  5
D13D
  8
0
 10
5012.0018131676597477
 20
311.2141033087719961
 30
0.0
 40
0.0273846080515215
 50
21.39090719096016
 51
69.1560082471746114
  0
ARC
  5
D13E
  8
0
 10
5012.0051401913542577
 20
311.2206130264012813
 30
0.0
 40
0.020132718735628
 50
71.4132838097277016
 51
107.6342187084194961
  0
LINE
  5
D13F
  8
0
 10
5012.425260401541891
 20
311.1620628969216114
 30
0.0
 11
5012.425260401541891
 21
311.2408030543217023
 31
0.0
  0
LINE
  5
D140
  8
0
 10
5012.1380830909420183
 20
334.7742676213217123
 30
0.0
 11
5012.5317838781420505
 21
334.7742676213217123
 31
0.0
  0
LINE
  5
D141
  8
0
 10
5012.1380830909420183
 20
334.9514329756215716
 30
0.0
 11
5012.5317838783412299
 21
334.9514329756215716
 31
0.0
  0
ARC
  5
D142
  8
0
 10
5012.1380830909420183
 20
334.862850298521721
 30
0.0
 40
0.0885826772
 50
89.9999999887963043
 51
270.0000000112037242
  0
ARC
  5
D143
  8
0
 10
5012.5317838783412299
 20
334.862850298521721
 30
0.0
 40
0.0885826772
 50
269.9999998651908868
 51
90.0000001348091132
  0
LINE
  5
D144
  8
0
 10
5012.1380830909420183
 20
354.1049762826215783
 30
0.0
 11
5012.5317838781420505
 21
354.1049762826215783
 31
0.0
  0
LINE
  5
D145
  8
0
 10
5012.1380830909420183
 20
354.2821416369217218
 30
0.0
 11
5012.5317838783412299
 21
354.2821416369217218
 31
0.0
  0
ARC
  5
D146
  8
0
 10
5012.1380830909420183
 20
354.193558959821587
 30
0.0
 40
0.0885826772
 50
89.9999999887963043
 51
270.0000000112037242
  0
ARC
  5
D147
  8
0
 10
5012.5317838783412299
 20
354.193558959821587
 30
0.0
 40
0.0885826772
 50
269.9999998651908868
 51
90.0000001348091132
  0
LINE
  5
D148
  8
0
 10
5012.1380830909420183
 20
373.4356849440217161
 30
0.0
 11
5012.5317838781420505
 21
373.4356849440217161
 31
0.0
  0
LINE
  5
D149
  8
0
 10
5012.1380830909420183
 20
373.6128502983215753
 30
0.0
 11
5012.5317838783412299
 21
373.6128502983215753
 31
0.0
  0
ARC
  5
D14A
  8
0
 10
5012.1380830909420183
 20
373.5242676212216111
 30
0.0
 40
0.0885826772
 50
89.9999999887963043
 51
270.0000000112037242
  0
ARC
  5
D14B
  8
0
 10
5012.5317838783412299
 20
373.5242676212216111
 30
0.0
 40
0.0885826772
 50
269.9999998651908868
 51
90.0000001348091132
  0
LINE
  5
D14C
  8
0
 10
5012.1380830909420183
 20
393.1207243141216168
 30
0.0
 11
5012.5317838781420505
 21
393.1207243141216168
 31
0.0
  0
LINE
  5
D14D
  8
0
 10
5012.1380830909420183
 20
393.2978896684215897
 30
0.0
 11
5012.5317838783412299
 21
393.2978896684215897
 31
0.0
  0
ARC
  5
D14E
  8
0
 10
5012.1380830909420183
 20
393.2093069913216823
 30
0.0
 40
0.0885826772
 50
89.9999999887963043
 51
270.0000000112037242
  0
ARC
  5
D14F
  8
0
 10
5012.5317838783412299
 20
393.2093069913216823
 30
0.0
 40
0.0885826772
 50
269.9999998651908868
 51
90.0000001348091132
  0
ARC
  5
D150
  8
0
 10
5010.2221128711598794
 20
344.8851467469164049
 30
0.0
 40
0.0108942026177642
 50
183.383931246655294
 51
241.1727307214570999
  0
ARC
  5
D151
  8
0
 10
5010.2271398956581834
 20
344.8923016632630834
 30
0.0
 40
0.0196095742314179
 50
238.3837067472971114
 51
270.4940779293328887
  0
ARC
  5
D152
  8
0
 10
5010.2221128368173595
 20
345.9822858235024228
 30
0.0
 40
0.0108941541037523
 50
118.8272035429881015
 51
176.6162458372508866
  0
ARC
  5
D153
  8
0
 10
5010.2282353991040509
 20
345.9711997103642034
 30
0.0
 40
0.0235585733953655
 50
92.2536353552156925
 51
118.8720836063067026
  0
LINE
  5
D154
  8
0
 10
5011.5869019306919654
 20
362.5892284248216129
 30
0.0
 11
5010.2273089346908819
 21
362.5892284248216129
 31
0.0
  0
LINE
  5
D155
  8
0
 10
5010.2273089423915735
 20
363.7112756689215871
 30
0.0
 11
5011.5869019306919654
 21
363.7112756689215871
 31
0.0
  0
LINE
  5
D156
  8
0
 10
5010.2112376055920322
 20
362.6010393079216101
 30
0.0
 11
5010.2112376176919497
 21
363.6994644394216039
 31
0.0
  0
ARC
  5
D157
  8
0
 10
5010.2221128133087404
 20
362.6016823536164111
 30
0.0
 40
0.0108942026177642
 50
183.383931246655294
 51
241.1727307214570999
  0
ARC
  5
D158
  8
0
 10
5010.2271398378079539
 20
362.6088372699630895
 30
0.0
 40
0.0196095742314179
 50
238.3837067472971114
 51
270.4940779293328887
  0
ARC
  5
D159
  8
0
 10
5010.222112778968949
 20
363.6988214302023152
 30
0.0
 40
0.0108941541037523
 50
118.8272035429881015
 51
176.6162458372508866
  0
ARC
  5
D15A
  8
0
 10
5010.2282353412547309
 20
363.6877353170642095
 30
0.0
 40
0.0235585733953655
 50
92.2536353552156925
 51
118.8720836063067026
  0
LINE
  5
D15B
  8
0
 10
5015.4018504851419493
 20
342.9140314008216137
 30
0.0
 11
5014.0475440431418974
 21
342.9140314008216137
 31
0.0
  0
LINE
  5
D15C
  8
0
 10
5013.4767166771416669
 20
344.8726928181216067
 30
0.0
 11
5014.3086997089412762
 21
344.8726928181216067
 31
0.0
  0
LINE
  5
D15D
  8
0
 10
5014.3086997012424035
 20
345.994740062221581
 30
0.0
 11
5013.4767166771416669
 21
345.994740062221581
 31
0.0
  0
LINE
  5
D15E
  8
0
 10
5015.4136736420414309
 20
342.9258424244217167
 30
0.0
 11
5015.4136736420414309
 21
365.6581258890216191
 31
0.0
  0
LINE
  5
D15F
  8
0
 10
5014.3247710380419448
 20
344.8845037012217176
 30
0.0
 11
5014.3247710259411178
 21
345.9829288327217114
 31
0.0
  0
LINE
  5
D160
  8
0
 10
5014.0357208861405525
 20
342.9258424244217167
 30
0.0
 11
5014.0357208861405525
 21
344.8726928181216067
 31
0.0
  0
LINE
  5
D161
  8
0
 10
5014.0357208861405525
 20
345.994740062221581
 30
0.0
 11
5014.0357208861405525
 21
362.589228251221698
 31
0.0
  0
LINE
  5
D162
  8
0
 10
5014.0357208861405525
 20
363.7112754953216154
 30
0.0
 11
5014.0357208861405525
 21
365.6581258890216191
 31
0.0
  0
LINE
  5
D163
  8
0
 10
5015.4017554257416123
 20
365.6699369126217221
 30
0.0
 11
5014.0476391064412383
 21
365.6699369126217221
 31
0.0
  0
ARC
  5
D164
  8
0
 10
5014.0475319097413376
 20
342.9258424244217167
 30
0.0
 40
0.0118110236
 50
180.0
 51
270.0
  0
ARC
  5
D165
  8
0
 10
5015.4018626184415552
 20
342.9258424244217167
 30
0.0
 40
0.0118110236
 50
270.0
 51
0.0
  0
ARC
  5
D166
  8
0
 10
5015.4018626184415552
 20
365.6581258890216191
 30
0.0
 40
0.0118110236
 50
0.0
 51
90.2770903297810747
  0
ARC
  5
D167
  8
0
 10
5014.0475319097413376
 20
365.6581258890216191
 30
0.0
 40
0.0118110236
 50
89.7228902556043977
 51
180.0
  0
ARC
  5
D168
  8
0
 10
5014.3138958303234176
 20
344.8851467469164049
 30
0.0
 40
0.0108942026177642
 50
298.8272692785428717
 51
356.6160687533446207
  0
ARC
  5
D169
  8
0
 10
5014.3088688058251137
 20
344.8923016632630834
 30
0.0
 40
0.0196095742314179
 50
269.5059220706669976
 51
301.616293252702917
  0
ARC
  5
D16A
  8
0
 10
5014.3138958646650281
 20
345.9822858235024228
 30
0.0
 40
0.0108941541037523
 50
3.383754162749097
 51
61.1727964570118417
  0
ARC
  5
D16B
  8
0
 10
5014.3077733023792462
 20
345.9711997103642034
 30
0.0
 40
0.0235585733953655
 50
61.1279163936933116
 51
87.7463646447843075
  0
LINE
  5
D16C
  8
0
 10
5013.4767166771416669
 20
362.5892284248216129
 30
0.0
 11
5014.3086997667905962
 21
362.5892284248216129
 31
0.0
  0
LINE
  5
D16D
  8
0
 10
5014.3086997590917235
 20
363.7112756689215871
 30
0.0
 11
5013.4767166771416669
 21
363.7112756689215871
 31
0.0
  0
LINE
  5
D16E
  8
0
 10
5014.3247710958921743
 20
362.6010393079216101
 30
0.0
 11
5014.3247710837913473
 21
363.6994644394216039
 31
0.0
  0
ARC
  5
D16F
  8
0
 10
5014.3138958881727376
 20
362.6016823536164111
 30
0.0
 40
0.0108942026177642
 50
298.8272692785428717
 51
356.6160687533446207
  0
ARC
  5
D170
  8
0
 10
5014.3088688636753432
 20
362.6088372699630895
 30
0.0
 40
0.0196095742314179
 50
269.5059220706669976
 51
301.616293252702917
  0
ARC
  5
D171
  8
0
 10
5014.313895922516167
 20
363.6988214302023152
 30
0.0
 40
0.0108941541037523
 50
3.383754162749097
 51
61.1727964570118417
  0
ARC
  5
D172
  8
0
 10
5014.3077733602285662
 20
363.6877353170642095
 30
0.0
 40
0.0235585733953655
 50
61.1279163936933116
 51
87.7463646447843075
  0
LINE
  5
D173
  8
0
 10
5013.9491067129420117
 20
310.5321416370215957
 30
0.0
 11
5010.7995004137419528
 21
310.5321416370215957
 31
0.0
  0
LINE
  5
D174
  8
0
 10
5010.7995004137419528
 20
310.5321416370215957
 30
0.0
 11
5010.7995004137419528
 21
308.1699369126217221
 31
0.0
  0
LINE
  5
D175
  8
0
 10
5010.7995004137419528
 20
308.1699369126217221
 30
0.0
 11
5013.9491067129420117
 21
308.1699369126217221
 31
0.0
  0
LINE
  5
D176
  8
0
 10
5013.9491067129420117
 20
308.1699369126217221
 30
0.0
 11
5013.9491067129420117
 21
310.5321416370215957
 31
0.0
  0
LINE
  5
D177
  8
0
 10
5011.606587027941714
 20
397.2250550228217207
 30
0.0
 11
5013.4569807287416552
 21
397.2250550228217207
 31
0.0
  0
ARC
  5
D178
  8
0
 10
5013.4569446179866645
 20
397.20528280444762
 30
0.0
 40
0.0197722513492138
 50
0.2526272349887479
 51
89.8953586536066354
  0
ARC
  5
D179
  8
0
 10
5011.606587027941714
 20
397.20536998342169
 30
0.0
 40
0.0196850393999881
 50
89.9999999999478888
 51
180.0000000000194973
  0
LINE
  5
D17A
  8
0
 10
5011.5869019885412854
 20
397.1463148653215853
 30
0.0
 11
5013.4766657680420394
 21
397.1463148653215853
 31
0.0
  0
ARC
  5
D17B
  8
0
 10
5016.3362915182133293
 20
397.1764635838367781
 30
0.0
 40
0.022423503063467
 50
276.6043233483159725
 51
353.3681810372327732
  0
LINE
  5
D17C
  8
0
 10
5016.3585649807419031
 20
397.1738739204211015
 30
0.0
 11
5016.3585649807419031
 21
397.9219044064072932
 31
0.0
  0
ARC
  5
D17D
  8
0
 10
5016.3383904112506571
 20
397.9214156788281116
 30
0.0
 40
0.0201804883196571
 50
1.387714960626947
 51
88.6368403722947136
  0
LINE
  5
D17E
  8
0
 10
5016.3388704925419006
 20
397.9415904559215846
 30
0.0
 11
5011.5947760043418384
 21
397.9415904559215846
 31
0.0
  0
LINE
  5
D17F
  8
0
 10
5011.5947760043418384
 20
397.9415904559215846
 30
0.0
 11
5011.5947760043418384
 21
397.2211180149716938
 31
0.0
  0
ARC
  5
D180
  8
0
 10
5014.8034374216413198
 20
397.9219054165217244
 30
0.0
 40
0.0196850394000023
 50
89.9999999995831246
 51
179.9999999984887893
  0
LINE
  5
D181
  8
0
 10
5014.7837523822418007
 20
397.9219054165221792
 30
0.0
 11
5014.7837523822418007
 21
397.1738739204217268
 31
0.0
  0
ARC
  5
D182
  8
0
 10
5014.8034374216413198
 20
397.1738739204217268
 30
0.0
 40
0.0196850394000165
 50
180.0000000000194973
 51
270.0000000003647074
  0
LINE
  5
D183
  8
0
 10
5013.4767166771416669
 20
397.1541888811216268
 30
0.0
 11
5016.3388704925419006
 21
397.1541888811216268
 31
0.0
  0
LINE
  5
D184
  8
0
 10
5015.6912326970414142
 20
397.644346361421583
 30
0.0
 11
5015.4550122248419939
 21
397.644346361421583
 31
0.0
  0
ARC
  5
D185
  8
0
 10
5015.4550122248419939
 20
397.5459211645717232
 30
0.0
 40
0.0984251968499948
 50
90.0
 51
270.0000000582070925
  0
LINE
  5
D186
  8
0
 10
5015.4550122249411288
 20
397.447495967721693
 30
0.0
 11
5015.6937330976943485
 21
397.447495967964187
 31
0.0
  0
ARC
  5
D187
  8
0
 10
5015.691216613024153
 20
397.5459050803045216
 30
0.0
 40
0.0984412824311476
 50
271.4648291387587165
 51
89.9906385030364646
  0
LINE
  5
D188
  8
0
 10
5016.2050122248419939
 20
397.8033834663215771
 30
0.0
 11
5014.9412326972424125
 21
397.8037951803216856
 31
0.0
  0
ARC
  5
D189
  8
0
 10
5014.94122628633977
 20
397.7841165518236721
 30
0.0
 40
0.0196786295422638
 50
89.9813341858882438
 51
180.018665813763306
  0
LINE
  5
D18A
  8
0
 10
5014.9215476578410744
 20
397.7841101409217117
 30
0.0
 11
5014.9215476578410744
 21
397.3116692210924725
 31
0.0
  0
ARC
  5
D18B
  8
0
 10
5014.9412326972424125
 20
397.3116691960217963
 30
0.0
 40
0.0196850394000467
 50
179.9999270283790054
 51
270.0000000002606271
  0
LINE
  5
D18C
  8
0
 10
5014.9412326972424125
 20
397.2919841566217087
 30
0.0
 11
5016.2010331045503335
 21
397.2919841567216963
 31
0.0
  0
ARC
  5
D18D
  8
0
 10
5016.2010751404122857
 20
397.3116692277693005
 30
0.0
 40
0.0196851159295717
 50
269.8776497269053039
 51
359.999907595114621
  0
LINE
  5
D18E
  8
0
 10
5016.220760256342146
 20
397.3116691960216258
 30
0.0
 11
5016.220760256342146
 21
397.7841101409217117
 31
0.0
  0
ARC
  5
D18F
  8
0
 10
5016.2011217972440136
 20
397.7841342006810805
 30
0.0
 40
0.0196384738354972
 50
359.9298049821758241
 51
78.5739891369565555
  0
LINE
  5
D190
  8
0
 10
5014.9530437208413787
 20
397.7919841567215826
 30
0.0
 11
5016.1932012011411643
 21
397.7919841567215826
 31
0.0
  0
ARC
  5
D191
  8
0
 10
5016.1932012011411643
 20
397.772299117321495
 30
0.0
 40
0.0196850394001444
 50
0.0000000004136248
 51
90.0
  0
LINE
  5
D192
  8
0
 10
5016.2128862405406835
 20
397.7722991173216087
 30
0.0
 11
5016.212886240545231
 21
397.3195432118217241
 31
0.0
  0
ARC
  5
D193
  8
0
 10
5016.1932012011438928
 20
397.3195432118214967
 30
0.0
 40
0.0196850393998531
 50
269.9999999900470016
 51
0.0000000003940834
  0
LINE
  5
D194
  8
0
 10
5016.1932012011411643
 20
397.2998581724215796
 30
0.0
 11
5014.9530437208413787
 21
397.2998581726374141
 31
0.0
  0
ARC
  5
D195
  8
0
 10
5014.9530437208450167
 20
397.319543212041026
 30
0.0
 40
0.0196850394035622
 50
180.0000006379754893
 51
269.9999999900470016
  0
LINE
  5
D196
  8
0
 10
5014.9333586814418595
 20
397.3195432118217809
 30
0.0
 11
5014.9333586764014399
 21
397.7722991173216087
 31
0.0
  0
ARC
  5
D197
  8
0
 10
5014.9530437155808613
 20
397.7722991175407969
 30
0.0
 40
0.0196850391808212
 50
89.9999846882491852
 51
180.0000006379949866
  0
ENDSEC
  0
EOF
