  0
SECTION
  2
HEADER
  9
$ACADVER
  1
AC1009
  9
$INSBASE
 10
864.8057454948068425
 20
67.3054706688965041
 30
0.0
  9
$EXTMIN
 10
834.7142175599765324
 20
67.2975929020159356
 30
-0.0000000000112498
  9
$EXTMAX
 10
894.9335871871048766
 20
145.3564125685360864
 30
0.0000000000002956
  9
$LIMMIN
 10
0.0
 20
0.0
  9
$LIMMAX
 10
11.6929133858000007
 20
8.2677165353999982
  9
$ORTHOMODE
 70
     0
  9
$REGENMODE
 70
     1
  9
$FILLMODE
 70
     1
  9
$QTEXTMODE
 70
     0
  9
$MIRRTEXT
 70
     0
  9
$DRAGMODE
 70
     2
  9
$LTSCALE
 40
0.6431102362
  9
$OSMODE
 70
  4095
  9
$ATTMODE
 70
     1
  9
$TEXTSIZE
 40
0.2
  9
$TRACEWID
 40
0.05
  9
$TEXTSTYLE
  7
STANDARD
  9
$CLAYER
  8
0
  9
$CELTYPE
  6
BYLAYER
  9
$CECOLOR
 62
   256
  9
$DIMSCALE
 40
1.0
  9
$DIMASZ
 40
0.1875
  9
$DIMEXO
 40
0.0625
  9
$DIMDLI
 40
0.4443307087
  9
$DIMRND
 40
0.0
  9
$DIMDLE
 40
0.0
  9
$DIMEXE
 40
0.125
  9
$DIMTP
 40
0.01
  9
$DIMTM
 40
0.01
  9
$DIMTXT
 40
1.0
  9
$DIMCEN
 40
0.1052362205
  9
$DIMTSZ
 40
0.0
  9
$DIMTOL
 70
     1
  9
$DIMLIM
 70
     0
  9
$DIMTIH
 70
     1
  9
$DIMTOH
 70
     1
  9
$DIMSE1
 70
     0
  9
$DIMSE2
 70
     0
  9
$DIMTAD
 70
     0
  9
$DIMZIN
 70
     0
  9
$DIMBLK
  1

  9
$DIMASO
 70
     1
  9
$DIMSHO
 70
     1
  9
$DIMPOST
  1
\X
  9
$DIMAPOST
  1

  9
$DIMALT
 70
     1
  9
$DIMALTD
 70
     2
  9
$DIMALTF
 40
25.3999999999999986
  9
$DIMLFAC
 40
1.0
  9
$DIMTOFL
 70
     0
  9
$DIMTVP
 40
0.0
  9
$DIMTIX
 70
     0
  9
$DIMSOXD
 70
     0
  9
$DIMSAH
 70
     0
  9
$DIMBLK1
  1

  9
$DIMBLK2
  1

  9
$DIMSTYLE
  2
STANDARD
  9
$DIMCLRD
 70
     0
  9
$DIMCLRE
 70
     0
  9
$DIMCLRT
 70
     0
  9
$DIMTFAC
 40
1.0
  9
$DIMGAP
 40
0.09
  9
$LUNITS
 70
     2
  9
$LUPREC
 70
     4
  9
$SKETCHINC
 40
0.1
  9
$FILLETRAD
 40
0.0
  9
$AUNITS
 70
     0
  9
$AUPREC
 70
     0
  9
$MENU
  1
.
  9
$ELEVATION
 40
0.0
  9
$PELEVATION
 40
0.0
  9
$THICKNESS
 40
0.0
  9
$LIMCHECK
 70
     0
  9
$BLIPMODE
 70
     0
  9
$CHAMFERA
 40
0.0
  9
$CHAMFERB
 40
0.0
  9
$SKPOLY
 70
     0
  9
$TDCREATE
 40
2458172.4620254631154239
  9
$TDUPDATE
 40
2460705.740104166790843
  9
$TDINDWG
 40
0.1743462153
  9
$TDUSRTIMER
 40
0.1743462153
  9
$USRTIMER
 70
     1
  9
$ANGBASE
 50
0.0
  9
$ANGDIR
 70
     0
  9
$PDMODE
 70
     0
  9
$PDSIZE
 40
0.3125
  9
$PLINEWID
 40
0.0
  9
$COORDS
 70
     1
  9
$SPLFRAME
 70
     0
  9
$SPLINETYPE
 70
     6
  9
$SPLINESEGS
 70
     8
  9
$ATTDIA
 70
     1
  9
$ATTREQ
 70
     1
  9
$HANDLING
 70
     1
  9
$HANDSEED
  5
A0E2
  9
$SURFTAB1
 70
     6
  9
$SURFTAB2
 70
     6
  9
$SURFTYPE
 70
     6
  9
$SURFU
 70
     6
  9
$SURFV
 70
     6
  9
$UCSNAME
  2

  9
$UCSORG
 10
0.0
 20
0.0
 30
0.0
  9
$UCSXDIR
 10
1.0
 20
0.0
 30
0.0
  9
$UCSYDIR
 10
0.0
 20
1.0
 30
0.0
  9
$PUCSNAME
  2

  9
$PUCSORG
 10
0.0
 20
0.0
 30
0.0
  9
$PUCSXDIR
 10
1.0
 20
0.0
 30
0.0
  9
$PUCSYDIR
 10
0.0
 20
1.0
 30
0.0
  9
$USERI1
 70
     0
  9
$USERI2
 70
     0
  9
$USERI3
 70
     0
  9
$USERI4
 70
     0
  9
$USERI5
 70
     0
  9
$USERR1
 40
0.0
  9
$USERR2
 40
0.0
  9
$USERR3
 40
0.0
  9
$USERR4
 40
0.0
  9
$USERR5
 40
0.0
  9
$WORLDVIEW
 70
     1
  9
$SHADEDGE
 70
     3
  9
$SHADEDIF
 70
    70
  9
$TILEMODE
 70
     1
  9
$MAXACTVP
 70
    64
  9
$PLIMCHECK
 70
     0
  9
$PEXTMIN
 10
1.0000000000000000E+20
 20
1.0000000000000000E+20
 30
1.0000000000000000E+20
  9
$PEXTMAX
 10
-1.0000000000000000E+20
 20
-1.0000000000000000E+20
 30
-1.0000000000000000E+20
  9
$PLIMMIN
 10
0.0
 20
0.0
  9
$PLIMMAX
 10
12.0
 20
9.0
  9
$UNITMODE
 70
     0
  9
$VISRETAIN
 70
     1
  9
$PLINEGEN
 70
     0
  9
$PSLTSCALE
 70
     1
  0
ENDSEC
  0
SECTION
  2
TABLES
  0
TABLE
  2
VPORT
 70
     1
  0
VPORT
  2
*ACTIVE
 70
     0
 10
0.0
 20
0.0
 11
1.0
 21
1.0
 12
740.2127437734681052
 22
101.0147285648982063
 13
0.0
 23
0.0
 14
1.0
 24
1.0
 15
0.0
 25
0.0
 16
0.0
 26
0.0
 36
30.6214257250603907
 17
124.6111586000725993
 27
5.3122741703778242
 37
0.0
 40
78.6075650293968806
 41
2.1449438202247189
 42
50.0
 43
0.0
 44
0.0
 50
0.0
 51
0.0
 71
     0
 72
   100
 73
     1
 74
     1
 75
     0
 76
     0
 77
     0
 78
     0
  0
ENDTAB
  0
TABLE
  2
LTYPE
 70
     2
  0
LTYPE
  2
CONTINUOUS
 70
     0
  3
Solid line
 72
    65
 73
     0
 40
0.0
  0
LTYPE
  2
PHANTOM2
 70
     0
  3
___ _ _ ___ _ _ ___ _ _ ___ _ _
 72
    65
 73
     6
 40
1.25
 49
0.625
 49
-0.125
 49
0.125
 49
-0.125
 49
0.125
 49
-0.125
  0
ENDTAB
  0
TABLE
  2
LAYER
 70
     2
  0
LAYER
  2
0
 70
     0
 62
   255
  6
CONTINUOUS
  0
LAYER
  2
DEFPOINTS
 70
     0
 62
     7
  6
CONTINUOUS
  0
ENDTAB
  0
TABLE
  2
STYLE
 70
     1
  0
STYLE
  2
STANDARD
 70
     0
 40
0.0
 41
0.8
 50
0.0
 71
     0
 42
0.2
  3
txt
  4

  0
ENDTAB
  0
TABLE
  2
VIEW
 70
     0
  0
ENDTAB
  0
TABLE
  2
UCS
 70
     0
  0
ENDTAB
  0
TABLE
  2
APPID
 70
     9
  0
APPID
  2
ACAD
 70
     0
  0
APPID
  2
ACAD_MLEADERVER
 70
     0
  0
APPID
  2
ACAD_EXEMPT_FROM_CAD_STANDARDS
 70
     0
  0
APPID
  2
ACAD_DSTYLE_DIMJAG
 70
     0
  0
APPID
  2
ACAD_DSTYLE_DIMTALN
 70
     0
  0
APPID
  2
ACAD_NAV_VCDISPLAY
 70
     0
  0
APPID
  2
ACAECLAYERSTANDARD
 70
     0
  0
APPID
  2
ACCMTRANSPARENCY
 70
     0
  0
APPID
  2
ACDBATTR
 70
     0
  0
ENDTAB
  0
TABLE
  2
DIMSTYLE
 70
     1
  0
DIMSTYLE
  2
STANDARD
 70
     0
  3

  4

  5

  6

  7

 40
1.0
 41
0.1875
 42
0.0625
 43
0.38
 44
0.125
 45
0.0
 46
0.0
 47
0.01
 48
0.01
140
0.15625
141
0.09
142
0.0
143
25.3999999999999986
144
1.0
145
0.0
146
1.0
147
0.09
 71
     1
 72
     0
 73
     1
 74
     1
 75
     0
 76
     0
 77
     0
 78
     4
170
     0
171
     2
172
     0
173
     0
174
     0
175
     0
176
     0
177
     0
178
     0
  0
ENDTAB
  0
ENDSEC
  0
SECTION
  2
BLOCKS
  0
BLOCK
  8
0
  2
$MODEL_SPACE
 70
     0
 10
0.0
 20
0.0
 30
0.0
  3
$MODEL_SPACE
  1

  0
ENDBLK
  5
21
  8
0
  0
BLOCK
 67
     1
  8
0
  2
$PAPER_SPACE
 70
     0
 10
0.0
 20
0.0
 30
0.0
  3
$PAPER_SPACE
  1

  0
ENDBLK
  5
1D
 67
     1
  8
0
  0
BLOCK
  8
0
  2
_FILLED
 70
     0
 10
0.0
 20
0.0
 30
0.0
  3
_FILLED
  1

  0
SOLID
  5
9A23
  8
0
  6
BYBLOCK
 62
     0
 10
0.0
 20
0.0
 30
0.0
 11
-1.0
 21
0.1666666667
 31
0.0
 12
-1.0
 22
-0.1666666667
 32
0.0
 13
-1.0
 23
-0.1666666667
 33
0.0
  0
ENDBLK
  5
9A24
  8
0
  6
BYBLOCK
 62
     0
  0
BLOCK
  8
0
  2
A$C9C27D2B2
 70
     0
 10
0.0
 20
0.0
 30
0.0
  3
A$C9C27D2B2
  1

  0
LINE
  5
9EC2
  8
0
 10
0.000000137475439
 20
21.6458556187681488
 30
0.0
 11
59.1366803062753803
 21
21.6458556187681488
 31
0.0
  0
LINE
  5
9EC3
  8
0
 10
0.000000137475439
 20
21.6458556187681417
 30
0.0
 11
0.000000137475439
 21
99.6378556187681568
 31
0.0
  0
LINE
  5
9EC4
  8
0
 10
1.5748032374757199
 20
99.6378556187681568
 30
0.0
 11
1.5748032374757199
 21
21.6458556187681488
 31
0.0
  0
LINE
  5
9EC5
  8
0
 10
30.7300658555335104
 20
95.0704620912681548
 30
0.0
 11
31.2600657489332114
 21
95.0704620912681548
 31
0.0
  0
LINE
  5
9EC6
  8
0
 10
31.2600657489332114
 20
95.0704620912681548
 30
0.0
 11
31.2600659318026715
 21
23.0703124849681416
 31
0.0
  0
LINE
  5
9EC7
  8
0
 10
30.7300658781148215
 20
23.0703124849681416
 30
0.0
 11
30.7300658555335104
 21
95.0704620912681548
 31
0.0
  0
LINE
  5
9EC8
  8
0
 10
30.724002785383469
 20
21.6458556171182614
 30
0.0
 11
30.724002785383469
 21
23.0041233336182493
 31
0.0
  0
ARC
  5
9EC9
  8
0
 10
30.7633728641834203
 20
23.0041233336182493
 30
0.0
 40
0.039370078799994
 50
90.0000001455437939
 51
180.0
  0
LINE
  5
9ECA
  8
0
 10
30.7633728640833688
 20
23.0434934124182398
 30
0.0
 11
32.0625854624834901
 21
23.04349341571805
 31
0.0
  0
ARC
  5
9ECB
  8
0
 10
32.0625854625835416
 20
23.0041233371180311
 30
0.0
 40
0.0393700786000082
 50
359.9999949067221792
 51
90.0000001455437939
  0
LINE
  5
9ECC
  8
0
 10
32.1019555411833934
 20
23.0041233336182493
 30
0.0
 11
32.1019554204407029
 21
21.6458556171182614
 31
0.0
  0
ARC
  5
9ECD
  8
0
 10
32.0665520790292575
 20
22.9450733249902186
 30
0.0
 40
0.0393404704856525
 50
359.9925585236654229
 51
25.8518377655556684
  0
LINE
  5
9ECE
  8
0
 10
32.1058925491837073
 20
22.9450682155182513
 30
0.0
 11
32.1058925491837073
 21
22.6301066171182406
 31
0.0
  0
LINE
  5
9ECF
  8
0
 10
59.8807747944754425
 20
97.6322731152681342
 30
0.0
 11
59.8807747944754425
 21
96.3724305955681615
 31
0.0
  0
LINE
  5
9ED0
  8
0
 10
59.8807747944754425
 20
96.3724305955681615
 30
0.0
 11
58.4240818810756224
 21
96.3724305955681615
 31
0.0
  0
LINE
  5
9ED1
  8
0
 10
58.4240818810756224
 20
96.3724305955681615
 30
0.0
 11
58.4240818810756224
 21
97.6322731152681342
 31
0.0
  0
LINE
  5
9ED2
  8
0
 10
58.4240818810756224
 20
97.6322731152681342
 30
0.0
 11
58.5393515391758825
 21
97.6321311788681498
 31
0.0
  0
ARC
  5
9ED3
  8
0
 10
58.6209408842739919
 20
98.2566680507336656
 30
0.0
 40
0.6298437310581328
 50
262.5570446359359948
 51
277.5419747063680802
  0
LINE
  5
9ED4
  8
0
 10
58.7036094400753115
 20
97.6322731152681342
 30
0.0
 11
59.0106960542759822
 21
97.6322731152681342
 31
0.0
  0
ARC
  5
9ED5
  8
0
 10
59.0933649582891718
 20
98.2571760213333221
 30
0.0
 40
0.630347356383328
 50
262.4640541424485036
 51
277.3396622021743951
  0
LINE
  5
9ED6
  8
0
 10
59.1738925914758198
 20
97.631993575968167
 30
0.0
 11
59.8807747944754425
 21
97.6322731152681342
 31
0.0
  0
CIRCLE
  5
9ED7
  8
0
 10
54.9961850306754272
 20
98.4354227369681922
 30
0.0
 40
1.0826771653999989
  0
CIRCLE
  5
9ED8
  8
0
 10
54.9961850306754272
 20
98.4354227369681922
 30
0.0
 40
0.6102362204999988
  0
CIRCLE
  5
9ED9
  8
0
 10
33.4690039282754412
 20
96.0728085638681506
 30
0.0
 40
0.6300000000000008
  0
LINE
  5
9EDA
  8
0
 10
31.1570657489331388
 20
95.0704620912681548
 30
0.0
 11
31.1570657774830906
 21
99.5574620912681354
 31
0.0
  0
LINE
  5
9EDB
  8
0
 10
31.2200657604901899
 20
95.0704620912681548
 30
0.0
 11
31.2200657489332407
 21
99.6204620912681378
 31
0.0
  0
LINE
  5
9EDC
  8
0
 10
55.5317338838731587
 20
97.4944778553681601
 30
0.0
 11
58.4240818810756224
 21
97.4944778553681459
 31
0.0
  0
LINE
  5
9EDD
  8
0
 10
58.4240818810756224
 20
96.5102258553681338
 30
0.0
 11
55.4352941361289027
 21
96.5102258553681622
 31
0.0
  0
LINE
  5
9EDE
  8
0
 10
32.1019555079359122
 20
22.6301066187681492
 30
0.0
 11
59.1366803062753803
 21
22.6301066187681492
 31
0.0
  0
LINE
  5
9EDF
  8
0
 10
59.1366803062753803
 20
22.5907365187681499
 30
0.0
 11
32.10195550443526
 21
22.5907365187681499
 31
0.0
  0
LINE
  5
9EE0
  8
0
 10
30.7240027853334396
 20
21.7700760912681517
 30
0.0
 11
1.5748032374757199
 21
21.7700760912681517
 31
0.0
  0
LINE
  5
9EE1
  8
0
 10
1.5748032374757199
 20
21.73314527586815
 30
0.0
 11
30.7240027853334396
 21
21.73314527586815
 31
0.0
  0
ARC
  5
9EE2
  8
0
 10
58.3426417236569606
 20
66.3295802172408173
 30
0.0
 40
0.4921259842000048
 50
0.0
 51
180.0000000011993109
  0
ARC
  5
9EE3
  8
0
 10
58.3426417236069312
 20
55.6996589574908398
 30
0.0
 40
0.4921259842500021
 50
180.0000000058209082
 51
359.9999999941783244
  0
LINE
  5
9EE4
  8
0
 10
57.8505157393565526
 20
55.6996589574954726
 30
0.0
 11
57.8505157393565526
 21
66.3295802172408457
 31
0.0
  0
LINE
  5
9EE5
  8
0
 10
58.8347677079573472
 20
66.329580217236213
 30
0.0
 11
58.8347677078573099
 21
55.6996589574862
 31
0.0
  0
CIRCLE
  5
9EE6
  8
0
 10
3.425270416475434
 20
97.0022022486681408
 30
0.0
 40
0.5905511953000016
  0
CIRCLE
  5
9EE7
  8
0
 10
3.425270416475434
 20
97.0022022486681408
 30
0.0
 40
0.2893700929000005
  0
CIRCLE
  5
9EE8
  8
0
 10
28.8578610530833686
 20
97.0023518550681558
 30
0.0
 40
0.5905511953000016
  0
CIRCLE
  5
9EE9
  8
0
 10
28.8578610530833686
 20
97.0023518550681558
 30
0.0
 40
0.2893700929000005
  0
CIRCLE
  5
9EEA
  8
0
 10
33.4690039282754412
 20
98.4352731307681381
 30
0.0
 40
1.0826771653999989
  0
CIRCLE
  5
9EEB
  8
0
 10
33.4690039282754412
 20
98.4352731307681381
 30
0.0
 40
0.6102362204999988
  0
CIRCLE
  5
9EEC
  8
0
 10
54.9171850306754266
 20
96.1518085638681441
 30
0.0
 40
0.6300000000000008
  0
LINE
  5
9EED
  8
0
 10
59.8807747944754425
 20
21.6340436268681486
 30
0.0
 11
59.1366803062753803
 21
21.6340436268681486
 31
0.0
  0
LINE
  5
9EEE
  8
0
 10
59.1366803062753803
 20
21.6340436268681486
 30
0.0
 11
59.1366803062753803
 21
22.6901066187681408
 31
0.0
  0
LINE
  5
9EEF
  8
0
 10
59.1366803062753803
 20
22.6901066187681408
 30
0.0
 11
59.8807747944754425
 21
22.6901066187681408
 31
0.0
  0
LINE
  5
9EF0
  8
0
 10
59.1366803062753803
 20
21.6576666187681504
 30
0.0
 11
32.1019554214911622
 21
21.6576686510088301
 31
0.0
  0
LINE
  5
9EF1
  8
0
 10
30.724002785383469
 20
21.6537296345681511
 30
0.0
 11
1.5748032374757199
 21
21.6537296345681511
 31
0.0
  0
LINE
  5
9EF2
  8
0
 10
0.000000137475439
 20
99.6378556187681568
 30
0.0
 11
1.6148032374756831
 21
99.6378556187681568
 31
0.0
  0
LINE
  5
9EF3
  8
0
 10
1.6148032374756831
 20
99.6378556187681568
 30
0.0
 11
1.6148032374756831
 21
99.6204620912681378
 31
0.0
  0
LINE
  5
9EF4
  8
0
 10
31.1570657774830906
 20
99.5574620912681354
 30
0.0
 11
31.2200657489332407
 21
99.620462062718147
 31
0.0
  0
LINE
  5
9EF5
  8
0
 10
31.2200657489332407
 20
99.620462062718147
 30
0.0
 11
1.5748032374757199
 21
99.620462062718147
 31
0.0
  0
LINE
  5
9EF6
  8
0
 10
1.5748032374757199
 20
99.5574620912681354
 30
0.0
 11
31.1570657774830906
 21
99.5574620912681354
 31
0.0
  0
LINE
  5
9EF7
  8
0
 10
28.7445944794754418
 20
99.6204620912681378
 30
0.0
 11
28.7445944794754418
 21
99.6755802174681378
 31
0.0
  0
LINE
  5
9EF8
  8
0
 10
28.7445944794754418
 20
99.6755802174681378
 30
0.0
 11
60.1345944794754388
 21
99.6755802174681378
 31
0.0
  0
LINE
  5
9EF9
  8
0
 10
54.4606361773767489
 20
97.4944778553681601
 30
0.0
 11
34.0045527810466126
 21
97.4943282488681717
 31
0.0
  0
LINE
  5
9EFA
  8
0
 10
32.9334550755042628
 20
97.4943282488681291
 30
0.0
 11
31.2200657774831889
 21
97.4944778551681424
 31
0.0
  0
LINE
  5
9EFB
  8
0
 10
31.2200657774831889
 20
96.5102258551681587
 30
0.0
 11
33.0154656480221718
 21
96.5100762488681454
 31
0.0
  0
LINE
  5
9EFC
  8
0
 10
33.9225422085286965
 20
96.5100762488681454
 30
0.0
 11
54.3990752046211128
 21
96.5102248137034024
 31
0.0
  0
LINE
  5
9EFD
  8
0
 10
59.8805944794754268
 20
22.6901066187681408
 30
0.0
 11
59.880594479475441
 21
21.6340436266681415
 31
0.0
  0
LINE
  5
9EFE
  8
0
 10
59.2305944794754424
 20
99.6755802174681378
 30
0.0
 11
59.2305944794754424
 21
97.6320159989489866
 31
0.0
  0
LINE
  5
9EFF
  8
0
 10
59.2305944794754424
 20
96.3724305955681615
 30
0.0
 11
59.2305944794754424
 21
22.6901066187681408
 31
0.0
  0
LINE
  5
9F00
  8
0
 10
60.1345944794754388
 20
99.6755802174681378
 30
0.0
 11
60.1345944794754388
 21
22.3454306110681387
 31
0.0
  0
LINE
  5
9F01
  8
0
 10
59.8805944794754268
 20
22.3454306110681387
 30
0.0
 11
60.1345944794754388
 21
22.3454306110681387
 31
0.0
  0
LINE
  5
9F02
  8
0
 10
30.0673014605839413
 20
21.6340436268681593
 30
0.0
 11
57.06758379747248
 21
-0.0000001066654818
 31
0.0
  0
LINE
  5
9F03
  8
0
 10
32.8496260734437868
 20
97.5472636052433728
 30
0.0
 11
32.8539090590754412
 21
97.4943282488681291
 31
0.0
  0
LINE
  5
9F04
  8
0
 10
32.9335446262754417
 20
96.5100762488681454
 30
0.0
 11
32.9411069873754414
 21
96.4166096069681373
 31
0.0
  0
LINE
  5
9F05
  8
0
 10
34.0044632303754426
 20
96.5100762488681454
 30
0.0
 11
33.9968800011754411
 21
96.4163516881681346
 31
0.0
  0
LINE
  5
9F06
  8
0
 10
34.0883817832130518
 20
97.5472636053172835
 30
0.0
 11
34.084098797575443
 21
97.4943282488681291
 31
0.0
  0
LINE
  5
9F07
  8
0
 10
54.3818857998754268
 20
97.5439198693681391
 30
0.0
 11
54.3858982446754595
 21
97.4943282489677756
 31
0.0
  0
LINE
  5
9F08
  8
0
 10
55.5268362495754388
 20
96.5100762489681472
 30
0.0
 11
55.5141176432754335
 21
96.3528812406681396
 31
0.0
  0
LINE
  5
9F09
  8
0
 10
55.6104842615754364
 20
97.5439198693681391
 30
0.0
 11
55.6064718167754393
 21
97.4943282489681451
 31
0.0
  0
LINE
  5
9F0A
  8
0
 10
59.7205944794754302
 20
99.6755802174681378
 30
0.0
 11
59.7205944794754302
 21
97.6322097713433124
 31
0.0
  0
LINE
  5
9F0B
  8
0
 10
59.7205944794754302
 20
96.3724305955681615
 30
0.0
 11
59.7205944794754302
 21
22.6901066187681408
 31
0.0
  0
LINE
  5
9F0C
  8
0
 10
30.7300658781148215
 20
23.0703124849681416
 30
0.0
 11
31.2600659318026715
 21
23.0703124849681416
 31
0.0
  0
LINE
  5
9F0D
  8
0
 10
31.1570656920754416
 20
23.0703124849681416
 30
0.0
 11
31.1570656920754416
 21
23.0434934134181617
 31
0.0
  0
LINE
  5
9F0E
  8
0
 10
31.2200656920754405
 20
23.0703124849681416
 30
0.0
 11
31.2200656920754405
 21
23.0434934135781795
 31
0.0
  0
ENDBLK
  5
9F12
  8
0
  0
ENDSEC
  0
SECTION
  2
ENTITIES
  0
ATTDEF
  5
7EBB
  8
DEFPOINTS
 10
864.7968560327583418
 20
67.3037902533919663
 30
0.0
 40
0.001
  1
K-701696-L
  3

  2
MODELNUMBER
 70
     0
1001
ACDBATTR
1070
     0
1070
     1
  0
ATTDEF
  5
7EBC
  8
DEFPOINTS
 10
864.7968560327583418
 20
67.3021235867253012
 30
0.0
 40
0.001
  1
COMPOSED
  3

  2
TRADENAME
 70
     0
1001
ACDBATTR
1070
     0
1070
     1
  0
ATTDEF
  5
7EBD
  8
DEFPOINTS
 10
864.7968560327583418
 20
67.300456920058636
 30
0.0
 40
0.001
  1
SHOWER DOOR
  3

  2
PRODUCT
 70
     0
1001
ACDBATTR
1070
     0
1070
     1
  0
LINE
  5
9E74
  8
0
 10
834.7384441716982337
 20
67.3172826607964794
 30
0.0
 11
893.8751243404981324
 21
67.3172826607964794
 31
0.0
  0
LINE
  5
9E75
  8
0
 10
834.7384441716982337
 20
67.3172826607964794
 30
0.0
 11
834.7384441716982337
 21
145.309282660796498
 31
0.0
  0
LINE
  5
9E76
  8
0
 10
836.3132472716985149
 20
145.309282660796498
 30
0.0
 11
836.3132472716985149
 21
67.3172826607964794
 31
0.0
  0
LINE
  5
9E77
  8
0
 10
865.4685098897562057
 20
140.7418891332964961
 30
0.0
 11
865.9985097831560097
 21
140.7418891332964961
 31
0.0
  0
LINE
  5
9E78
  8
0
 10
865.9985097831560097
 20
140.7418891332964961
 30
0.0
 11
865.9985099660254946
 21
68.7417395269964686
 31
0.0
  0
LINE
  5
9E79
  8
0
 10
865.4685099123375949
 20
68.7417395269964686
 30
0.0
 11
865.4685098897562057
 21
140.7418891332964961
 31
0.0
  0
LINE
  5
9E7A
  8
0
 10
865.4624468196062708
 20
67.3172826591465991
 30
0.0
 11
865.4624468196062708
 21
68.6755503756465941
 31
0.0
  0
ARC
  5
9E7B
  8
0
 10
865.5018168984062186
 20
68.6755503756465941
 30
0.0
 40
0.039370078799994
 50
90.0000001455437939
 51
180.0
  0
LINE
  5
9E7C
  8
0
 10
865.5018168983061742
 20
68.7149204544465704
 30
0.0
 11
866.8010294967061782
 21
68.7149204577463877
 31
0.0
  0
ARC
  5
9E7D
  8
0
 10
866.8010294968063363
 20
68.6755503791463582
 30
0.0
 40
0.0393700786000082
 50
359.9999949067221792
 51
90.0000001455437939
  0
LINE
  5
9E7E
  8
0
 10
866.8403995754060816
 20
68.6755503756465941
 30
0.0
 11
866.8403994546633839
 21
67.3172826591465991
 31
0.0
  0
ARC
  5
9E7F
  8
0
 10
866.8049961132520593
 20
68.6165003670185456
 30
0.0
 40
0.0393404704856525
 50
359.9925585236654229
 51
25.8518377655562013
  0
LINE
  5
9E80
  8
0
 10
866.8443365834065162
 20
68.6164952575465747
 30
0.0
 11
866.8443365834065162
 21
68.3015336591465712
 31
0.0
  0
LINE
  5
9E81
  8
0
 10
894.6192188286981946
 20
143.3037001572963902
 30
0.0
 11
894.6192188286981946
 21
142.0438576375964885
 31
0.0
  0
LINE
  5
9E82
  8
0
 10
894.6192188286981946
 20
142.0438576375964885
 30
0.0
 11
893.1625259152982608
 21
142.0438576375964885
 31
0.0
  0
LINE
  5
9E83
  8
0
 10
893.1625259152982608
 20
142.0438576375964885
 30
0.0
 11
893.1625259152982608
 21
143.3037001572963902
 31
0.0
  0
LINE
  5
9E84
  8
0
 10
893.1625259152982608
 20
143.3037001572963902
 30
0.0
 11
893.2777955733985209
 21
143.3035582208964911
 31
0.0
  0
ARC
  5
9E85
  8
0
 10
893.3593849184967439
 20
143.9280950927619926
 30
0.0
 40
0.6298437310581328
 50
262.5570446359359948
 51
277.5419747063680802
  0
LINE
  5
9E86
  8
0
 10
893.4420534742980635
 20
143.3037001572963902
 30
0.0
 11
893.7491400884987343
 21
143.3037001572963902
 31
0.0
  0
ARC
  5
9E87
  8
0
 10
893.8318089925118102
 20
143.9286030633616065
 30
0.0
 40
0.630347356383328
 50
262.4640541424483899
 51
277.3396622021743951
  0
LINE
  5
9E88
  8
0
 10
893.9123366256985719
 20
143.303420617996494
 30
0.0
 11
894.6192188286981946
 21
143.3037001572963902
 31
0.0
  0
CIRCLE
  5
9E89
  8
0
 10
889.7346290648980585
 20
144.1068497789964908
 30
0.0
 40
1.0826771653999989
  0
CIRCLE
  5
9E8A
  8
0
 10
889.7346290648980585
 20
144.1068497789964908
 30
0.0
 40
0.6102362204999988
  0
CIRCLE
  5
9E8B
  8
0
 10
868.2074479624983496
 20
141.7442356058965061
 30
0.0
 40
0.6300000000000008
  0
LINE
  5
9E8C
  8
0
 10
865.8955097831559442
 20
140.7418891332964961
 30
0.0
 11
865.8955098117058924
 21
145.2288891332964909
 31
0.0
  0
LINE
  5
9E8D
  8
0
 10
865.9585097947128816
 20
140.7418891332964961
 30
0.0
 11
865.9585097831560461
 21
145.2918891332965075
 31
0.0
  0
LINE
  5
9E8E
  8
0
 10
890.2701779180957828
 20
143.1659048973965014
 30
0.0
 11
893.1625259152982608
 21
143.1659048973963877
 31
0.0
  0
LINE
  5
9E8F
  8
0
 10
893.1625259152982608
 20
142.1816528973963898
 30
0.0
 11
890.1737381703517258
 21
142.1816528973965035
 31
0.0
  0
LINE
  5
9E90
  8
0
 10
866.8403995421585932
 20
68.3015336607964798
 30
0.0
 11
893.8751243404981324
 21
68.3015336607964798
 31
0.0
  0
LINE
  5
9E91
  8
0
 10
893.8751243404981324
 20
68.2621635607964805
 30
0.0
 11
866.8403995386580618
 21
68.2621635607964805
 31
0.0
  0
LINE
  5
9E92
  8
0
 10
865.4624468195562486
 20
67.4415031332964929
 30
0.0
 11
836.3132472716985149
 21
67.4415031332964929
 31
0.0
  0
LINE
  5
9E93
  8
0
 10
836.3132472716985149
 20
67.4045723178964806
 30
0.0
 11
865.4624468195562486
 21
67.4045723178964806
 31
0.0
  0
ARC
  5
9E94
  8
0
 10
893.0810857578795776
 20
112.0010072592691017
 30
0.0
 40
0.4921259842000048
 50
0.0
 51
180.0000000011993109
  0
ARC
  5
9E95
  8
0
 10
893.0810857578296691
 20
101.3710859995191953
 30
0.0
 40
0.4921259842500021
 50
180.0000000058209082
 51
359.9999999941783244
  0
LINE
  5
9E96
  8
0
 10
892.5889597735792904
 20
101.3710859995237996
 30
0.0
 11
892.5889597735792904
 21
112.0010072592692012
 31
0.0
  0
LINE
  5
9E97
  8
0
 10
893.5732117421800922
 20
112.0010072592644974
 30
0.0
 11
893.5732117420799341
 21
101.3710859995145057
 31
0.0
  0
CIRCLE
  5
9E98
  8
0
 10
838.1637144506980803
 20
142.6736292906965105
 30
0.0
 40
0.5905511953000016
  0
CIRCLE
  5
9E99
  8
0
 10
838.1637144506980803
 20
142.6736292906965105
 30
0.0
 40
0.2893700929000005
  0
CIRCLE
  5
9E9A
  8
0
 10
863.5963050873061775
 20
142.6737788970964971
 30
0.0
 40
0.5905511953000016
  0
CIRCLE
  5
9E9B
  8
0
 10
863.5963050873061775
 20
142.6737788970964971
 30
0.0
 40
0.2893700929000005
  0
CIRCLE
  5
9E9C
  8
0
 10
868.2074479624983496
 20
144.1067001727963941
 30
0.0
 40
1.0826771653999989
  0
CIRCLE
  5
9E9D
  8
0
 10
868.2074479624983496
 20
144.1067001727963941
 30
0.0
 40
0.6102362204999988
  0
CIRCLE
  5
9E9E
  8
0
 10
889.6556290648982213
 20
141.8232356058965138
 30
0.0
 40
0.6300000000000008
  0
LINE
  5
9E9F
  8
0
 10
894.6192188286981946
 20
67.3054706688964757
 30
0.0
 11
893.8751243404981324
 21
67.3054706688964757
 31
0.0
  0
LINE
  5
9EA0
  8
0
 10
893.8751243404981324
 20
67.3054706688964757
 30
0.0
 11
893.8751243404981324
 21
68.3615336607964821
 31
0.0
  0
LINE
  5
9EA1
  8
0
 10
893.8751243404981324
 20
68.3615336607964821
 30
0.0
 11
894.6192188286981946
 21
68.3615336607964821
 31
0.0
  0
LINE
  5
9EA2
  8
0
 10
893.8751243404981324
 20
67.3290936607964738
 30
0.0
 11
866.840399455713964
 21
67.3290956930371607
 31
0.0
  0
LINE
  5
9EA3
  8
0
 10
865.4624468196062708
 20
67.3251566765964924
 30
0.0
 11
836.3132472716985149
 21
67.3251566765964924
 31
0.0
  0
LINE
  5
9EA4
  8
0
 10
834.7384441716982337
 20
145.309282660796498
 30
0.0
 11
836.3532472716983648
 21
145.309282660796498
 31
0.0
  0
LINE
  5
9EA5
  8
0
 10
836.3532472716983648
 20
145.309282660796498
 30
0.0
 11
836.3532472716983648
 21
145.2918891332965075
 31
0.0
  0
LINE
  5
9EA6
  8
0
 10
865.8955098117058924
 20
145.2288891332964909
 30
0.0
 11
865.9585097831560461
 21
145.2918891047465024
 31
0.0
  0
LINE
  5
9EA7
  8
0
 10
865.9585097831560461
 20
145.2918891047465024
 30
0.0
 11
836.3132472716985149
 21
145.2918891047465024
 31
0.0
  0
LINE
  5
9EA8
  8
0
 10
836.3132472716985149
 20
145.2288891332964909
 30
0.0
 11
865.8955098117058924
 21
145.2288891332964909
 31
0.0
  0
LINE
  5
9EA9
  8
0
 10
863.483038513698034
 20
145.2918891332965075
 30
0.0
 11
863.483038513698034
 21
145.3470072594963938
 31
0.0
  0
LINE
  5
9EAA
  8
0
 10
863.483038513698034
 20
145.3470072594963938
 30
0.0
 11
894.8730385136982477
 21
145.3470072594963938
 31
0.0
  0
LINE
  5
9EAB
  8
0
 10
889.1990802115993802
 20
143.1659048973965014
 30
0.0
 11
868.7429968152692936
 21
143.1657552908964988
 31
0.0
  0
LINE
  5
9EAC
  8
0
 10
867.6718991097270646
 20
143.1657552908964988
 30
0.0
 11
865.9585098117061079
 21
143.1659048971964125
 31
0.0
  0
LINE
  5
9EAD
  8
0
 10
865.9585098117061079
 20
142.1816528971964999
 30
0.0
 11
867.7539096822448528
 21
142.1815032908965009
 31
0.0
  0
LINE
  5
9EAE
  8
0
 10
868.6609862427513917
 20
142.1815032908965009
 30
0.0
 11
889.1375192388438791
 21
142.1816518557317011
 31
0.0
  0
LINE
  5
9EAF
  8
0
 10
894.6190385136983423
 20
68.3615336607964821
 30
0.0
 11
894.6190385136983423
 21
67.3054706686964721
 31
0.0
  0
LINE
  5
9EB0
  8
0
 10
893.9690385136982513
 20
145.3470072594963938
 30
0.0
 11
893.9690385136982513
 21
143.3034430409772995
 31
0.0
  0
LINE
  5
9EB1
  8
0
 10
893.9690385136982513
 20
142.0438576375964885
 30
0.0
 11
893.9690385136982513
 21
68.3615336607964821
 31
0.0
  0
LINE
  5
9EB2
  8
0
 10
894.8730385136982477
 20
145.3470072594963938
 30
0.0
 11
894.8730385136982477
 21
68.0168576530964799
 31
0.0
  0
LINE
  5
9EB3
  8
0
 10
894.6190385136983423
 20
68.0168576530964799
 30
0.0
 11
894.8730385136982477
 21
68.0168576530964799
 31
0.0
  0
LINE
  5
9EB5
  8
0
 10
867.5880701076665673
 20
143.2186906472716998
 30
0.0
 11
867.592353093298243
 21
143.1657552908964988
 31
0.0
  0
LINE
  5
9EB6
  8
0
 10
867.6719886604980729
 20
142.1815032908963872
 30
0.0
 11
867.6795510215980585
 21
142.0880366489963933
 31
0.0
  0
LINE
  5
9EB7
  8
0
 10
868.7429072645981023
 20
142.1815032908963872
 30
0.0
 11
868.7353240353980937
 21
142.0877787301963906
 31
0.0
  0
LINE
  5
9EB8
  8
0
 10
868.8268258174358607
 20
143.2186906473455963
 30
0.0
 11
868.8225428317980459
 21
143.1657552908964988
 31
0.0
  0
LINE
  5
9EB9
  8
0
 10
889.1203298340982428
 20
143.2153469113964945
 30
0.0
 11
889.1243422788980979
 21
143.1657552909960884
 31
0.0
  0
LINE
  5
9EBA
  8
0
 10
890.2652802837982335
 20
142.1815032909964884
 30
0.0
 11
890.252561677498079
 21
142.0243082826964098
 31
0.0
  0
LINE
  5
9EBB
  8
0
 10
890.3489282957981459
 20
143.2153469113964945
 30
0.0
 11
890.3449158509981771
 21
143.1657552909964863
 31
0.0
  0
LINE
  5
9EBC
  8
0
 10
894.4590385136982604
 20
145.3470072594963938
 30
0.0
 11
894.4590385136982604
 21
143.303636813371611
 31
0.0
  0
LINE
  5
9EBD
  8
0
 10
894.4590385136982604
 20
142.0438576375964885
 30
0.0
 11
894.4590385136982604
 21
68.3615336607964821
 31
0.0
  0
LINE
  5
9EBE
  8
0
 10
865.4685099123375949
 20
68.7417395269964686
 30
0.0
 11
865.9985099660254946
 21
68.7417395269964686
 31
0.0
  0
LINE
  5
9EBF
  8
0
 10
865.8955097262982008
 20
68.7417395269964686
 30
0.0
 11
865.8955097262982008
 21
68.714920455446503
 31
0.0
  0
LINE
  5
9EC0
  8
0
 10
865.9585097262980753
 20
68.7417395269964686
 30
0.0
 11
865.9585097262980753
 21
68.7149204556065172
 31
0.0
  0
ENDSEC
  0
EOF
