  0
SECTION
  2
HEADER
  9
$ACADVER
  1
AC1009
  9
$INSBASE
 10
4966.2274515330973372
 20
203.8221738333764108
 30
0.0
  9
$EXTMIN
 10
4935.8680121668094216
 20
201.8626667041833969
 30
-0.0000000000112498
  9
$EXTMAX
 10
4992.9665433847658278
 20
208.7345333609443969
 30
0.0000000000002956
  9
$LIMMIN
 10
0.0
 20
0.0
  9
$LIMMAX
 10
11.6929133858000007
 20
8.2677165353999982
  9
$ORTHOMODE
 70
     0
  9
$REGENMODE
 70
     1
  9
$FILLMODE
 70
     1
  9
$QTEXTMODE
 70
     0
  9
$MIRRTEXT
 70
     0
  9
$DRAGMODE
 70
     2
  9
$LTSCALE
 40
0.6431102362
  9
$OSMODE
 70
  4095
  9
$ATTMODE
 70
     1
  9
$TEXTSIZE
 40
0.2
  9
$TRACEWID
 40
0.05
  9
$TEXTSTYLE
  7
STANDARD
  9
$CLAYER
  8
0
  9
$CELTYPE
  6
BYLAYER
  9
$CECOLOR
 62
   256
  9
$DIMSCALE
 40
1.0
  9
$DIMASZ
 40
0.1875
  9
$DIMEXO
 40
0.0625
  9
$DIMDLI
 40
0.4443307087
  9
$DIMRND
 40
0.0
  9
$DIMDLE
 40
0.0
  9
$DIMEXE
 40
0.125
  9
$DIMTP
 40
0.01
  9
$DIMTM
 40
0.01
  9
$DIMTXT
 40
2.0
  9
$DIMCEN
 40
0.1052362205
  9
$DIMTSZ
 40
0.0
  9
$DIMTOL
 70
     1
  9
$DIMLIM
 70
     0
  9
$DIMTIH
 70
     1
  9
$DIMTOH
 70
     1
  9
$DIMSE1
 70
     0
  9
$DIMSE2
 70
     0
  9
$DIMTAD
 70
     0
  9
$DIMZIN
 70
     0
  9
$DIMBLK
  1

  9
$DIMASO
 70
     1
  9
$DIMSHO
 70
     1
  9
$DIMPOST
  1
\X
  9
$DIMAPOST
  1

  9
$DIMALT
 70
     1
  9
$DIMALTD
 70
     2
  9
$DIMALTF
 40
25.3999999999999986
  9
$DIMLFAC
 40
1.0
  9
$DIMTOFL
 70
     0
  9
$DIMTVP
 40
0.0
  9
$DIMTIX
 70
     0
  9
$DIMSOXD
 70
     0
  9
$DIMSAH
 70
     0
  9
$DIMBLK1
  1

  9
$DIMBLK2
  1

  9
$DIMSTYLE
  2
STANDARD
  9
$DIMCLRD
 70
     0
  9
$DIMCLRE
 70
     0
  9
$DIMCLRT
 70
     0
  9
$DIMTFAC
 40
1.0
  9
$DIMGAP
 40
0.09
  9
$LUNITS
 70
     2
  9
$LUPREC
 70
     4
  9
$SKETCHINC
 40
0.1
  9
$FILLETRAD
 40
0.0
  9
$AUNITS
 70
     0
  9
$AUPREC
 70
     0
  9
$MENU
  1
.
  9
$ELEVATION
 40
0.0
  9
$PELEVATION
 40
0.0
  9
$THICKNESS
 40
0.0
  9
$LIMCHECK
 70
     0
  9
$BLIPMODE
 70
     0
  9
$CHAMFERA
 40
0.0
  9
$CHAMFERB
 40
0.0
  9
$SKPOLY
 70
     0
  9
$TDCREATE
 40
2458060.468368056230247
  9
$TDUPDATE
 40
2461005.734236110933125
  9
$TDINDWG
 40
0.3664538194
  9
$TDUSRTIMER
 40
0.3664538194
  9
$USRTIMER
 70
     1
  9
$ANGBASE
 50
0.0
  9
$ANGDIR
 70
     0
  9
$PDMODE
 70
     0
  9
$PDSIZE
 40
0.3125
  9
$PLINEWID
 40
0.0
  9
$COORDS
 70
     1
  9
$SPLFRAME
 70
     0
  9
$SPLINETYPE
 70
     6
  9
$SPLINESEGS
 70
     8
  9
$ATTDIA
 70
     1
  9
$ATTREQ
 70
     1
  9
$HANDLING
 70
     1
  9
$HANDSEED
  5
A84B
  9
$SURFTAB1
 70
     6
  9
$SURFTAB2
 70
     6
  9
$SURFTYPE
 70
     6
  9
$SURFU
 70
     6
  9
$SURFV
 70
     6
  9
$UCSNAME
  2

  9
$UCSORG
 10
0.0
 20
0.0
 30
0.0
  9
$UCSXDIR
 10
1.0
 20
0.0
 30
0.0
  9
$UCSYDIR
 10
0.0
 20
1.0
 30
0.0
  9
$PUCSNAME
  2

  9
$PUCSORG
 10
0.0
 20
0.0
 30
0.0
  9
$PUCSXDIR
 10
1.0
 20
0.0
 30
0.0
  9
$PUCSYDIR
 10
0.0
 20
1.0
 30
0.0
  9
$USERI1
 70
     0
  9
$USERI2
 70
     0
  9
$USERI3
 70
     0
  9
$USERI4
 70
     0
  9
$USERI5
 70
     0
  9
$USERR1
 40
0.0
  9
$USERR2
 40
0.0
  9
$USERR3
 40
0.0
  9
$USERR4
 40
0.0
  9
$USERR5
 40
0.0
  9
$WORLDVIEW
 70
     1
  9
$SHADEDGE
 70
     3
  9
$SHADEDIF
 70
    70
  9
$TILEMODE
 70
     1
  9
$MAXACTVP
 70
    64
  9
$PLIMCHECK
 70
     0
  9
$PEXTMIN
 10
1.0000000000000000E+20
 20
1.0000000000000000E+20
 30
1.0000000000000000E+20
  9
$PEXTMAX
 10
-1.0000000000000000E+20
 20
-1.0000000000000000E+20
 30
-1.0000000000000000E+20
  9
$PLIMMIN
 10
0.0
 20
0.0
  9
$PLIMMAX
 10
12.0
 20
9.0
  9
$UNITMODE
 70
     0
  9
$VISRETAIN
 70
     1
  9
$PLINEGEN
 70
     0
  9
$PSLTSCALE
 70
     1
  0
ENDSEC
  0
SECTION
  2
TABLES
  0
TABLE
  2
VPORT
 70
     1
  0
VPORT
  2
*ACTIVE
 70
     0
 10
0.0
 20
0.0
 11
1.0
 21
1.0
 12
1101.0375170335998973
 22
105.8627823140579949
 13
0.0
 23
0.0
 14
1.0
 24
1.0
 15
0.0
 25
0.0
 16
0.0
 26
0.0
 36
10.1719523591980305
 17
3863.3797607421870453
 27
99.4358177185058736
 37
0.0
 40
25.820714399661771
 41
2.2182448036951499
 42
50.0
 43
0.0
 44
0.0
 50
0.0
 51
0.0
 71
     0
 72
   100
 73
     1
 74
     1
 75
     1
 76
     0
 77
     0
 78
     0
  0
ENDTAB
  0
TABLE
  2
LTYPE
 70
     2
  0
LTYPE
  2
CONTINUOUS
 70
     0
  3
Solid line
 72
    65
 73
     0
 40
0.0
  0
LTYPE
  2
PHANTOM2
 70
     0
  3
___ _ _ ___ _ _ ___ _ _ ___ _ _
 72
    65
 73
     6
 40
1.25
 49
0.625
 49
-0.125
 49
0.125
 49
-0.125
 49
0.125
 49
-0.125
  0
ENDTAB
  0
TABLE
  2
LAYER
 70
     2
  0
LAYER
  2
0
 70
     0
 62
   255
  6
CONTINUOUS
  0
LAYER
  2
DEFPOINTS
 70
     0
 62
     7
  6
CONTINUOUS
  0
ENDTAB
  0
TABLE
  2
STYLE
 70
     1
  0
STYLE
  2
STANDARD
 70
     0
 40
0.0
 41
0.8
 50
0.0
 71
     0
 42
0.2
  3
txt
  4

  0
ENDTAB
  0
TABLE
  2
VIEW
 70
     1
  0
ENDTAB
  0
TABLE
  2
UCS
 70
     0
  0
ENDTAB
  0
TABLE
  2
APPID
 70
     9
  0
APPID
  2
ACAD
 70
     0
  0
APPID
  2
ACAD_MLEADERVER
 70
     0
  0
APPID
  2
ACAD_EXEMPT_FROM_CAD_STANDARDS
 70
     0
  0
APPID
  2
ACAD_NAV_VCDISPLAY
 70
     0
  0
APPID
  2
ACAECLAYERSTANDARD
 70
     0
  0
APPID
  2
ACCMTRANSPARENCY
 70
     0
  0
APPID
  2
ACAD_DSTYLE_DIMJAG
 70
     0
  0
APPID
  2
ACAD_DSTYLE_DIMTALN
 70
     0
  0
APPID
  2
ACDBATTR
 70
     0
  0
ENDTAB
  0
TABLE
  2
DIMSTYLE
 70
     1
  0
DIMSTYLE
  2
STANDARD
 70
     0
  3

  4

  5

  6

  7

 40
1.0
 41
0.1875
 42
0.0625
 43
0.38
 44
0.125
 45
0.0
 46
0.0
 47
0.01
 48
0.01
140
0.15625
141
0.09
142
0.0
143
25.3999999999999986
144
1.0
145
0.0
146
1.0
147
0.09
 71
     1
 72
     0
 73
     1
 74
     1
 75
     0
 76
     0
 77
     0
 78
     4
170
     0
171
     2
172
     0
173
     0
174
     0
175
     0
176
     0
177
     0
178
     0
  0
ENDTAB
  0
ENDSEC
  0
SECTION
  2
BLOCKS
  0
BLOCK
  8
0
  2
$MODEL_SPACE
 70
     0
 10
0.0
 20
0.0
 30
0.0
  3
$MODEL_SPACE
  1

  0
ENDBLK
  5
21
  8
0
  0
BLOCK
 67
     1
  8
0
  2
$PAPER_SPACE
 70
     0
 10
0.0
 20
0.0
 30
0.0
  3
$PAPER_SPACE
  1

  0
ENDBLK
  5
1D
 67
     1
  8
0
  0
BLOCK
  8
0
  2
_FILLED
 70
     0
 10
0.0
 20
0.0
 30
0.0
  3
_FILLED
  1

  0
SOLID
  5
8AD0
  8
0
  6
BYBLOCK
 62
     0
 10
0.0
 20
0.0
 30
0.0
 11
-1.0
 21
0.1666666667
 31
0.0
 12
-1.0
 22
-0.1666666667
 32
0.0
 13
-1.0
 23
-0.1666666667
 33
0.0
  0
ENDBLK
  5
8AD1
  8
0
  6
BYBLOCK
 62
     0
  0
ENDSEC
  0
SECTION
  2
ENTITIES
  0
ATTDEF
  5
3930
  8
DEFPOINTS
 10
4966.2274515330973372
 20
203.8255071667097127
 30
0.0
 40
0.001
  1
K-702419-L
  3

  2
MODELNUMBER
 70
     0
1001
ACDBATTR
1070
     0
1070
     1
  0
ATTDEF
  5
3931
  8
DEFPOINTS
 10
4966.2274515330973372
 20
203.8238405000431044
 30
0.0
 40
0.001
  1
KOHLER
  3

  2
BRANDNAME
 70
     0
1001
ACDBATTR
1070
     0
1070
     1
  0
ATTDEF
  5
3932
  8
DEFPOINTS
 10
4966.2274515330973372
 20
203.8221738333764108
 30
0.0
 40
0.001
  1
SHOWER DOOR
  3

  2
PRODUCT
 70
     0
1001
ACDBATTR
1070
     0
1070
     1
  0
LINE
  5
A687
  8
0
 10
4936.0797372884908327
 20
203.5002411745059021
 30
0.0
 11
4936.0797372884908327
 21
206.9911079750058889
 31
0.0
  0
LINE
  5
A688
  8
0
 10
4936.0797372884908327
 20
206.9911079750058889
 30
0.0
 11
4936.3800344537257843
 21
206.975370067495902
 31
0.0
  0
ARC
  5
A689
  8
0
 10
4936.3767372884913129
 20
206.9124564068058874
 30
0.0
 40
0.0629999999999987
 50
0.0
 51
87.0000000085522061
  0
LINE
  5
A68A
  8
0
 10
4936.4397372884914148
 20
206.9124564068058874
 30
0.0
 11
4936.4397372884914148
 21
205.8337279044858974
 31
0.0
  0
ARC
  5
A68B
  8
0
 10
4936.0997372884894503
 20
206.1900914143066927
 30
0.0
 40
0.0199999999973457
 50
88.9999279548695483
 51
180.0000000023611904
  0
LINE
  5
A68C
  8
0
 10
4936.1000863617618961
 20
206.210088367768293
 30
0.0
 11
4936.3790863304948289
 21
206.2052180542706878
 31
0.0
  0
ARC
  5
A68D
  8
0
 10
4936.3787372566666818
 20
206.1852210689822869
 30
0.0
 40
0.0200000318290534
 50
0.0010949882649692
 51
88.9999279548695483
  0
LINE
  5
A68E
  8
0
 10
4936.3987372884921569
 20
206.1852214512059049
 30
0.0
 11
4936.3987436166507905
 21
205.8540975074664061
 31
0.0
  0
ARC
  5
A68F
  8
0
 10
4936.4187441192598271
 20
205.8540978896990055
 30
0.0
 40
0.0200005026120567
 50
180.0010949882617126
 51
268.9804537473544883
  0
LINE
  5
A690
  8
0
 10
4936.4183882403167445
 20
205.8341005535035038
 30
0.0
 11
4937.0490825442793721
 21
205.8228765175014985
 31
0.0
  0
ARC
  5
A691
  8
0
 10
4937.048726458639976
 20
205.8028675666398897
 30
0.0
 40
0.0200121191172777
 50
0.6503760749715867
 51
88.9804537473544741
  0
LINE
  5
A692
  8
0
 10
4937.0687372884913202
 20
205.8030947234049961
 30
0.0
 11
4937.0687372884913202
 21
204.7244650132059007
 31
0.0
  0
LINE
  5
A693
  8
0
 10
4936.3987372884921569
 20
204.6734617687708067
 30
0.0
 11
4936.3987372884921569
 21
204.1856656731058877
 31
0.0
  0
ARC
  5
A694
  8
0
 10
4936.3787372884926299
 20
204.1856656731058877
 30
0.0
 40
0.0199999999980634
 50
270.9999999913762281
 51
0.0000000000065138
  0
LINE
  5
A695
  8
0
 10
4936.3790863366202757
 20
204.1656687192046888
 30
0.0
 11
4936.1000863365743498
 21
204.1607987561309017
 31
0.0
  0
ARC
  5
A696
  8
0
 10
4936.0997354092460228
 20
204.1809033693926949
 30
0.0
 40
0.0201076757582232
 50
185.9837051203936937
 51
270.9999999913762281
  0
LINE
  5
A697
  8
0
 10
4936.0797372884908327
 20
203.5002411745059021
 30
0.0
 11
4936.6977762584920129
 21
203.5002411745059021
 31
0.0
  0
ARC
  5
A698
  8
0
 10
4936.0862224031861842
 20
203.6125304192200076
 30
0.0
 40
0.0158632260744137
 50
179.4390790739197996
 51
245.8449905037699921
  0
LINE
  5
A699
  8
0
 10
4936.0703599372918688
 20
203.6126857164059061
 30
0.0
 11
4936.0797372884908327
 21
203.6912583672059043
 31
0.0
  0
ARC
  5
A69A
  8
0
 10
4936.1941510904916868
 20
204.1102396909058996
 30
0.0
 40
0.1224999999999941
 50
159.117871567389102
 51
200.8187383480027108
  0
ARC
  5
A69B
  8
0
 10
4936.7062461690866257
 20
203.7481710592568049
 30
0.0
 40
0.2480745193245418
 50
268.0433925015469185
 51
290.4178111846904926
  0
ARC
  5
A69C
  8
0
 10
4936.7604317426148555
 20
203.6026089607418044
 30
0.0
 40
0.0927542022292505
 50
290.4178111846904926
 51
341.0317262835591805
  0
ARC
  5
A69D
  8
0
 10
4936.7496255169762662
 20
203.6063231507511944
 30
0.0
 40
0.1041809130409527
 50
341.031726283556111
 51
2.087550795264383
  0
LINE
  5
A69E
  8
0
 10
4936.8537372884920842
 20
203.6101181045058865
 30
0.0
 11
4936.8537372884920842
 21
204.030364244505904
 31
0.0
  0
ARC
  5
A69F
  8
0
 10
4936.7356443505477728
 20
204.0321012994504883
 30
0.0
 40
0.1181057126136395
 50
359.1572845766444857
 51
17.1570482826092885
  0
ARC
  5
A6A0
  8
0
 10
4936.7657217175501501
 20
204.0413870975372959
 30
0.0
 40
0.0866275606365045
 50
17.1570482826092885
 51
57.1204694792952665
  0
ARC
  5
A6A1
  8
0
 10
4936.7391278794048048
 20
204.0002470625084072
 30
0.0
 40
0.1356146478070259
 50
57.1204694792952665
 51
74.455852072694924
  0
ARC
  5
A6A2
  8
0
 10
4936.711500485446777
 20
203.9009231504313959
 30
0.0
 40
0.2387093247172699
 50
74.455852072694924
 51
85.0245139426163945
  0
ARC
  5
A6A3
  8
0
 10
4936.6974878098408226
 20
203.7399643975163883
 30
0.0
 40
0.4002768809209235
 50
85.0245139426163945
 51
89.9587113507840854
  0
LINE
  5
A6A4
  8
0
 10
4936.6977762584920129
 20
204.1402411745058885
 30
0.0
 11
4936.0797372884908327
 21
204.1402411745058885
 31
0.0
  0
LINE
  5
A6A5
  8
0
 10
4936.4397372884886863
 20
204.2462163778405113
 30
0.0
 11
4936.4397372884877768
 21
204.2102124145316964
 31
0.0
  0
ARC
  5
A6A6
  8
0
 10
4936.3767379564051225
 20
204.2102124145376933
 30
0.0
 40
0.0629993320835354
 50
270.999402923763796
 51
359.9999999945496256
  0
LINE
  5
A6A7
  8
0
 10
4936.3778367899403747
 20
204.1472226661032892
 30
0.0
 11
4936.1812324552038262
 21
204.143792974102297
 31
0.0
  0
ARC
  5
A6A8
  8
0
 10
4936.181791318714204
 20
204.1117565729886962
 30
0.0
 40
0.032041275329488
 50
90.9994029237638813
 51
117.2525051600714932
  0
LINE
  5
A6A9
  8
0
 10
4936.8484943318917431
 20
204.2212517025639045
 30
0.0
 11
4936.8484943318917431
 21
204.0669415213610876
 31
0.0
  0
LINE
  5
A6AA
  8
0
 10
4936.8537372884920842
 20
204.0152411745058885
 30
0.0
 11
4937.7379306206748879
 21
204.0152411745058885
 31
0.0
  0
LINE
  5
A6AB
  8
0
 10
4936.8537372884920842
 20
203.6152411745055133
 30
0.0
 11
4939.7739515330977156
 21
203.6152411745059965
 31
0.0
  0
LINE
  5
A6AC
  8
0
 10
4939.0599868240069554
 20
204.0152411745058032
 30
0.0
 11
4939.7739515330977156
 21
204.0152411745058885
 31
0.0
  0
LINE
  5
A6AD
  8
0
 10
4940.5239515330977156
 20
204.0152407868638136
 30
0.0
 11
4964.7378387264152479
 21
204.0136062872873026
 31
0.0
  0
LINE
  5
A6AE
  8
0
 10
4992.7049515330973009
 20
203.5002411745059021
 30
0.0
 11
4992.7049515330973009
 21
206.9911079750058889
 31
0.0
  0
LINE
  5
A6AF
  8
0
 10
4992.7049515330973009
 20
206.9911079750058889
 30
0.0
 11
4992.4046543678641683
 21
206.975370067495902
 31
0.0
  0
ARC
  5
A6B0
  8
0
 10
4992.4079515330977301
 20
206.9124564068058874
 30
0.0
 40
0.0629999999999987
 50
92.9999999914477939
 51
180.0
  0
LINE
  5
A6B1
  8
0
 10
4992.3449515330976283
 20
206.9124564068058874
 30
0.0
 11
4992.3449515330976283
 21
206.2686690070611917
 31
0.0
  0
LINE
  5
A6B2
  8
0
 10
4992.3449515330976283
 20
206.0096786597505911
 30
0.0
 11
4992.3449515330976283
 21
205.8337279044858974
 31
0.0
  0
ARC
  5
A6B3
  8
0
 10
4992.6847563487899606
 20
206.1965646081758905
 30
0.0
 40
0.0201961489034849
 50
0.5599868336835599
 51
90.7669238415390538
  0
LINE
  5
A6B4
  8
0
 10
4992.6844860244191295
 20
206.2167589478596881
 30
0.0
 11
4992.4054860556871063
 21
206.2118886343621114
 31
0.0
  0
ARC
  5
A6B5
  8
0
 10
4992.4058351295152534
 20
206.1918916490737104
 30
0.0
 40
0.0200000318290534
 50
91.0000720451304659
 51
179.9989050117349905
  0
LINE
  5
A6B6
  8
0
 10
4992.3858350976897782
 20
206.1918920312973
 30
0.0
 11
4992.3858500794858628
 21
206.1459298553455994
 31
0.0
  0
LINE
  5
A6B7
  8
0
 10
4992.3858544360700762
 20
206.1325644284106886
 30
0.0
 11
4992.3859452049382526
 21
205.8540975074664061
 31
0.0
  0
ARC
  5
A6B8
  8
0
 10
4992.3659447023301254
 20
205.8540978896990055
 30
0.0
 40
0.0200005026120567
 50
271.0195462526455117
 51
359.9989050117383158
  0
LINE
  5
A6B9
  8
0
 10
4992.3663005812713891
 20
205.8341005535035038
 30
0.0
 11
4991.7356062773087615
 21
205.8228765175014985
 31
0.0
  0
ARC
  5
A6BA
  8
0
 10
4991.7359623629499765
 20
205.8028675666398897
 30
0.0
 40
0.0200121191172777
 50
91.0195462526455401
 51
179.3496239250283963
  0
LINE
  5
A6BB
  8
0
 10
4991.7159515330977229
 20
205.8030947234049961
 30
0.0
 11
4991.7159515330977229
 21
204.7244650132095103
 31
0.0
  0
LINE
  5
A6BC
  8
0
 10
4992.3859515330977956
 20
204.6734622292040058
 30
0.0
 11
4992.3859515330977956
 21
204.1856656731058877
 31
0.0
  0
ARC
  5
A6BD
  8
0
 10
4992.3659515330982686
 20
204.6734622292040058
 30
0.0
 40
0.02
 50
0.0
 51
89.0000000019005455
  0
ARC
  5
A6BE
  8
0
 10
4992.4059515330945942
 20
204.1856656731058877
 30
0.0
 40
0.0199999999980634
 50
179.9999999999917861
 51
269.0000000086237719
  0
LINE
  5
A6BF
  8
0
 10
4992.4056024849696769
 20
204.1656687192046888
 30
0.0
 11
4992.6846024850156027
 21
204.1607987561309017
 31
0.0
  0
ARC
  5
A6C0
  8
0
 10
4992.6849534123421108
 20
204.1809033693926949
 30
0.0
 40
0.0201076757582232
 50
269.0000000086237719
 51
354.016294879606221
  0
LINE
  5
A6C1
  8
0
 10
4992.7049515330973009
 20
203.5002411745059021
 30
0.0
 11
4992.0869125630979397
 21
203.5002411745059021
 31
0.0
  0
ARC
  5
A6C2
  8
0
 10
4992.6984664184028588
 20
203.6125304192200076
 30
0.0
 40
0.0158632260744032
 50
294.1550094962299227
 51
0.560920926080207
  0
LINE
  5
A6C3
  8
0
 10
4992.7143288842980837
 20
203.6126857164059061
 30
0.0
 11
4992.7049515330973009
 21
203.6912583672059043
 31
0.0
  0
ARC
  5
A6C4
  8
0
 10
4992.5905377310973563
 20
204.1102396909058996
 30
0.0
 40
0.1224999999999941
 50
339.1812616519956123
 51
20.882128432609349
  0
ARC
  5
A6C5
  8
0
 10
4992.0784426525024173
 20
203.7481710592568049
 30
0.0
 40
0.2480745193245418
 50
249.5821888153093937
 51
271.9566074984530815
  0
ARC
  5
A6C6
  8
0
 10
4992.0242570789741876
 20
203.6026089607418044
 30
0.0
 40
0.0927542022292505
 50
198.9682737164407058
 51
249.5821888153093937
  0
ARC
  5
A6C7
  8
0
 10
4992.0350633046118674
 20
203.6063231507511944
 30
0.0
 40
0.1041809130409527
 50
177.9124492047355943
 51
198.9682737164438038
  0
LINE
  5
A6C8
  8
0
 10
4991.9309515330978684
 20
203.6101181045058865
 30
0.0
 11
4991.9309515330978684
 21
204.030364244505904
 31
0.0
  0
ARC
  5
A6C9
  8
0
 10
4992.0490444710412703
 20
204.0321012994504883
 30
0.0
 40
0.1181057126136395
 50
162.8429517173906902
 51
180.8427154233554859
  0
ARC
  5
A6CA
  8
0
 10
4992.018967104038893
 20
204.0413870975372959
 30
0.0
 40
0.0866275606365045
 50
122.8795305207047051
 51
162.8429517173890986
  0
ARC
  5
A6CB
  8
0
 10
4992.0455609421842382
 20
204.0002470625084072
 30
0.0
 40
0.1356146478070259
 50
105.5441479273051044
 51
122.8795305207047051
  0
ARC
  5
A6CC
  8
0
 10
4992.0731883361422661
 20
203.9009231504313959
 30
0.0
 40
0.2387093247172699
 50
94.9754860573836197
 51
105.5441479273051044
  0
ARC
  5
A6CD
  8
0
 10
4992.08720101174913
 20
203.7399643975163883
 30
0.0
 40
0.4002768809209235
 50
90.041288649215943
 51
94.9754860573836197
  0
LINE
  5
A6CE
  8
0
 10
4992.0869125630979397
 20
204.1402411745058885
 30
0.0
 11
4992.7049515330973009
 21
204.1402411745058885
 31
0.0
  0
LINE
  5
A6CF
  8
0
 10
4992.3449515330557915
 20
204.69383183212841
 30
0.0
 11
4992.3449515331021757
 21
204.2102124145316964
 31
0.0
  0
ARC
  5
A6D0
  8
0
 10
4992.40795086518483
 20
204.2102124145376933
 30
0.0
 40
0.0629993320835354
 50
180.0000000054486975
 51
269.0005970762360903
  0
LINE
  5
A6D1
  8
0
 10
4992.4068520316486683
 20
204.1472226661032892
 30
0.0
 11
4992.6034563663852168
 21
204.143792974102297
 31
0.0
  0
ARC
  5
A6D2
  8
0
 10
4992.6028975028748391
 20
204.1117565729886962
 30
0.0
 40
0.032041275329488
 50
62.7474948399284429
 51
89.0005970762361329
  0
LINE
  5
A6D3
  8
0
 10
4991.9361944896982095
 20
204.3742411745058973
 30
0.0
 11
4991.9361944896982095
 21
204.0669415213610876
 31
0.0
  0
LINE
  5
A6D4
  8
0
 10
4966.0599304256320465
 20
204.0136106460086864
 30
0.0
 11
4991.9309515330978684
 21
204.0152411745058885
 31
0.0
  0
LINE
  5
A6D5
  8
0
 10
4940.5239515330977156
 20
203.612050851231686
 30
0.0
 11
4991.9309515330978684
 21
203.6152411745059112
 31
0.0
  0
LINE
  5
A6D6
  8
0
 10
4991.9361944896982095
 20
204.3742411745058973
 30
0.0
 11
4967.3986621562626169
 21
204.3726275821371985
 31
0.0
  0
LINE
  5
A6D7
  8
0
 10
4937.0687372884913202
 20
205.7311161745058996
 30
0.0
 11
4991.7159515330977229
 21
205.7311161745058996
 31
0.0
  0
LINE
  5
A6D8
  8
0
 10
4966.1434299177053617
 20
204.8722369828790022
 30
0.0
 11
4964.6527795434540167
 21
204.8722369828477952
 31
0.0
  0
ARC
  5
A6D9
  8
0
 10
4964.8808708139213195
 20
205.0597330907978062
 30
0.0
 40
0.2952633031040823
 50
140.5770778647290911
 51
219.4209667596416011
  0
LINE
  5
A6DA
  8
0
 10
4964.6527859424058988
 20
205.2472369828790022
 30
0.0
 11
4966.1434363157886764
 21
205.2471861103146864
 31
0.0
  0
LINE
  5
A6DB
  8
0
 10
4965.188737288680386
 20
205.2472186920577997
 30
0.0
 11
4965.188737288680386
 21
205.3049337206003884
 31
0.0
  0
LINE
  5
A6DC
  8
0
 10
4964.6737372890002007
 20
205.3049337206003884
 30
0.0
 11
4964.6760134901796846
 21
205.5657605436815913
 31
0.0
  0
ARC
  5
A6DD
  8
0
 10
4964.6910129189709551
 20
205.5656296456508869
 30
0.0
 40
0.0149999999452736
 50
134.7499998086541098
 51
179.5000000047701008
  0
LINE
  5
A6DE
  8
0
 10
4964.6804526981777599
 20
205.5762824262816082
 30
0.0
 11
4964.7120311146873064
 21
205.6075864643711952
 31
0.0
  0
ARC
  5
A6DF
  8
0
 10
4964.7225913359561673
 20
205.5969336832604881
 30
0.0
 40
0.0150000006211867
 50
90.0000018203658954
 51
134.7499998086564119
  0
LINE
  5
A6E0
  8
0
 10
4964.7225913354795921
 20
205.6119336838816878
 30
0.0
 11
4966.0748802646794502
 21
205.6119337268451943
 31
0.0
  0
ARC
  5
A6E1
  8
0
 10
4966.0748802651569349
 20
205.596926600155598
 30
0.0
 40
0.0150071266895609
 50
45.2609687425605287
 51
90.0000018203658954
  0
ARC
  5
A6E2
  8
0
 10
4965.9153450461899411
 20
205.0597330907978062
 30
0.0
 40
0.2952633031040823
 50
320.5790332403581147
 51
39.4229221352708876
  0
LINE
  5
A6E3
  8
0
 10
4966.1237372884588694
 20
205.3049337206003884
 30
0.0
 11
4966.1214610872793855
 21
205.5657605436815913
 31
0.0
  0
ARC
  5
A6E4
  8
0
 10
4966.1064616584881151
 20
205.5656296456508869
 30
0.0
 40
0.0149999999452736
 50
0.4999999952298451
 51
45.2500001913457623
  0
LINE
  5
A6E5
  8
0
 10
4966.1170218792813102
 20
205.5762824262816082
 30
0.0
 11
4966.0854434627708542
 21
205.6075864643711952
 31
0.0
  0
LINE
  5
A6E6
  8
0
 10
4965.6087372886786397
 20
205.2472043583969992
 30
0.0
 11
4965.6087372886786397
 21
205.3049337206003884
 31
0.0
  0
LINE
  5
A6E7
  8
0
 10
4964.6737372890002007
 20
205.3049337206003884
 30
0.0
 11
4966.1237372884588694
 21
205.3049337206003884
 31
0.0
  0
LINE
  5
A6E8
  8
0
 10
4964.6804526981777599
 20
205.5762824262816082
 30
0.0
 11
4966.1170218792813102
 21
205.5762824262816082
 31
0.0
  0
LINE
  5
A6E9
  8
0
 10
4964.6698011224707443
 20
204.543840563151889
 30
0.0
 11
4964.6715036476798559
 21
204.7389298962579005
 31
0.0
  0
LINE
  5
A6EA
  8
0
 10
4964.6715036476798559
 20
204.7389298962579005
 30
0.0
 11
4966.124705813480432
 21
204.7389298962579005
 31
0.0
  0
LINE
  5
A6EB
  8
0
 10
4966.124705813480432
 20
204.7389298962579005
 30
0.0
 11
4966.1264085789043747
 21
204.5438130488948048
 31
0.0
  0
ARC
  5
A6EC
  8
0
 10
4966.1214087692887915
 20
204.543769416050992
 30
0.0
 40
0.005
 50
284.5556584588196074
 51
0.5000019064933183
  0
ARC
  5
A6ED
  8
0
 10
4964.674800932083599
 20
204.5437969303106058
 30
0.0
 40
0.005
 50
179.4999981228930892
 51
256.7568892610692046
  0
LINE
  5
A6EE
  8
0
 10
4964.8469236282799102
 20
204.7389298962579005
 30
0.0
 11
4964.8469236282799102
 21
204.8112240185577946
 31
0.0
  0
ARC
  5
A6EF
  8
0
 10
4964.8587236282801314
 20
204.8112240185577946
 30
0.0
 40
0.0118
 50
90.0000000424698356
 51
180.0
  0
LINE
  5
A6F0
  8
0
 10
4964.8587236282710364
 20
204.8230240185577884
 30
0.0
 11
4965.937476575079927
 21
204.8230240193578027
 31
0.0
  0
ARC
  5
A6F1
  8
0
 10
4965.9374765750881124
 20
204.8112147613410912
 30
0.0
 40
0.0118092580167257
 50
359.991647277493712
 51
90.0000000424698356
  0
LINE
  5
A6F2
  8
0
 10
4965.9492858329804221
 20
204.8112130397578028
 30
0.0
 11
4965.9492752953610761
 21
204.7389298962579005
 31
0.0
  0
LINE
  5
A6F3
  8
0
 10
4965.1323566990786276
 20
204.8722369828577996
 30
0.0
 11
4965.1323566990786276
 21
204.823024018760691
 31
0.0
  0
LINE
  5
A6F4
  8
0
 10
4965.6638527620798413
 20
204.8722369828689978
 30
0.0
 11
4965.6638527620798413
 21
204.823024018757792
 31
0.0
  0
LINE
  5
A6F5
  8
0
 10
4939.1431571148914372
 20
204.8728667468058973
 30
0.0
 11
4937.6525067406400922
 21
204.8728667467748039
 31
0.0
  0
ARC
  5
A6F6
  8
0
 10
4937.8805980111083045
 20
205.0603628547247865
 30
0.0
 40
0.2952633031040823
 50
140.5770778647290911
 51
219.4209667596416011
  0
LINE
  5
A6F7
  8
0
 10
4937.6525131395919743
 20
205.2478667468058973
 30
0.0
 11
4939.1431635129756614
 21
205.2478158742416099
 31
0.0
  0
LINE
  5
A6F8
  8
0
 10
4938.188464485865552
 20
205.2478484559848084
 30
0.0
 11
4938.188464485865552
 21
205.3055634845273119
 31
0.0
  0
LINE
  5
A6F9
  8
0
 10
4937.6734644861862762
 20
205.3055634845273119
 30
0.0
 11
4937.6757406873657601
 21
205.5663903076086001
 31
0.0
  0
ARC
  5
A6FA
  8
0
 10
4937.6907401161570306
 20
205.5662594095778104
 30
0.0
 40
0.0149999999452736
 50
134.7499998086541098
 51
179.5000000047701008
  0
LINE
  5
A6FB
  8
0
 10
4937.6801798953629259
 20
205.5769121902085033
 30
0.0
 11
4937.7117583118733819
 21
205.608216228298204
 31
0.0
  0
ARC
  5
A6FC
  8
0
 10
4937.7223185331422428
 20
205.5975634471874116
 30
0.0
 40
0.0150000006211867
 50
90.0000018203658954
 51
134.7499998086564119
  0
LINE
  5
A6FD
  8
0
 10
4937.7223185326647581
 20
205.6125634478086113
 30
0.0
 11
4939.0746074618646162
 21
205.6125634907720894
 31
0.0
  0
ARC
  5
A6FE
  8
0
 10
4939.0746074623421009
 20
205.597556364082493
 30
0.0
 40
0.0150071266895609
 50
45.2609687425605287
 51
90.0000018203658954
  0
ARC
  5
A6FF
  8
0
 10
4938.9150722433760166
 20
205.0603628547247865
 30
0.0
 40
0.2952633031040823
 50
320.5790332403581147
 51
39.4229221352708876
  0
LINE
  5
A700
  8
0
 10
4939.1234644856449449
 20
205.3055634845273119
 30
0.0
 11
4939.1211882844663705
 21
205.5663903076086001
 31
0.0
  0
ARC
  5
A701
  8
0
 10
4939.1061888556741906
 20
205.5662594095778104
 30
0.0
 40
0.0149999999452736
 50
0.4999999952298451
 51
45.2500001913457623
  0
LINE
  5
A702
  8
0
 10
4939.1167490764673857
 20
205.5769121902085033
 30
0.0
 11
4939.0851706599569297
 21
205.608216228298204
 31
0.0
  0
LINE
  5
A703
  8
0
 10
4938.6084644858656247
 20
205.2478341223238942
 30
0.0
 11
4938.6084644858656247
 21
205.3055634845273119
 31
0.0
  0
LINE
  5
A704
  8
0
 10
4937.6734644861862762
 20
205.3055634845273119
 30
0.0
 11
4939.1234644856449449
 21
205.3055634845273119
 31
0.0
  0
LINE
  5
A705
  8
0
 10
4937.6801798953629259
 20
205.5769121902085033
 30
0.0
 11
4939.1167490764673857
 21
205.5769121902085885
 31
0.0
  0
LINE
  5
A706
  8
0
 10
4937.6695283196559103
 20
204.5465222471844129
 30
0.0
 11
4937.6712308448659314
 21
204.741611580290396
 31
0.0
  0
LINE
  5
A707
  8
0
 10
4937.6712308448659314
 20
204.741611580290396
 30
0.0
 11
4939.124433010665598
 21
204.741611580290396
 31
0.0
  0
LINE
  5
A708
  8
0
 10
4939.124433010665598
 20
204.741611580290396
 30
0.0
 11
4939.1261357760886312
 21
204.5464947329274139
 31
0.0
  0
LINE
  5
A709
  8
0
 10
4939.121135871376282
 20
204.5414511000844016
 30
0.0
 11
4937.6745280341710895
 21
204.5414786143439869
 31
0.0
  0
ARC
  5
A70A
  8
0
 10
4939.1211359664757765
 20
204.5464511000834875
 30
0.0
 40
0.005
 50
269.9989102430365051
 51
0.5000019064933183
  0
ARC
  5
A70B
  8
0
 10
4937.674528129270584
 20
204.5464786143431013
 30
0.0
 40
0.005
 50
179.4999981228930892
 51
269.9989102430365051
  0
LINE
  5
A70C
  8
0
 10
4937.8466508254659857
 20
204.741611580290396
 30
0.0
 11
4937.8466508254659857
 21
204.8139057025904037
 31
0.0
  0
ARC
  5
A70D
  8
0
 10
4937.8584508254662069
 20
204.8139057025904037
 30
0.0
 40
0.0118
 50
90.0000000424698356
 51
180.0
  0
LINE
  5
A70E
  8
0
 10
4937.8584508254571119
 20
204.8257057025903123
 30
0.0
 11
4938.937203772265093
 21
204.8257057033904118
 31
0.0
  0
ARC
  5
A70F
  8
0
 10
4938.9372037722741879
 20
204.8138964453737003
 30
0.0
 40
0.0118092580167257
 50
359.991647277493712
 51
90.0000000424698356
  0
LINE
  5
A710
  8
0
 10
4938.9490130301655881
 20
204.8138947237904119
 30
0.0
 11
4938.9490024925480611
 21
204.741611580290396
 31
0.0
  0
LINE
  5
A711
  8
0
 10
4938.1320838962656126
 20
204.8730014450904093
 30
0.0
 11
4938.1320838962656126
 21
204.8257057027933001
 31
0.0
  0
LINE
  5
A712
  8
0
 10
4938.6635799592659168
 20
204.8730013877903957
 30
0.0
 11
4938.6635799592659168
 21
204.8257057027902874
 31
0.0
  0
LINE
  5
A713
  8
0
 10
4937.0687372884913202
 20
204.8063680774058923
 30
0.0
 11
4937.8486814039797537
 21
204.8063680774058923
 31
0.0
  0
LINE
  5
A714
  8
0
 10
4937.0687372884913202
 20
204.8431161745058944
 30
0.0
 11
4938.1320838962656126
 21
204.8431161745058944
 31
0.0
  0
LINE
  5
A715
  8
0
 10
4937.0687372884913202
 20
204.8631628579059054
 30
0.0
 11
4938.1320838962656126
 21
204.8631628579059054
 31
0.0
  0
LINE
  5
A716
  8
0
 10
4937.0687372884913202
 20
205.0581567581060085
 30
0.0
 11
4937.585342949681035
 21
205.0581567581060085
 31
0.0
  0
LINE
  5
A717
  8
0
 10
4937.0687372884913202
 20
205.2413428323058895
 30
0.0
 11
4937.6473027778201867
 21
205.2413428323058895
 31
0.0
  0
LINE
  5
A718
  8
0
 10
4937.0687372884913202
 20
205.2641161745058866
 30
0.0
 11
4938.188464485865552
 21
205.2641161745058866
 31
0.0
  0
LINE
  5
A719
  8
0
 10
4937.0687372884913202
 20
205.2921161745059067
 30
0.0
 11
4938.188464485865552
 21
205.2921161745059067
 31
0.0
  0
LINE
  5
A71A
  8
0
 10
4937.0687372884913202
 20
205.5141161745058866
 30
0.0
 11
4937.6752844979218935
 21
205.5141161745058866
 31
0.0
  0
LINE
  5
A71B
  8
0
 10
4938.188464485865552
 20
205.2828325245903898
 30
0.0
 11
4938.6084644858656247
 21
205.2828325245903898
 31
0.0
  0
LINE
  5
A71C
  8
0
 10
4938.188464485865552
 20
205.2668765689903978
 30
0.0
 11
4938.6084644858656247
 21
205.2668765689903978
 31
0.0
  0
LINE
  5
A71D
  8
0
 10
4939.1270415285043782
 20
204.7330551860474941
 30
0.0
 11
4939.7549577609916014
 21
204.7330046236513112
 31
0.0
  0
LINE
  5
A71E
  8
0
 10
4940.5425168160909379
 20
204.732941206158813
 30
0.0
 11
4964.670925708390314
 21
204.7314411701005099
 31
0.0
  0
LINE
  5
A71F
  8
0
 10
4938.9510428743687953
 20
204.8063680774058923
 30
0.0
 11
4964.8469236282799102
 21
204.8047540614579987
 31
0.0
  0
LINE
  5
A720
  8
0
 10
4938.6635799592659168
 20
204.8431161745058944
 30
0.0
 11
4965.1323566990786276
 21
204.841502158558086
 31
0.0
  0
LINE
  5
A721
  8
0
 10
4938.6635799592659168
 20
204.8631628579059054
 30
0.0
 11
4965.1323566990786276
 21
204.8615488419582107
 31
0.0
  0
LINE
  5
A722
  8
0
 10
4939.2103273048023766
 20
205.0581567581060085
 30
0.0
 11
4964.5856076469353866
 21
205.0565427421574043
 31
0.0
  0
LINE
  5
A723
  8
0
 10
4939.1484452694612628
 20
205.2413428323058895
 30
0.0
 11
4964.6468153569458082
 21
205.2397288163577116
 31
0.0
  0
LINE
  5
A724
  8
0
 10
4938.6084644858656247
 20
205.2641161745058866
 30
0.0
 11
4965.188737288680386
 21
205.2625021585579077
 31
0.0
  0
LINE
  5
A725
  8
0
 10
4938.6084644858656247
 20
205.2921161745059919
 30
0.0
 11
4965.188737288680386
 21
205.2905021585575014
 31
0.0
  0
LINE
  5
A726
  8
0
 10
4939.1216444739102371
 20
205.5141161745058866
 30
0.0
 11
4950.8650678570829768
 21
205.5141161745061993
 31
0.0
  0
ARC
  5
A727
  8
0
 10
4950.8650678570829768
 20
205.7641161745061993
 30
0.0
 40
0.25
 50
270.0
 51
298.1227062963943126
  0
LINE
  5
A728
  8
0
 10
4951.9490678579813903
 20
205.5141161745061993
 30
0.0
 11
4964.6755790272463855
 21
205.5125021585585898
 31
0.0
  0
ARC
  5
A729
  8
0
 10
4951.9490678579813903
 20
205.7641161745061993
 30
0.0
 40
0.25
 50
241.8772937926981115
 51
270.0
  0
LINE
  5
A72A
  8
0
 10
4965.188737288680386
 20
205.2822027606634094
 30
0.0
 11
4965.6087372886786397
 21
205.2822027606634094
 31
0.0
  0
LINE
  5
A72B
  8
0
 10
4965.188737288680386
 20
205.266246805063389
 30
0.0
 11
4965.6087372886786397
 21
205.266246805063389
 31
0.0
  0
LINE
  5
A72C
  8
0
 10
4966.1252837528036252
 20
204.7315398466816987
 30
0.0
 11
4967.3361184947088987
 21
204.7316162146219085
 31
0.0
  0
LINE
  5
A72D
  8
0
 10
4991.9361944896982095
 20
204.3062411745059137
 30
0.0
 11
4992.3449515330921713
 21
204.3062411745447946
 31
0.0
  0
LINE
  5
A72E
  8
0
 10
4980.9817918908547654
 20
205.5436311407833898
 30
0.0
 11
4981.1908395652981199
 21
205.6553586913059917
 31
0.0
  0
ARC
  5
A72F
  8
0
 10
4981.2497597443716586
 20
205.5451161740776058
 30
0.0
 40
0.125000000428342
 50
90.000000080249734
 51
118.1227063099843946
  0
LINE
  5
A730
  8
0
 10
4981.2497597441979451
 20
205.6701161745058926
 30
0.0
 11
4981.5621433220967447
 21
205.6701161749435016
 31
0.0
  0
ARC
  5
A731
  8
0
 10
4981.5621433222731866
 20
205.5451161791820027
 30
0.0
 40
0.1249999957614563
 50
61.8772927287431429
 51
90.000000080249734
  0
LINE
  5
A732
  8
0
 10
4981.6210635009965699
 20
205.6553586913059917
 30
0.0
 11
4981.8301111735227096
 21
205.543631137298604
 31
0.0
  0
LINE
  5
A733
  8
0
 10
4965.9492850986680423
 20
204.8047540614577997
 30
0.0
 11
4991.7159515330977229
 21
204.806368077406006
 31
0.0
  0
LINE
  5
A734
  8
0
 10
4965.6638527620798413
 20
204.841502158557887
 30
0.0
 11
4991.7159515330977229
 21
204.8431161745060081
 31
0.0
  0
LINE
  5
A735
  8
0
 10
4965.6638527620798413
 20
204.861548841957898
 30
0.0
 11
4991.7159515330977229
 21
204.8631628579061896
 31
0.0
  0
LINE
  5
A736
  8
0
 10
4966.2106082131767835
 20
205.0565427421580011
 30
0.0
 11
4991.7159515330977229
 21
205.058156758105298
 31
0.0
  0
LINE
  5
A737
  8
0
 10
4966.1466874937614193
 20
205.2397288163579105
 30
0.0
 11
4991.7159515330977229
 21
205.2413428323056905
 31
0.0
  0
LINE
  5
A738
  8
0
 10
4965.6087372886786397
 20
205.2625021585579077
 30
0.0
 11
4991.7159515330977229
 21
205.2641161745058866
 31
0.0
  0
LINE
  5
A739
  8
0
 10
4965.6087372886786397
 20
205.2905021585578993
 30
0.0
 11
4991.7159515330977229
 21
205.292116174505594
 31
0.0
  0
LINE
  5
A73A
  8
0
 10
4966.1218955502126846
 20
205.512502158557794
 30
0.0
 11
4980.8639515330105496
 21
205.5141161745061993
 31
0.0
  0
LINE
  5
A73B
  8
0
 10
4981.9479515526481919
 20
205.5141161745061993
 30
0.0
 11
4991.7159515330977229
 21
205.5141161745065119
 31
0.0
  0
ARC
  5
A73C
  8
0
 10
4981.9479515526481919
 20
205.7641162860539907
 30
0.0
 40
0.2500001115477209
 50
241.8773017980678901
 51
269.999995519512197
  0
ARC
  5
A73D
  8
0
 10
4980.8639515330105496
 20
205.7641161750568983
 30
0.0
 40
0.250000000550969
 50
270.0000000198539851
 51
298.1227062679257074
  0
LINE
  5
A73E
  8
0
 10
4992.3230903625462815
 20
206.2951738333584899
 30
0.0
 11
4961.4485984590901353
 21
206.2951738334521963
 31
0.0
  0
LINE
  5
A73F
  8
0
 10
4961.4485984590428416
 20
205.9831738334997056
 30
0.0
 11
4992.3230903624980783
 21
205.9831738334059992
 31
0.0
  0
ARC
  5
A740
  8
0
 10
4962.6624346622029407
 20
205.9781738334125123
 30
0.0
 40
0.0050000001418766
 50
90.0000006776932651
 51
180.4999983851159868
  0
LINE
  5
A741
  8
0
 10
4962.6574348524445668
 20
205.9781302008746877
 30
0.0
 11
4962.6591362053923149
 21
205.7831738335059129
 31
0.0
  0
LINE
  5
A742
  8
0
 10
4962.6591362053923149
 20
205.7831738335059129
 30
0.0
 11
4964.1123383772437592
 21
205.7831738335544003
 31
0.0
  0
LINE
  5
A743
  8
0
 10
4964.1123383772437592
 20
205.7831738335544003
 30
0.0
 11
4964.1140397356593894
 21
205.9781302008769046
 31
0.0
  0
ARC
  5
A744
  8
0
 10
4964.1088241114393895
 20
205.9781757169392051
 30
0.0
 40
0.0052158228222036
 50
359.5000000079980964
 51
73.3875410595842084
  0
LINE
  5
A745
  8
0
 10
4962.8345561917440136
 20
205.7831738335544003
 30
0.0
 11
4962.8345561917440136
 21
205.731116174654403
 31
0.0
  0
LINE
  5
A746
  8
0
 10
4963.9369183964436161
 20
205.7831738335484886
 30
0.0
 11
4963.9369183964436161
 21
205.731116174654403
 31
0.0
  0
LINE
  5
A747
  8
0
 10
4964.0475422095951217
 20
206.6083834392001961
 30
0.0
 11
4965.7375699314843587
 21
206.6083427028848973
 31
0.0
  0
ARC
  5
A748
  8
0
 10
4965.7375691851184456
 20
206.5783431390277087
 30
0.0
 40
0.0299995638664163
 50
359.9410985366488944
 51
89.9985745226571936
  0
LINE
  5
A749
  8
0
 10
4965.7675687331311565
 20
206.5783122987473917
 30
0.0
 11
4965.7672776597582924
 21
206.2951738333846947
 31
0.0
  0
LINE
  5
A74A
  8
0
 10
4964.0471762756778844
 20
206.5409357401439081
 30
0.0
 11
4965.4989246779841778
 21
206.5408640057848118
 31
0.0
  0
ARC
  5
A74B
  8
0
 10
4965.4991031747604211
 20
210.0048212299523129
 30
0.0
 40
3.4639572287664739
 50
269.9970475640184873
 51
272.7547383837382995
  0
ARC
  5
A74C
  8
0
 10
4965.6509437461882044
 20
206.8491243504728061
 30
0.0
 40
0.3046094552080257
 50
272.7547383837382995
 51
282.8890643728018972
  0
ARC
  5
A74D
  8
0
 10
4965.7190450661328214
 20
206.5225775041139968
 30
0.0
 40
0.0296127958991577
 50
358.675464366692097
 51
90.2977646125745537
  0
LINE
  5
A74E
  8
0
 10
4965.7486499495607859
 20
206.5218929910442114
 30
0.0
 11
4965.7488866017338296
 21
206.3770213826342967
 31
0.0
  0
ARC
  5
A74F
  8
0
 10
4965.7189395684636111
 20
206.3769724632454938
 30
0.0
 40
0.0299470732270077
 50
269.9084056118746275
 51
0.0935943136312293
  0
ARC
  5
A750
  8
0
 10
4965.7301970144580991
 20
213.4189278413539057
 30
0.0
 40
7.0719114495470228
 50
268.125925081248397
 51
269.9084056118746275
  0
LINE
  5
A751
  8
0
 10
4965.4989246779841778
 20
206.3507990467848003
 30
0.0
 11
4964.0461446991266712
 21
206.3507990469612992
 31
0.0
  0
LINE
  5
A752
  8
0
 10
4936.4616326748564461
 20
204.5317109388128927
 30
0.0
 11
4967.3286114292377533
 21
204.5389322718002063
 31
0.0
  0
LINE
  5
A753
  8
0
 10
4967.33583028636167
 20
204.2196661095858019
 30
0.0
 11
4936.4616003619330513
 21
204.2197118090128924
 31
0.0
  0
LINE
  5
A754
  8
0
 10
4939.942737288492026
 20
204.6176049851439132
 30
0.0
 11
4939.942737288492026
 21
204.5327019206646071
 31
0.0
  0
LINE
  5
A755
  8
0
 10
4940.3547372884913784
 20
204.6176311620471893
 30
0.0
 11
4940.3547372884913784
 21
204.5328192065746862
 31
0.0
  0
LINE
  5
A756
  8
0
 10
4950.982908214777126
 20
205.5436311407769949
 30
0.0
 11
4951.1919558892841451
 21
205.655358691270493
 31
0.0
  0
ARC
  5
A757
  8
0
 10
4951.2508760681312197
 20
205.545116174405905
 30
0.0
 40
0.1250000000000283
 50
90.0
 51
118.1227062963942984
  0
LINE
  5
A758
  8
0
 10
4951.2508760681312197
 20
205.670116174405905
 30
0.0
 11
4951.5632596460309287
 21
205.6701161744059903
 31
0.0
  0
ARC
  5
A759
  8
0
 10
4951.5632596460309287
 20
205.5451161739300971
 30
0.0
 40
0.125000000475886
 50
61.877293792698147
 51
90.0
  0
LINE
  5
A75A
  8
0
 10
4951.622179824930754
 20
205.6553586913059064
 30
0.0
 11
4951.8312275006283016
 21
205.5436311405939023
 31
0.0
  0
LINE
  5
A75B
  8
0
 10
4965.7375699314843587
 20
206.6083427028848973
 30
0.0
 11
4965.7188911699277014
 21
206.5521899001151098
 31
0.0
  0
ARC
  5
A75C
  8
0
 10
4967.1735494908689361
 20
204.3757115072390889
 30
0.0
 40
0.2251337884778164
 50
316.1221706069118227
 51
46.4683925720105435
  0
LINE
  5
A75D
  8
0
 10
4967.3986621562626169
 20
204.3726275821371985
 30
0.0
 11
4967.3986621562626169
 21
204.5814863781023121
 31
0.0
  0
ARC
  5
A75E
  8
0
 10
4967.174292533807602
 20
204.575814833567307
 30
0.0
 40
0.2244412927634806
 50
1.447996287550003
 51
43.950723253639417
  0
LINE
  5
A75F
  8
0
 10
4967.3358761178924397
 20
204.731585945305909
 30
0.0
 11
4967.3358761178924397
 21
204.5317092279721862
 31
0.0
  0
ARC
  5
A760
  8
0
 10
4936.6237007737190652
 20
204.3756945872762003
 30
0.0
 40
0.2249603756582882
 50
136.0899550490213983
 51
223.8981770070112134
  0
LINE
  5
A761
  8
0
 10
4936.4183882257693767
 20
204.6934587224193081
 30
0.0
 11
4937.0490863512150099
 21
204.704468059557513
 31
0.0
  0
ARC
  5
A762
  8
0
 10
4936.418737288491684
 20
204.6734617687708067
 30
0.0
 40
0.02
 50
91.0000418130613866
 51
180.0
  0
ARC
  5
A763
  8
0
 10
4937.0487372884917932
 20
204.7244650132059007
 30
0.0
 40
0.02
 50
271.0000418130612729
 51
0.0
  0
LINE
  5
A764
  8
0
 10
4936.4616326748537176
 20
204.5317109388128927
 30
0.0
 11
4936.4616326748537176
 21
204.6942135886542076
 31
0.0
  0
LINE
  5
A765
  8
0
 10
4937.0687372884913202
 20
204.731585945305909
 30
0.0
 11
4937.6711433521459185
 21
204.731585945305909
 31
0.0
  0
LINE
  5
A766
  8
0
 10
4939.7549577609916014
 20
204.8063044600773139
 30
0.0
 11
4939.7549577609916014
 21
204.6771389976379965
 31
0.0
  0
LINE
  5
A767
  8
0
 10
4940.5425168160909379
 20
204.8062421370578079
 30
0.0
 11
4940.5425168160909379
 21
204.6770909022127114
 31
0.0
  0
ARC
  5
A768
  8
0
 10
4940.15471352725217
 20
297.5672670292321982
 30
0.0
 40
92.9109042919057231
 50
269.7657632528450904
 51
270.2268643132069883
  0
ARC
  5
A769
  8
0
 10
4939.7749577609920379
 20
204.6771389976379965
 30
0.0
 40
0.02
 50
180.0
 51
269.7657632526888278
  0
ARC
  5
A76A
  8
0
 10
4940.5225168160914109
 20
204.6770909022127114
 30
0.0
 40
0.02
 50
270.2268643131026806
 51
0.0
  0
ARC
  5
A76B
  8
0
 10
4940.518690044392315
 20
204.6490756138624079
 30
0.0
 40
0.008
 50
0.0
 51
90.2244362629599834
  0
ARC
  5
A76C
  8
0
 10
4939.7787845325919989
 20
204.6491232025323086
 30
0.0
 40
0.008
 50
89.7681935260274884
 51
180.0
  0
ARC
  5
A76D
  8
0
 10
4940.1432826271438898
 20
290.4688911267417097
 30
0.0
 40
85.8515203744194935
 50
269.7567170460553143
 51
270.2505643882137178
  0
ARC
  5
A76E
  8
0
 10
4940.518690044392315
 20
204.6261916145267037
 30
0.0
 40
0.008
 50
270.2505643881095239
 51
0.0
  0
ARC
  5
A76F
  8
0
 10
4939.7787845325919989
 20
204.6261445990797085
 30
0.0
 40
0.008
 50
180.0
 51
269.7567170461593946
  0
LINE
  5
A770
  8
0
 10
4940.5266900443912164
 20
204.6490756138624079
 30
0.0
 11
4940.5266900443912164
 21
204.6261916145267037
 31
0.0
  0
LINE
  5
A771
  8
0
 10
4939.7707845325912785
 20
204.6491232025323086
 30
0.0
 11
4939.7707845325912785
 21
204.6261445990797085
 31
0.0
  0
ARC
  5
A772
  8
0
 10
4961.6107372884907818
 20
206.1391738334513093
 30
0.0
 40
0.2250000000000432
 50
136.1054462359201978
 51
223.89455374664891
  0
ARC
  5
A773
  8
0
 10
4992.1609515331001603
 20
206.1391738334071988
 30
0.0
 40
0.2249999999975679
 50
316.1054462353189933
 51
43.8945537470371505
  0
LINE
  5
A774
  8
0
 10
4991.7356024849686946
 20
204.7044680593064072
 30
0.0
 11
4992.3663005812259144
 21
204.6934591831071089
 31
0.0
  0
ARC
  5
A775
  8
0
 10
4991.7359515330972499
 20
204.7244650132095103
 30
0.0
 40
0.02
 50
180.0
 51
269.0000000019005029
  0
LINE
  5
A776
  8
0
 10
4988.2609515330977956
 20
206.3371738365825081
 30
0.0
 11
4988.2609515330977956
 21
208.0620108476468033
 31
0.0
  0
LINE
  5
A777
  8
0
 10
4989.0109515330977956
 20
206.3371738210329056
 30
0.0
 11
4989.0109515330977956
 21
208.0620108476466896
 31
0.0
  0
LINE
  5
A778
  8
0
 10
4988.242171446602697
 20
205.7311161745058996
 30
0.0
 11
4988.242171446602697
 21
205.9234057613799109
 31
0.0
  0
LINE
  5
A779
  8
0
 10
4989.029730501702943
 20
205.7311161745058996
 30
0.0
 11
4989.029730501702943
 21
205.9234538568051107
 31
0.0
  0
ARC
  5
A77A
  8
0
 10
4988.6419272128641751
 20
113.033277729785496
 30
0.0
 40
92.9109042919057231
 50
89.7731356867929833
 51
90.234236747154867
  0
ARC
  5
A77B
  8
0
 10
4988.2621714466031335
 20
205.9234057613799109
 30
0.0
 40
0.02
 50
90.2342367473111864
 51
180.0
  0
ARC
  5
A77C
  8
0
 10
4989.0097305017015969
 20
205.9234538568051107
 30
0.0
 40
0.02
 50
0.0
 51
89.7731356868972057
  0
ARC
  5
A77D
  8
0
 10
4989.0059037300034106
 20
205.9514691451553858
 30
0.0
 40
0.008
 50
269.7755637370399882
 51
0.0
  0
ARC
  5
A77E
  8
0
 10
4988.2659982182030944
 20
205.9514215564855988
 30
0.0
 40
0.008
 50
180.0
 51
270.2318064739725969
  0
ARC
  5
A77F
  8
0
 10
4988.6304963127549854
 20
120.1316536322760982
 30
0.0
 40
85.8515203744194935
 50
89.7494356117862253
 51
90.2432829539447852
  0
ARC
  5
A780
  8
0
 10
4989.0059037300034106
 20
205.9743531444912037
 30
0.0
 40
0.008
 50
0.0
 51
89.7494356118904477
  0
ARC
  5
A781
  8
0
 10
4988.2659982182030944
 20
205.9744001599381988
 30
0.0
 40
0.008
 50
90.243282953840577
 51
180.0
  0
LINE
  5
A782
  8
0
 10
4989.0139037300032214
 20
205.9514691451553858
 30
0.0
 11
4989.0139037300032214
 21
205.9743531444912037
 31
0.0
  0
LINE
  5
A783
  8
0
 10
4988.2579982182041931
 20
205.9514215564855988
 30
0.0
 11
4988.2579982182041931
 21
205.9744001599381988
 31
0.0
  0
ARC
  5
A784
  8
0
 10
4988.2659987772804016
 20
206.3061738365207134
 30
0.0
 40
0.0080000000824754
 50
180.0000003065545116
 51
269.9999994092265752
  0
LINE
  5
A785
  8
0
 10
4988.2579987771969172
 20
206.3061738364777966
 30
0.0
 11
4988.2579987770759544
 21
206.3291738364779064
 31
0.0
  0
ARC
  5
A786
  8
0
 10
4988.2659987770321095
 20
206.3291738365207095
 30
0.0
 40
0.007999999957196
 50
89.9999988120956971
 51
180.0000003065806027
  0
LINE
  5
A787
  8
0
 10
4988.2609515330977956
 20
206.3371738365825081
 30
0.0
 11
4989.0109515330977956
 21
206.3371738210329056
 31
0.0
  0
ARC
  5
A788
  8
0
 10
4989.0059042888306067
 20
206.3291738209717039
 30
0.0
 40
0.0080000001658789
 50
0.0001110546874814
 51
89.9999988120956971
  0
LINE
  5
A789
  8
0
 10
4989.0139042889977645
 20
206.3291738364779064
 30
0.0
 11
4989.0139043335775568
 21
206.3061738364779103
 31
0.0
  0
ARC
  5
A78A
  8
0
 10
4989.0057782620260696
 20
206.3061738207273947
 30
0.0
 40
0.0081260715520887
 50
280.1063905342338103
 51
0.000111054682596
  0
LINE
  5
A78B
  8
0
 10
4937.5018762654908642
 20
203.6733058904420943
 30
0.0
 11
4939.2960411791909792
 21
203.6734402266421
 31
0.0
  0
LINE
  5
A78C
  8
0
 10
4939.2960411791909792
 20
203.6734402266421
 30
0.0
 11
4939.3365256675906494
 21
203.7136564882420942
 31
0.0
  0
LINE
  5
A78D
  8
0
 10
4939.3365256675906494
 20
203.7136564882420942
 30
0.0
 11
4939.3369454473704536
 21
203.8399545949422134
 31
0.0
  0
LINE
  5
A78E
  8
0
 10
4939.3369454473704536
 20
203.8399545949422134
 30
0.0
 11
4939.2967291857912642
 21
203.880439083242095
 31
0.0
  0
LINE
  5
A78F
  8
0
 10
4939.2967291857912642
 20
203.880439083242095
 30
0.0
 11
4937.5018762654908642
 21
203.880305890442088
 31
0.0
  0
LINE
  5
A790
  8
0
 10
4939.0607182806297715
 20
203.8804215692983064
 30
0.0
 11
4939.0591309097262638
 21
204.1730003934569879
 31
0.0
  0
LINE
  5
A791
  8
0
 10
4939.0591309097262638
 20
204.1730003934569879
 30
0.0
 11
4937.7390256675907949
 21
204.1733058904420943
 31
0.0
  0
LINE
  5
A792
  8
0
 10
4938.9995249397261432
 20
204.1731985070570943
 30
0.0
 11
4938.9995627828393481
 21
204.1845842709570036
 31
0.0
  0
LINE
  5
A793
  8
0
 10
4938.9995627828393481
 20
204.1845842709570036
 30
0.0
 11
4937.7986319668907527
 21
204.1845842709570036
 31
0.0
  0
LINE
  5
A794
  8
0
 10
4938.9891799198212539
 20
204.2197080677393899
 30
0.0
 11
4938.9886955171496083
 21
204.1954284739869081
 31
0.0
  0
ARC
  5
A795
  8
0
 10
4938.9776702756607847
 20
204.1956575784103052
 30
0.0
 40
0.0110276216270651
 50
273.830130234460114
 51
358.8095655207712866
  0
LINE
  5
A796
  8
0
 10
4939.3365256675906494
 20
203.7136564882420942
 30
0.0
 11
4937.4615256675906494
 21
203.7136564882420942
 31
0.0
  0
LINE
  5
A797
  8
0
 10
4939.3369454473704536
 20
203.8399545949422134
 30
0.0
 11
4937.4615256675906494
 21
203.8399552925421006
 31
0.0
  0
LINE
  5
A798
  8
0
 10
4937.5018762654908642
 20
203.880305890442088
 30
0.0
 11
4937.4615256675906494
 21
203.8399552925421006
 31
0.0
  0
LINE
  5
A799
  8
0
 10
4937.4615256675906494
 20
203.8399552925421006
 30
0.0
 11
4937.4615256675906494
 21
203.7136564882420942
 31
0.0
  0
LINE
  5
A79A
  8
0
 10
4937.4615256675906494
 20
203.7136564882420942
 30
0.0
 11
4937.5018762654908642
 21
203.6733058904420943
 31
0.0
  0
LINE
  5
A79B
  8
0
 10
4937.7371986311864021
 20
203.8803233532906916
 30
0.0
 11
4937.7387865349546701
 21
204.1730003934569879
 31
0.0
  0
LINE
  5
A79C
  8
0
 10
4937.7983925049547906
 20
204.1731985070570943
 30
0.0
 11
4937.7983546618415858
 21
204.1845842709570036
 31
0.0
  0
LINE
  5
A79D
  8
0
 10
4937.808737490000567
 20
204.2197098150070929
 30
0.0
 11
4937.809221927532235
 21
204.1954284739869081
 31
0.0
  0
ARC
  5
A79E
  8
0
 10
4937.8202471690210587
 20
204.1956575784103052
 30
0.0
 40
0.0110276216270651
 50
181.1904344792285997
 51
266.169869765539886
  0
LINE
  5
A79F
  8
0
 10
4964.5018021309979304
 20
203.6749444232058863
 30
0.0
 11
4966.2959670446980454
 21
203.675078759405892
 31
0.0
  0
LINE
  5
A7A0
  8
0
 10
4966.2959670446980454
 20
203.675078759405892
 30
0.0
 11
4966.3364515330977156
 21
203.7152950210058862
 31
0.0
  0
LINE
  5
A7A1
  8
0
 10
4966.3364515330977156
 20
203.7152950210058862
 30
0.0
 11
4966.3368713128766103
 21
203.8415931277060054
 31
0.0
  0
LINE
  5
A7A2
  8
0
 10
4966.3368713128766103
 20
203.8415931277060054
 30
0.0
 11
4966.2966550512983304
 21
203.882077616005887
 31
0.0
  0
LINE
  5
A7A3
  8
0
 10
4966.2966550512983304
 20
203.882077616005887
 30
0.0
 11
4964.5018021309979304
 21
203.8819444232059084
 31
0.0
  0
LINE
  5
A7A4
  8
0
 10
4966.0606441461359282
 20
203.8820601020620984
 30
0.0
 11
4966.0590567752324205
 21
204.1746389262208083
 31
0.0
  0
LINE
  5
A7A5
  8
0
 10
4966.0590567752324205
 20
204.1746389262208083
 30
0.0
 11
4964.7389515330978611
 21
204.1749444232058863
 31
0.0
  0
LINE
  5
A7A6
  8
0
 10
4965.9994508052341189
 20
204.174837039820801
 30
0.0
 11
4965.9994886483445953
 21
204.1862228037207956
 31
0.0
  0
LINE
  5
A7A7
  8
0
 10
4965.9994886483445953
 20
204.1862228037207956
 30
0.0
 11
4964.7985578323978189
 21
204.1862228037207956
 31
0.0
  0
LINE
  5
A7A8
  8
0
 10
4965.9890722975906101
 20
204.2196681030305001
 30
0.0
 11
4965.9886213826566745
 21
204.1970670067507001
 31
0.0
  0
ARC
  5
A7A9
  8
0
 10
4965.9775961411669414
 20
204.1972961111740972
 30
0.0
 40
0.0110276216270651
 50
273.830130234460114
 51
358.8095655207712866
  0
LINE
  5
A7AA
  8
0
 10
4966.3364515330977156
 20
203.7152950210058862
 30
0.0
 11
4964.4614515330977156
 21
203.7152950210058862
 31
0.0
  0
LINE
  5
A7AB
  8
0
 10
4966.3368713128766103
 20
203.8415931277060054
 30
0.0
 11
4964.4614515330977156
 21
203.8415938253058926
 31
0.0
  0
LINE
  5
A7AC
  8
0
 10
4964.5018021309979304
 20
203.8819444232059084
 30
0.0
 11
4964.4614515330977156
 21
203.8415938253058926
 31
0.0
  0
LINE
  5
A7AD
  8
0
 10
4964.4614515330977156
 20
203.8415938253058926
 30
0.0
 11
4964.4614515330977156
 21
203.7152950210058862
 31
0.0
  0
LINE
  5
A7AE
  8
0
 10
4964.4614515330977156
 20
203.7152950210058862
 30
0.0
 11
4964.5018021309979304
 21
203.6749444232058863
 31
0.0
  0
LINE
  5
A7AF
  8
0
 10
4964.7371244966925588
 20
203.881961886054512
 30
0.0
 11
4964.7387124004626457
 21
204.1746389262208083
 31
0.0
  0
LINE
  5
A7B0
  8
0
 10
4964.7983183704627663
 20
204.174837039820801
 30
0.0
 11
4964.7982805273495615
 21
204.1862228037207956
 31
0.0
  0
LINE
  5
A7B1
  8
0
 10
4964.8086968432471622
 20
204.2196698501990113
 30
0.0
 11
4964.8091477930383917
 21
204.1970670067507001
 31
0.0
  0
ARC
  5
A7B2
  8
0
 10
4964.8201730345281248
 20
204.1972961111740972
 30
0.0
 40
0.0110276216270651
 50
181.1904344792285997
 51
266.169869765539886
  0
LINE
  5
A7B3
  8
0
 10
4962.4888690761972612
 20
206.8466268283060003
 30
0.0
 11
4964.2830339898982857
 21
206.8464924921059094
 31
0.0
  0
LINE
  5
A7B4
  8
0
 10
4964.2830339898982857
 20
206.8464924921059094
 30
0.0
 11
4964.3235184782979559
 21
206.8062762305058868
 31
0.0
  0
LINE
  5
A7B5
  8
0
 10
4964.3235184782979559
 20
206.8062762305058868
 30
0.0
 11
4964.3239382580759411
 21
206.6799781238059097
 31
0.0
  0
LINE
  5
A7B6
  8
0
 10
4964.3239382580759411
 20
206.6799781238059097
 30
0.0
 11
4964.2837219964976612
 21
206.639493635505886
 31
0.0
  0
LINE
  5
A7B7
  8
0
 10
4964.2837219964976612
 20
206.639493635505886
 30
0.0
 11
4962.4888690761972612
 21
206.639626828305893
 31
0.0
  0
LINE
  5
A7B8
  8
0
 10
4964.0477110913361685
 20
206.6395111494497883
 30
0.0
 11
4964.0461237204317513
 21
206.3469323252911067
 31
0.0
  0
LINE
  5
A7B9
  8
0
 10
4964.0461237204317513
 20
206.3469323252911067
 30
0.0
 11
4962.7260184782981014
 21
206.3466268283058866
 31
0.0
  0
LINE
  5
A7BA
  8
0
 10
4963.9865177504316307
 20
206.3467342116910004
 30
0.0
 11
4963.9865555935457451
 21
206.3353484477910911
 31
0.0
  0
LINE
  5
A7BB
  8
0
 10
4963.9865555935457451
 20
206.3353484477910911
 30
0.0
 11
4962.7856247775980592
 21
206.3353484477910911
 31
0.0
  0
LINE
  5
A7BC
  8
0
 10
4963.9762734994919811
 20
206.2951738334446077
 30
0.0
 11
4963.9756883278578243
 21
206.3245042447611013
 31
0.0
  0
ARC
  5
A7BD
  8
0
 10
4963.9646630863671817
 20
206.3242751403377042
 30
0.0
 40
0.0110276216270651
 50
1.1904344792286841
 51
86.169869765539886
  0
LINE
  5
A7BE
  8
0
 10
4964.3235184782979559
 20
206.8062762305058868
 30
0.0
 11
4962.4485184782979559
 21
206.8062762305058868
 31
0.0
  0
LINE
  5
A7BF
  8
0
 10
4964.3239382580759411
 20
206.6799781238059097
 30
0.0
 11
4962.4485184782979559
 21
206.6799774262059088
 31
0.0
  0
LINE
  5
A7C0
  8
0
 10
4962.4888690761972612
 20
206.639626828305893
 30
0.0
 11
4962.4485184782979559
 21
206.6799774262059088
 31
0.0
  0
LINE
  5
A7C1
  8
0
 10
4962.4485184782979559
 20
206.6799774262059088
 30
0.0
 11
4962.4485184782979559
 21
206.8062762305058868
 31
0.0
  0
LINE
  5
A7C2
  8
0
 10
4962.4485184782979559
 20
206.8062762305058868
 30
0.0
 11
4962.4888690761972612
 21
206.8466268283060003
 31
0.0
  0
LINE
  5
A7C3
  8
0
 10
4962.7241914418937085
 20
206.6396093654572894
 30
0.0
 11
4962.725779345662886
 21
206.3469323252911067
 31
0.0
  0
LINE
  5
A7C4
  8
0
 10
4962.7853853156630066
 20
206.3467342116910004
 30
0.0
 11
4962.7853474725498018
 21
206.3353484477910911
 31
0.0
  0
LINE
  5
A7C5
  8
0
 10
4962.7956295666035658
 20
206.2951738334481036
 30
0.0
 11
4962.796214738236813
 21
206.3245042447611013
 31
0.0
  0
ARC
  5
A7C6
  8
0
 10
4962.8072399797283651
 20
206.3242751403377042
 30
0.0
 40
0.0110276216270651
 50
93.8301302344601282
 51
178.8095655207712866
  0
LINE
  5
A7C7
  8
0
 10
4988.2659987771976375
 20
206.2981738364381954
 30
0.0
 11
4989.0072041968842314
 21
206.2981738364368027
 31
0.0
  0
ARC
  5
A7C8
  8
0
 10
4988.8408019267972122
 20
206.2901738335058894
 30
0.0
 40
0.0079999999999886
 50
92.8490421970220723
 51
141.2457390198682106
  0
ARC
  5
A7C9
  8
0
 10
4988.43110113939656
 20
206.2901738335058894
 30
0.0
 40
0.0079999999999854
 50
38.7542609800315319
 51
89.9986157943066587
  0
LINE
  5
A7CA
  8
0
 10
4989.4888690761972612
 20
206.8466268283060003
 30
0.0
 11
4991.2830339898982857
 21
206.8464924921059094
 31
0.0
  0
LINE
  5
A7CB
  8
0
 10
4991.2830339898982857
 20
206.8464924921059094
 30
0.0
 11
4991.3235184782979559
 21
206.8062762305058868
 31
0.0
  0
LINE
  5
A7CC
  8
0
 10
4991.3235184782979559
 20
206.8062762305058868
 30
0.0
 11
4991.3239382580759411
 21
206.6799781238059097
 31
0.0
  0
LINE
  5
A7CD
  8
0
 10
4991.3239382580759411
 20
206.6799781238059097
 30
0.0
 11
4991.2837219964976612
 21
206.639493635505886
 31
0.0
  0
LINE
  5
A7CE
  8
0
 10
4991.2837219964976612
 20
206.639493635505886
 30
0.0
 11
4989.4888690761972612
 21
206.639626828305893
 31
0.0
  0
LINE
  5
A7CF
  8
0
 10
4991.0477110913361685
 20
206.6395111494497883
 30
0.0
 11
4991.0461237204326608
 21
206.3469323252911067
 31
0.0
  0
LINE
  5
A7D0
  8
0
 10
4991.0461237204326608
 20
206.3469323252911067
 30
0.0
 11
4989.7260184782981014
 21
206.3466268283058866
 31
0.0
  0
LINE
  5
A7D1
  8
0
 10
4990.9865177504334497
 20
206.3467342116910004
 30
0.0
 11
4990.9865555935457451
 21
206.3353484477910911
 31
0.0
  0
LINE
  5
A7D2
  8
0
 10
4990.9865555935457451
 20
206.3353484477910911
 30
0.0
 11
4989.7856247775980592
 21
206.3353484477910911
 31
0.0
  0
LINE
  5
A7D3
  8
0
 10
4990.9762734994938
 20
206.295173833362611
 30
0.0
 11
4990.9756883278578243
 21
206.3245042447611013
 31
0.0
  0
ARC
  5
A7D4
  8
0
 10
4990.9646630863671817
 20
206.3242751403377042
 30
0.0
 40
0.0110276216270651
 50
1.1904344792286841
 51
86.169869765539886
  0
LINE
  5
A7D5
  8
0
 10
4991.3235184782979559
 20
206.8062762305058868
 30
0.0
 11
4989.4485184782970464
 21
206.8062762305058868
 31
0.0
  0
LINE
  5
A7D6
  8
0
 10
4991.3239382580759411
 20
206.6799781238059097
 30
0.0
 11
4989.4485184782970464
 21
206.6799774262059088
 31
0.0
  0
LINE
  5
A7D7
  8
0
 10
4989.4888690761972612
 20
206.639626828305893
 30
0.0
 11
4989.4485184782970464
 21
206.6799774262059088
 31
0.0
  0
LINE
  5
A7D8
  8
0
 10
4989.4485184782970464
 20
206.6799774262059088
 30
0.0
 11
4989.4485184782970464
 21
206.8062762305058868
 31
0.0
  0
LINE
  5
A7D9
  8
0
 10
4989.4485184782970464
 20
206.8062762305058868
 30
0.0
 11
4989.4888690761972612
 21
206.8466268283060003
 31
0.0
  0
LINE
  5
A7DA
  8
0
 10
4989.7241914418937085
 20
206.6396093654572894
 30
0.0
 11
4989.725779345662886
 21
206.3469323252911067
 31
0.0
  0
LINE
  5
A7DB
  8
0
 10
4989.7853853156630066
 20
206.3467342116910004
 30
0.0
 11
4989.7853474725498018
 21
206.3353484477910911
 31
0.0
  0
LINE
  5
A7DC
  8
0
 10
4989.7956295666017468
 20
206.2951738333661069
 30
0.0
 11
4989.796214738236813
 21
206.3245042447611013
 31
0.0
  0
ARC
  5
A7DD
  8
0
 10
4989.8072399797292746
 20
206.3242751403377042
 30
0.0
 40
0.0110276216270651
 50
93.8301302344601282
 51
178.8095655207712866
  0
ARC
  5
A7DE
  8
0
 10
4989.6626489010868681
 20
205.978173833531514
 30
0.0
 40
0.0049999999744657
 50
89.9999998780620984
 51
180.5000005531167062
  0
LINE
  5
A7DF
  8
0
 10
4989.6576490914976603
 20
205.9781302008059072
 30
0.0
 11
4989.6593504518223199
 21
205.7831738335218006
 31
0.0
  0
LINE
  5
A7E0
  8
0
 10
4989.6593504518223199
 20
205.7831738335218006
 30
0.0
 11
4991.1125526161977177
 21
205.7831738335059129
 31
0.0
  0
LINE
  5
A7E1
  8
0
 10
4991.1125526161977177
 20
205.7831738335059129
 30
0.0
 11
4991.114253974697931
 21
205.9781302008059072
 31
0.0
  0
ARC
  5
A7E2
  8
0
 10
4991.1092541650623389
 20
205.9781738334851013
 30
0.0
 40
0.0050000000208498
 50
359.499999983076691
 51
90.0000007316273241
  0
LINE
  5
A7E3
  8
0
 10
4989.8347704306979722
 20
205.7831738335198963
 30
0.0
 11
4989.8347704306979722
 21
205.7311161745058996
 31
0.0
  0
LINE
  5
A7E4
  8
0
 10
4990.9371326353975746
 20
205.7831738335059129
 30
0.0
 11
4990.9371326353975746
 21
205.7311161745058996
 31
0.0
  0
LINE
  5
A7E5
  8
0
 10
4939.7739509608618391
 20
204.2197069061367927
 30
0.0
 11
4939.7744736356471549
 21
202.5405744855796968
 31
0.0
  0
LINE
  5
A7E6
  8
0
 10
4940.5236722065983486
 20
204.2197057964141891
 30
0.0
 11
4940.5243655931399189
 21
202.5390478937048044
 31
0.0
  0
CIRCLE
  5
A7E7
  8
0
 10
4940.1489515330977156
 20
202.3098804499765038
 30
0.0
 40
0.3900003846000004
  0
CIRCLE
  5
A7E8
  8
0
 10
4940.1489515330977156
 20
202.3098804499765038
 30
0.0
 40
0.4398334158999973
  0
CIRCLE
  5
A7E9
  8
0
 10
4988.6359515330977956
 20
208.2921738333764097
 30
0.0
 40
0.4399999999999978
  0
CIRCLE
  5
A7EA
  8
0
 10
4988.6359515330977956
 20
208.2921738333764097
 30
0.0
 40
0.3900000000000022
  0
LINE
  5
A7EB
  8
0
 10
4964.113095243297721
 20
205.8453527319763907
 30
0.0
 11
4965.5031701094976597
 21
205.8453527319763907
 31
0.0
  0
LINE
  5
A7EC
  8
0
 10
4965.5031701094976597
 20
205.8453527319763907
 30
0.0
 11
4965.5641506525980731
 21
205.8458045036763906
 31
0.0
  0
ARC
  5
A7ED
  8
0
 10
4965.5646803703248224
 20
205.853375771441705
 30
0.0
 40
0.007589776891661
 50
248.1719119042481054
 51
265.9977599266097172
  0
LINE
  5
A7EE
  8
0
 10
4965.5618583169980411
 20
205.8463301537763925
 30
0.0
 11
4965.5618583169980411
 21
205.8989844865764098
 31
0.0
  0
ARC
  5
A7EF
  8
0
 10
4965.591816783541617
 20
205.8989844865764098
 30
0.0
 40
0.0299584665450059
 50
89.9943627801802961
 51
180.0
  0
ARC
  5
A7F0
  8
0
 10
4965.5524792914393402
 20
207.915924327389007
 30
0.0
 40
1.9873697816649321
 50
271.1430059818495124
 51
273.7345769800352855
  0
ARC
  5
A7F1
  8
0
 10
4965.6560198468068847
 20
206.3296581651867996
 30
0.0
 40
0.3977280031646343
 50
273.7345769800352855
 51
278.2577472190101844
  0
ARC
  5
A7F2
  8
0
 10
4965.7066448701725676
 20
205.9808355993583859
 30
0.0
 40
0.0452509465752019
 50
278.2577472190101844
 51
289.3802055812550975
  0
ARC
  5
A7F3
  8
0
 10
4965.7206882482505534
 20
205.9409132488509044
 30
0.0
 40
0.0029306141344965
 50
289.3802055813096104
 51
326.6690418630565773
  0
LINE
  5
A7F4
  8
0
 10
4965.723136807397168
 20
205.9393029515763942
 30
0.0
 11
4965.7336444290067448
 21
205.9708286625348137
 31
0.0
  0
LINE
  5
A7F5
  8
0
 10
4965.7336444290067448
 20
205.9708286625348137
 30
0.0
 11
4965.7345545443977244
 21
205.9831502328763975
 31
0.0
  0
LINE
  5
A7F6
  8
0
 10
4965.7674515329972564
 20
205.9831738334866031
 30
0.0
 11
4965.7674515329972564
 21
205.7311161745058996
 31
0.0
  0
LINE
  5
A7F7
  8
0
 10
4965.4294725965946782
 20
205.9831738333764122
 30
0.0
 11
4965.5928650258920243
 21
205.9287063565051028
 31
0.0
  0
ENDSEC
  0
EOF
