  0
SECTION
  2
HEADER
  9
$ACADVER
  1
AC1009
  9
$INSBASE
 10
4717.5459573586977058
 20
185.3573373532528876
 30
0.0
  9
$EXTMIN
 10
4689.0124104796859683
 20
183.3539519009408139
 30
-0.0000000000000058
  9
$EXTMAX
 10
4746.2237442321729759
 20
190.3392237179965889
 30
0.0000000000000104
  9
$LIMMIN
 10
0.0
 20
0.0
  9
$LIMMAX
 10
11.6929133858000007
 20
8.2677165353999982
  9
$ORTHOMODE
 70
     0
  9
$REGENMODE
 70
     1
  9
$FILLMODE
 70
     1
  9
$QTEXTMODE
 70
     0
  9
$MIRRTEXT
 70
     0
  9
$DRAGMODE
 70
     2
  9
$LTSCALE
 40
0.6431102362
  9
$OSMODE
 70
  4095
  9
$ATTMODE
 70
     1
  9
$TEXTSIZE
 40
0.2
  9
$TRACEWID
 40
0.05
  9
$TEXTSTYLE
  7
STANDARD
  9
$CLAYER
  8
0
  9
$CELTYPE
  6
BYLAYER
  9
$CECOLOR
 62
   256
  9
$DIMSCALE
 40
1.0
  9
$DIMASZ
 40
0.1875
  9
$DIMEXO
 40
0.0625
  9
$DIMDLI
 40
0.4443307087
  9
$DIMRND
 40
0.0
  9
$DIMDLE
 40
0.0
  9
$DIMEXE
 40
0.125
  9
$DIMTP
 40
0.01
  9
$DIMTM
 40
0.01
  9
$DIMTXT
 40
2.0
  9
$DIMCEN
 40
0.1052362205
  9
$DIMTSZ
 40
0.0
  9
$DIMTOL
 70
     1
  9
$DIMLIM
 70
     0
  9
$DIMTIH
 70
     1
  9
$DIMTOH
 70
     1
  9
$DIMSE1
 70
     0
  9
$DIMSE2
 70
     0
  9
$DIMTAD
 70
     0
  9
$DIMZIN
 70
     0
  9
$DIMBLK
  1

  9
$DIMASO
 70
     1
  9
$DIMSHO
 70
     1
  9
$DIMPOST
  1
\X
  9
$DIMAPOST
  1

  9
$DIMALT
 70
     1
  9
$DIMALTD
 70
     2
  9
$DIMALTF
 40
25.3999999999999986
  9
$DIMLFAC
 40
1.0
  9
$DIMTOFL
 70
     0
  9
$DIMTVP
 40
0.0
  9
$DIMTIX
 70
     0
  9
$DIMSOXD
 70
     0
  9
$DIMSAH
 70
     0
  9
$DIMBLK1
  1

  9
$DIMBLK2
  1

  9
$DIMSTYLE
  2
STANDARD
  9
$DIMCLRD
 70
     0
  9
$DIMCLRE
 70
     0
  9
$DIMCLRT
 70
     0
  9
$DIMTFAC
 40
1.0
  9
$DIMGAP
 40
0.09
  9
$LUNITS
 70
     2
  9
$LUPREC
 70
     4
  9
$SKETCHINC
 40
0.1
  9
$FILLETRAD
 40
0.0
  9
$AUNITS
 70
     0
  9
$AUPREC
 70
     0
  9
$MENU
  1
.
  9
$ELEVATION
 40
0.0
  9
$PELEVATION
 40
0.0
  9
$THICKNESS
 40
0.0
  9
$LIMCHECK
 70
     0
  9
$BLIPMODE
 70
     0
  9
$CHAMFERA
 40
0.0
  9
$CHAMFERB
 40
0.0
  9
$SKPOLY
 70
     0
  9
$TDCREATE
 40
2458060.468368056230247
  9
$TDUPDATE
 40
2460998.7793749999254942
  9
$TDINDWG
 40
0.4103427083
  9
$TDUSRTIMER
 40
0.4103427083
  9
$USRTIMER
 70
     1
  9
$ANGBASE
 50
0.0
  9
$ANGDIR
 70
     0
  9
$PDMODE
 70
     0
  9
$PDSIZE
 40
0.3125
  9
$PLINEWID
 40
0.0
  9
$COORDS
 70
     1
  9
$SPLFRAME
 70
     0
  9
$SPLINETYPE
 70
     6
  9
$SPLINESEGS
 70
     8
  9
$ATTDIA
 70
     1
  9
$ATTREQ
 70
     1
  9
$HANDLING
 70
     1
  9
$HANDSEED
  5
B7E7
  9
$SURFTAB1
 70
     6
  9
$SURFTAB2
 70
     6
  9
$SURFTYPE
 70
     6
  9
$SURFU
 70
     6
  9
$SURFV
 70
     6
  9
$UCSNAME
  2

  9
$UCSORG
 10
0.0
 20
0.0
 30
0.0
  9
$UCSXDIR
 10
1.0
 20
0.0
 30
0.0
  9
$UCSYDIR
 10
0.0
 20
1.0
 30
0.0
  9
$PUCSNAME
  2

  9
$PUCSORG
 10
0.0
 20
0.0
 30
0.0
  9
$PUCSXDIR
 10
1.0
 20
0.0
 30
0.0
  9
$PUCSYDIR
 10
0.0
 20
1.0
 30
0.0
  9
$USERI1
 70
     0
  9
$USERI2
 70
     0
  9
$USERI3
 70
     0
  9
$USERI4
 70
     0
  9
$USERI5
 70
     0
  9
$USERR1
 40
0.0
  9
$USERR2
 40
0.0
  9
$USERR3
 40
0.0
  9
$USERR4
 40
0.0
  9
$USERR5
 40
0.0
  9
$WORLDVIEW
 70
     1
  9
$SHADEDGE
 70
     3
  9
$SHADEDIF
 70
    70
  9
$TILEMODE
 70
     1
  9
$MAXACTVP
 70
    64
  9
$PLIMCHECK
 70
     0
  9
$PEXTMIN
 10
1.0000000000000000E+20
 20
1.0000000000000000E+20
 30
1.0000000000000000E+20
  9
$PEXTMAX
 10
-1.0000000000000000E+20
 20
-1.0000000000000000E+20
 30
-1.0000000000000000E+20
  9
$PLIMMIN
 10
0.0
 20
0.0
  9
$PLIMMAX
 10
12.0
 20
9.0
  9
$UNITMODE
 70
     0
  9
$VISRETAIN
 70
     1
  9
$PLINEGEN
 70
     0
  9
$PSLTSCALE
 70
     1
  0
ENDSEC
  0
SECTION
  2
TABLES
  0
TABLE
  2
VPORT
 70
     1
  0
VPORT
  2
*ACTIVE
 70
     0
 10
0.0
 20
0.0
 11
1.0
 21
1.0
 12
914.0740099731173132
 22
60.8513256127188313
 13
0.0
 23
0.0
 14
1.0
 24
1.0
 15
0.0
 25
0.0
 16
0.0
 26
0.0
 36
17.1152628219792007
 17
3803.5440673828129547
 27
125.9952621967499056
 37
0.0
 40
25.8755876510358007
 41
2.2182448036951499
 42
50.0
 43
0.0
 44
0.0
 50
0.0
 51
0.0
 71
     0
 72
   100
 73
     1
 74
     1
 75
     0
 76
     0
 77
     0
 78
     0
  0
ENDTAB
  0
TABLE
  2
LTYPE
 70
     2
  0
LTYPE
  2
CONTINUOUS
 70
     0
  3
Solid line
 72
    65
 73
     0
 40
0.0
  0
LTYPE
  2
PHANTOM2
 70
     0
  3
___ _ _ ___ _ _ ___ _ _ ___ _ _
 72
    65
 73
     6
 40
1.25
 49
0.625
 49
-0.125
 49
0.125
 49
-0.125
 49
0.125
 49
-0.125
  0
ENDTAB
  0
TABLE
  2
LAYER
 70
     2
  0
LAYER
  2
0
 70
     0
 62
   255
  6
CONTINUOUS
  0
LAYER
  2
DEFPOINTS
 70
     0
 62
     7
  6
CONTINUOUS
  0
ENDTAB
  0
TABLE
  2
STYLE
 70
     1
  0
STYLE
  2
STANDARD
 70
     0
 40
0.0
 41
0.8
 50
0.0
 71
     0
 42
0.2
  3
txt
  4

  0
ENDTAB
  0
TABLE
  2
VIEW
 70
     0
  0
ENDTAB
  0
TABLE
  2
UCS
 70
     0
  0
ENDTAB
  0
TABLE
  2
APPID
 70
     9
  0
APPID
  2
ACAD
 70
     0
  0
APPID
  2
ACAD_MLEADERVER
 70
     0
  0
APPID
  2
ACAD_EXEMPT_FROM_CAD_STANDARDS
 70
     0
  0
APPID
  2
ACAD_NAV_VCDISPLAY
 70
     0
  0
APPID
  2
ACAECLAYERSTANDARD
 70
     0
  0
APPID
  2
ACCMTRANSPARENCY
 70
     0
  0
APPID
  2
ACAD_DSTYLE_DIMJAG
 70
     0
  0
APPID
  2
ACAD_DSTYLE_DIMTALN
 70
     0
  0
APPID
  2
ACDBATTR
 70
     0
  0
ENDTAB
  0
TABLE
  2
DIMSTYLE
 70
     1
  0
DIMSTYLE
  2
STANDARD
 70
     0
  3

  4

  5

  6

  7

 40
1.0
 41
0.1875
 42
0.0625
 43
0.38
 44
0.125
 45
0.0
 46
0.0
 47
0.01
 48
0.01
140
0.15625
141
0.09
142
0.0
143
25.3999999999999986
144
1.0
145
0.0
146
1.0
147
0.09
 71
     1
 72
     0
 73
     1
 74
     1
 75
     0
 76
     0
 77
     0
 78
     4
170
     0
171
     2
172
     0
173
     0
174
     0
175
     0
176
     0
177
     0
178
     0
  0
ENDTAB
  0
ENDSEC
  0
SECTION
  2
BLOCKS
  0
BLOCK
  8
0
  2
$MODEL_SPACE
 70
     0
 10
0.0
 20
0.0
 30
0.0
  3
$MODEL_SPACE
  1

  0
ENDBLK
  5
21
  8
0
  0
BLOCK
 67
     1
  8
0
  2
$PAPER_SPACE
 70
     0
 10
0.0
 20
0.0
 30
0.0
  3
$PAPER_SPACE
  1

  0
ENDBLK
  5
1D
 67
     1
  8
0
  0
BLOCK
  8
0
  2
_FILLED
 70
     0
 10
0.0
 20
0.0
 30
0.0
  3
_FILLED
  1

  0
SOLID
  5
A5FC
  8
0
  6
BYBLOCK
 62
     0
 10
0.0
 20
0.0
 30
0.0
 11
-1.0
 21
0.1666666667
 31
0.0
 12
-1.0
 22
-0.1666666667
 32
0.0
 13
-1.0
 23
-0.1666666667
 33
0.0
  0
ENDBLK
  5
A5FD
  8
0
  6
BYBLOCK
 62
     0
  0
ENDSEC
  0
SECTION
  2
ENTITIES
  0
ATTDEF
  5
3930
  8
DEFPOINTS
 10
4717.5410039928910919
 20
185.3559709590321063
 30
0.0
 40
0.001
  1
K-702425-L
  3

  2
MODELNUMBER
 70
     0
1001
ACDBATTR
1070
     0
1070
     1
  0
ATTDEF
  5
3931
  8
DEFPOINTS
 10
4717.5410039928910919
 20
185.354304292365498
 30
0.0
 40
0.001
  1
KOHLER
  3

  2
BRANDNAME
 70
     0
1001
ACDBATTR
1070
     0
1070
     1
  0
ATTDEF
  5
3932
  8
DEFPOINTS
 10
4717.5410039928910919
 20
185.3526376256988044
 30
0.0
 40
0.001
  1
BATH DOOR
  3

  2
PRODUCT
 70
     0
1001
ACDBATTR
1070
     0
1070
     1
  0
LINE
  5
B3D5
  8
0
 10
4689.2334573586986153
 20
188.528104152802598
 30
0.0
 11
4689.2334573586986153
 21
185.0372373532528059
 31
0.0
  0
LINE
  5
B3D6
  8
0
 10
4689.8514963286979764
 20
185.0372373532528059
 30
0.0
 11
4689.2334573586986153
 21
185.0372373532528059
 31
0.0
  0
LINE
  5
B3D7
  8
0
 10
4689.8514963286979764
 20
185.6772373532527922
 30
0.0
 11
4689.2334573586986153
 21
185.6772373532529059
 31
0.0
  0
LINE
  5
B3D8
  8
0
 10
4690.0074573586980478
 20
185.5673604232528078
 30
0.0
 11
4690.0074573586980478
 21
185.1423419831126864
 31
0.0
  0
ARC
  5
B3D9
  8
0
 10
4689.8536621121493226
 20
185.3788437061726881
 30
0.0
 40
0.3416132183817347
 50
269.6367497634466872
 51
277.128489146873676
  0
ARC
  5
B3DA
  8
0
 10
4689.8682504908556439
 20
185.260762846740306
 30
0.0
 40
0.222634809618232
 50
277.1741987094362116
 51
287.3386526596175941
  0
ARC
  5
B3DB
  8
0
 10
4689.8973309210468869
 20
185.1676176998996084
 30
0.0
 40
0.1250556632804092
 50
287.3386526596175941
 51
306.394555513040018
  0
ARC
  5
B3DC
  8
0
 10
4689.9223589273979087
 20
185.1336637833991006
 30
0.0
 40
0.0828742746402176
 50
306.394555513040018
 51
331.798796285405615
  0
ARC
  5
B3DD
  8
0
 10
4689.9101361730390636
 20
185.1402178973995944
 30
0.0
 40
0.096743381837054
 50
331.798796285404876
 51
349.2568542875491744
  0
ARC
  5
B3DE
  8
0
 10
4689.8676952303985672
 20
185.1478977990826138
 30
0.0
 40
0.139872511944489
 50
349.4067678620202173
 51
357.7235800898343996
  0
LINE
  5
B3DF
  8
0
 10
4689.2334573586986153
 20
185.228254546019798
 30
0.0
 11
4689.2239300374976665
 21
185.150660741402703
 31
0.0
  0
ARC
  5
B3E0
  8
0
 10
4689.2399300074976054
 20
185.1496818951528098
 30
0.0
 40
0.0160000000000278
 50
180.1109528369944996
 51
246.1376611440825002
  0
ARC
  5
B3E1
  8
0
 10
4689.3478711605976059
 20
185.6472358696528033
 30
0.0
 40
0.1224999999999785
 50
159.0656155100180058
 51
200.9343844899819089
  0
ARC
  5
B3E2
  8
0
 10
4689.8536621121493226
 20
185.3356310003331089
 30
0.0
 40
0.3416132183817347
 50
82.8715108531263667
 51
90.3632502365532559
  0
ARC
  5
B3E3
  8
0
 10
4689.8682504908556439
 20
185.4537118597654057
 30
0.0
 40
0.222634809618232
 50
72.6613473403823491
 51
82.8258012905637884
  0
ARC
  5
B3E4
  8
0
 10
4689.8973309210468869
 20
185.5468570066061034
 30
0.0
 40
0.1250556632804092
 50
53.6054444869600388
 51
72.6613473403823491
  0
ARC
  5
B3E5
  8
0
 10
4689.9223589273979087
 20
185.5808109231066112
 30
0.0
 40
0.0828742746402176
 50
28.2012037145937207
 51
53.6054444869600388
  0
ARC
  5
B3E6
  8
0
 10
4689.9101361730390636
 20
185.5742568091060889
 30
0.0
 40
0.096743381837054
 50
10.7431457124507705
 51
28.2012037145951489
  0
ARC
  5
B3E7
  8
0
 10
4689.8780658733521705
 20
185.5681294064985138
 30
0.0
 40
0.1293937703886354
 50
359.6594909189500981
 51
10.7616961617766993
  0
ARC
  5
B3E8
  8
0
 10
4689.2534573588936837
 20
185.7294645003327958
 30
0.0
 40
0.0200000002248522
 50
180.0
 51
271.0000714703714948
  0
LINE
  5
B3E9
  8
0
 10
4689.2538064319705882
 20
185.7094675466402975
 30
0.0
 11
4689.5326027226901715
 21
185.7143339540814964
 31
0.0
  0
ARC
  5
B3EA
  8
0
 10
4689.5324558176507708
 20
185.7343349556446981
 30
0.0
 40
0.0200015410561701
 50
270.4208232914268137
 51
359.9985896525433873
  0
LINE
  5
B3EB
  8
0
 10
4689.5524573586981205
 20
185.7343344633027016
 30
0.0
 11
4689.5524573586981205
 21
186.2154584071026875
 31
0.0
  0
ARC
  5
B3EC
  8
0
 10
4690.2024581679097537
 20
187.3517651470727969
 30
0.0
 40
0.0199983525693022
 50
359.9953197797025837
 51
89.0022361725547455
  0
LINE
  5
B3ED
  8
0
 10
4690.2028064068972526
 20
187.3717604674027086
 30
0.0
 11
4689.5721083105236175
 21
187.3827693437002893
 31
0.0
  0
LINE
  5
B3EE
  8
0
 10
4689.5524573586981205
 20
187.4027662975026089
 30
0.0
 11
4689.5524573586981205
 21
187.7338902413025892
 31
0.0
  0
ARC
  5
B3EF
  8
0
 10
4689.5324573586985935
 20
187.7338902413025892
 30
0.0
 40
0.0200000000000087
 50
0.0000000000203555
 51
87.598936564176384
  0
LINE
  5
B3F0
  8
0
 10
4689.5332952426560951
 20
187.7538726823565867
 30
0.0
 11
4689.2540058939548544
 21
187.7587536762430886
 31
0.0
  0
ARC
  5
B3F1
  8
0
 10
4689.2534600679182404
 20
187.7387572369700024
 30
0.0
 40
0.020003887363862
 50
88.4364333984184441
 51
179.3781544341042888
  0
ARC
  5
B3F2
  8
0
 10
4689.5724573586985571
 20
187.4027662976027102
 30
0.0
 40
0.0199999999999925
 50
180.0000002865043029
 51
268.9999998710840146
  0
LINE
  5
B3F3
  8
0
 10
4689.2334573586986153
 20
188.528104152802598
 30
0.0
 11
4689.5337551981510842
 21
188.5123662151538042
 31
0.0
  0
ARC
  5
B3F4
  8
0
 10
4689.5304580712972893
 20
188.4494532660258983
 30
0.0
 40
0.0629992874042944
 50
359.9993811320863983
 51
87.0000009970827648
  0
LINE
  5
B3F5
  8
0
 10
4689.5934573586982879
 20
188.4494525855529048
 30
0.0
 11
4689.5934448764510307
 21
187.3823969125542135
 31
0.0
  0
ARC
  5
B3F6
  8
0
 10
4689.3355119914422175
 20
185.6487373536944006
 30
0.0
 40
0.0320546324337371
 50
90.9999999467630829
 51
117.2387476976882965
  0
LINE
  5
B3F7
  8
0
 10
4689.3349525609983175
 20
185.6807871040527971
 30
0.0
 11
4689.5325268317710652
 21
185.6842357755936916
 31
0.0
  0
ARC
  5
B3F8
  8
0
 10
4689.5304003178889616
 20
185.7472989250690887
 30
0.0
 40
0.0630989927260863
 50
271.931304143736611
 51
328.093894284084115
  0
LINE
  5
B3F9
  8
0
 10
4690.0074573586980478
 20
185.5522373532527922
 30
0.0
 11
4690.8897808843012172
 21
185.5522373532527922
 31
0.0
  0
LINE
  5
B3FA
  8
0
 10
4689.5594573586986371
 20
185.6912820356832867
 30
0.0
 11
4689.5594573586986371
 21
185.6772373532529059
 31
0.0
  0
LINE
  5
B3FB
  8
0
 10
4690.0074573586980478
 20
185.1522373532527865
 30
0.0
 11
4692.9274573586981205
 21
185.1522373532529002
 31
0.0
  0
LINE
  5
B3FC
  8
0
 10
4692.2145039125061885
 20
185.5522373532527922
 30
0.0
 11
4692.9274573586981205
 21
185.5522373532527922
 31
0.0
  0
LINE
  5
B3FD
  8
0
 10
4693.6774573586981205
 20
185.5522373532527922
 30
0.0
 11
4717.8900725587027409
 21
185.5522373532527922
 31
0.0
  0
LINE
  5
B3FE
  8
0
 10
4690.2224573095336382
 20
186.3301123523025922
 30
0.0
 11
4691.000524230155861
 21
186.3301123523025922
 31
0.0
  0
LINE
  5
B3FF
  8
0
 10
4690.2224573586981933
 20
186.4001590366528092
 30
0.0
 11
4691.2859573010546228
 21
186.4001590366528092
 31
0.0
  0
LINE
  5
B400
  8
0
 10
4690.2224573586981933
 20
186.6010695906527985
 30
0.0
 11
4690.7399891392360587
 21
186.6010695906527985
 31
0.0
  0
LINE
  5
B401
  8
0
 10
4690.2224573586981933
 20
186.8291123532528957
 30
0.0
 11
4691.3413834277653223
 21
186.8291123532528957
 31
0.0
  0
LINE
  5
B402
  8
0
 10
4690.2224573586981933
 20
186.8361123532529007
 30
0.0
 11
4691.3413834277653223
 21
186.8361123514715985
 31
0.0
  0
LINE
  5
B403
  8
0
 10
4690.2224573586981933
 20
187.0511123532529041
 30
0.0
 11
4690.8282599631484118
 21
187.0511123532527904
 31
0.0
  0
LINE
  5
B404
  8
0
 10
4690.2224573586981933
 20
187.2681123532528886
 30
0.0
 11
4744.8694573586981278
 21
187.2681123532528034
 31
0.0
  0
LINE
  5
B405
  8
0
 10
4690.222456945734848
 20
186.8047059436096902
 30
0.0
 11
4691.3413834277653223
 21
186.804705943647491
 31
0.0
  0
LINE
  5
B406
  8
0
 10
4691.761383427765395
 20
186.8047059436617019
 30
0.0
 11
4718.3421354539077583
 21
186.8047059445609079
 31
0.0
  0
LINE
  5
B407
  8
0
 10
4718.7621354539078311
 20
186.8011123532670013
 30
0.0
 11
4744.8694573586981278
 21
186.8011123541500922
 31
0.0
  0
LINE
  5
B408
  8
0
 10
4692.102886434854554
 20
186.3276413107529095
 30
0.0
 11
4718.0012762562973876
 21
186.3276413107529095
 31
0.0
  0
LINE
  5
B409
  8
0
 10
4691.8174533640549271
 20
186.4001590366528944
 30
0.0
 11
4718.2867093271970589
 21
186.4001590366528944
 31
0.0
  0
LINE
  5
B40A
  8
0
 10
4692.3649249666341348
 20
186.601069589702206
 30
0.0
 11
4717.73928960131434
 21
186.6010695906838919
 31
0.0
  0
LINE
  5
B40B
  8
0
 10
4692.2745068799740693
 20
187.0511123532529041
 30
0.0
 11
4704.0152504940760991
 21
187.0511123532529041
 31
0.0
  0
LINE
  5
B40C
  8
0
 10
4705.0992940936303057
 20
187.0511123532529041
 30
0.0
 11
4717.8290129340075509
 21
187.0511123532527904
 31
0.0
  0
LINE
  5
B40D
  8
0
 10
4691.761383427765395
 20
186.8291123532528104
 30
0.0
 11
4718.3421354539077583
 21
186.8291123532528957
 31
0.0
  0
LINE
  5
B40E
  8
0
 10
4718.3421354539077583
 20
186.8361123532529007
 30
0.0
 11
4691.761383427765395
 21
186.8361123532529007
 31
0.0
  0
ARC
  5
B40F
  8
0
 10
4704.0152722943239496
 20
187.3011123523023116
 30
0.0
 40
0.2499999999996814
 50
269.9950037511649157
 51
294.4003762019904116
  0
ARC
  5
B410
  8
0
 10
4692.2039900227136968
 20
209.7464236381563012
 30
0.0
 40
25.6129035474210198
 50
297.7217440964088837
 51
298.2826307211745984
  0
ARC
  5
B411
  8
0
 10
4704.4009879555478619
 20
187.0824507331579127
 30
0.0
 40
0.1246852319550613
 50
88.8849077064896136
 51
119.3214441276773954
  0
ARC
  5
B412
  8
0
 10
4704.5584392567780014
 20
154.4066993653873965
 30
0.0
 40
32.80077933234233
 50
89.7292045638855313
 51
90.2707954360623575
  0
ARC
  5
B413
  8
0
 10
4704.7128614467701482
 20
187.0796055199926968
 30
0.0
 40
0.1275082564245194
 50
63.2362533393289112
 51
89.7292045638855313
  0
ARC
  5
B414
  8
0
 10
4718.4172511099823168
 20
212.603188542899403
 30
0.0
 40
28.8425801977789185
 50
241.7608000027275068
 51
242.2707040450767977
  0
ARC
  5
B415
  8
0
 10
4705.0992722943237823
 20
187.3011123523025105
 30
0.0
 40
0.2499999999997636
 50
245.8401908406378027
 51
270.0049960330987915
  0
LINE
  5
B416
  8
0
 10
4717.8059442521844176
 20
186.4057748633811116
 30
0.0
 11
4719.2983862859646251
 21
186.4057749829742932
 31
0.0
  0
ARC
  5
B417
  8
0
 10
4718.5521525917138206
 20
298.5721056669195264
 30
0.0
 40
111.7947941687960025
 50
269.6175588262823908
 51
270.3824536695548204
  0
ARC
  5
B418
  8
0
 10
4719.0698739478357311
 20
186.5927882218499008
 30
0.0
 40
0.2952826445827195
 50
320.7032947760291108
 51
39.2968627240024801
  0
ARC
  5
B419
  8
0
 10
4718.034456062388017
 20
186.59278867543199
 30
0.0
 40
0.2952825990478155
 50
140.7032845796939
 51
219.2968561695043945
  0
ARC
  5
B41A
  8
0
 10
4718.3302855752081086
 20
128.593600377494397
 30
0.0
 40
58.1885640393695027
 50
89.9883319333884231
 51
90.5163038174219423
  0
ARC
  5
B41B
  8
0
 10
4718.7919019009414114
 20
132.6961172559394981
 30
0.0
 40
54.0860563456099115
 50
89.4634511313693253
 51
90.0315329308053833
  0
LINE
  5
B41C
  8
0
 10
4717.2011484775757708
 20
188.1453388731528946
 30
0.0
 11
4718.890620724377186
 21
188.1453388731528946
 31
0.0
  0
LINE
  5
B41D
  8
0
 10
4718.9209573586977058
 20
187.9001700122528007
 30
0.0
 11
4718.9209573586977058
 21
188.1176498843693139
 31
0.0
  0
LINE
  5
B41E
  8
0
 10
4717.2002981527657539
 20
188.0479012986527891
 30
0.0
 11
4718.6523121773980165
 21
188.0479012986527891
 31
0.0
  0
ARC
  5
B41F
  8
0
 10
4718.6523121773980165
 20
193.0757242367672006
 30
0.0
 40
5.0278229381143902
 50
270.0
 51
271.4772470870087773
  0
ARC
  5
B420
  8
0
 10
4718.7532503743013876
 20
189.1616524676443021
 30
0.0
 40
1.11244986094298
 50
271.4772470870087773
 51
277.6986349530674261
  0
LINE
  5
B421
  8
0
 10
4718.9022770229412345
 20
188.0592297941169875
 30
0.0
 11
4718.9209573586977058
 21
188.1176498843693139
 31
0.0
  0
ARC
  5
B422
  8
0
 10
4718.8909174644422819
 20
188.1152007683384966
 30
0.0
 40
0.0301395656281046
 50
4.6609464222394097
 51
90.5641165581010341
  0
ARC
  5
B423
  8
0
 10
4718.8736987198280985
 20
187.9137331780353861
 30
0.0
 40
0.0285767964839341
 50
331.6652826185235199
 51
0.5701912203891983
  0
LINE
  5
B424
  8
0
 10
4718.9022770229412345
 20
188.0592297941169875
 30
0.0
 11
4718.9022741012486222
 21
187.9140175614514874
 31
0.0
  0
LINE
  5
B425
  8
0
 10
4718.9022741012486222
 20
187.9140175614514874
 30
0.0
 11
4718.9161216503916876
 21
187.9001700122528007
 31
0.0
  0
LINE
  5
B426
  8
0
 10
4718.9209573586977058
 20
187.5201700122528052
 30
0.0
 11
4718.9209573586977058
 21
187.2681123532528886
 31
0.0
  0
LINE
  5
B427
  8
0
 10
4718.6936699571151621
 20
187.4149205960968061
 30
0.0
 11
4718.6935951538980589
 21
187.305801137995303
 31
0.0
  0
LINE
  5
B428
  8
0
 10
4718.7147957940378546
 20
187.3060472456492107
 30
0.0
 11
4718.7153641424984016
 21
187.3592689259527901
 31
0.0
  0
ARC
  5
B429
  8
0
 10
4718.745645940043687
 20
187.3589455499729866
 30
0.0
 40
0.0302835241449681
 50
90.6041705541677658
 51
179.3881679396091045
  0
ARC
  5
B42A
  8
0
 10
4718.7311439386248821
 20
188.7341742386471992
 30
0.0
 40
1.3450216253392031
 50
270.6041705541676947
 51
273.6048728496550098
  0
ARC
  5
B42B
  8
0
 10
4718.7390674041962484
 20
188.6084050469073929
 30
0.0
 40
1.219003091394711
 50
273.6048728496550098
 51
275.7562378824359826
  0
ARC
  5
B42C
  8
0
 10
4718.8562546217735871
 20
187.4458874395710097
 30
0.0
 40
0.0505939030832276
 50
275.7562378824359826
 51
293.7660661544961158
  0
ARC
  5
B42D
  8
0
 10
4718.2774823362351526
 20
187.6078723508925918
 30
0.0
 40
0.6343334350110096
 50
340.8308647987128097
 51
344.0715883277957232
  0
ARC
  5
B42E
  8
0
 10
4718.6904620829809573
 20
186.8062396361056869
 30
0.0
 40
0.5917210099698575
 50
86.2747460162372874
 51
89.6966263217633468
  0
ARC
  5
B42F
  8
0
 10
4718.7245946451903365
 20
187.330471073593003
 30
0.0
 40
0.0663795668559412
 50
77.1886095027334136
 51
86.2747460162372874
  0
ARC
  5
B430
  8
0
 10
4718.3103539145931791
 20
186.9572037896433869
 30
0.0
 40
0.6130625093022982
 50
44.8051084999632181
 51
45.5970529865439076
  0
LINE
  5
B431
  8
0
 10
4718.6566759437237124
 20
187.305637171552803
 30
0.0
 11
4717.0906384609970701
 21
187.305637171552803
 31
0.0
  0
ARC
  5
B432
  8
0
 10
4718.6571310106728561
 20
191.3599301689787922
 30
0.0
 40
4.0542930229650782
 50
269.9935689365516964
 51
270.7126498787177979
  0
ARC
  5
B433
  8
0
 10
4718.6571270303284109
 20
191.3605771842564991
 30
0.0
 40
4.0549400377034353
 50
270.712592407083207
 51
270.8148796613950822
  0
LINE
  5
B434
  8
0
 10
4719.2142255725811992
 20
185.5522373532529059
 30
0.0
 11
4745.0844573586982733
 21
185.5522373532527922
 31
0.0
  0
LINE
  5
B435
  8
0
 10
4690.0022144020977066
 20
185.60393645975509
 30
0.0
 11
4690.0022144020977066
 21
185.683097988352813
 31
0.0
  0
LINE
  5
B436
  8
0
 10
4745.0897003152986144
 20
185.9112373532528011
 30
0.0
 11
4745.0897003152986144
 21
185.603936460705313
 31
0.0
  0
LINE
  5
B437
  8
0
 10
4745.0897003152986144
 20
185.9112373532528011
 30
0.0
 11
4720.5524573586981205
 21
185.9112373532528864
 31
0.0
  0
LINE
  5
B438
  8
0
 10
4719.1036384609978995
 20
186.3276413107529095
 30
0.0
 11
4744.8694573586981278
 21
186.3276413107527958
 31
0.0
  0
LINE
  5
B439
  8
0
 10
4718.8182053901982727
 20
186.4001590366528092
 30
0.0
 11
4744.8694573586981278
 21
186.4001590366528092
 31
0.0
  0
LINE
  5
B43A
  8
0
 10
4719.3650404417367099
 20
186.6010695906527985
 30
0.0
 11
4744.8694573586981278
 21
186.6010695906527985
 31
0.0
  0
LINE
  5
B43B
  8
0
 10
4718.7621354539078311
 20
186.8361123532529007
 30
0.0
 11
4744.8694573586981278
 21
186.8361123532529007
 31
0.0
  0
LINE
  5
B43C
  8
0
 10
4744.8694573586981278
 20
186.8291123532528957
 30
0.0
 11
4718.7621354539078311
 21
186.8291123532528957
 31
0.0
  0
LINE
  5
B43D
  8
0
 10
4719.2752579613952548
 20
187.0511123532527904
 30
0.0
 11
4734.0318878015386872
 21
187.0511123532529041
 31
0.0
  0
LINE
  5
B43E
  8
0
 10
4735.0888294217684233
 20
187.0511123532529041
 30
0.0
 11
4744.8694573586981278
 21
187.0511123532529041
 31
0.0
  0
ARC
  5
B43F
  8
0
 10
4734.0183586116536389
 20
187.3007460068753005
 30
0.0
 40
0.2499999999996814
 50
273.1021773660190206
 51
294.4003762019904116
  0
ARC
  5
B440
  8
0
 10
4722.2070763400433862
 20
209.7460572927292048
 30
0.0
 40
25.6129035474210198
 50
297.7217440964088837
 51
298.2826307211745984
  0
ARC
  5
B441
  8
0
 10
4734.4040742728775513
 20
187.082084387730788
 30
0.0
 40
0.1246852319550613
 50
88.8849077064896136
 51
119.3214441276773954
  0
ARC
  5
B442
  8
0
 10
4734.5615255741076908
 20
154.4063330199603001
 30
0.0
 40
32.80077933234233
 50
89.7292045638855313
 51
90.2707954360623575
  0
ARC
  5
B443
  8
0
 10
4734.7159477640998375
 20
187.0792391745656005
 30
0.0
 40
0.1275082564245194
 50
63.2362533393289112
 51
89.7292045638855313
  0
ARC
  5
B444
  8
0
 10
4748.4203374273120062
 20
212.6028221974723067
 30
0.0
 40
28.8425801977789185
 50
241.7608000027275068
 51
242.2707040450767977
  0
ARC
  5
B445
  8
0
 10
4735.1023586116543811
 20
187.3007460068754142
 30
0.0
 40
0.2499999999997636
 50
245.8401908406378027
 51
266.8978226338766717
  0
LINE
  5
B446
  8
0
 10
4745.8584573586986153
 20
188.5281041537527926
 30
0.0
 11
4745.8584573586986153
 21
185.0372373542030005
 31
0.0
  0
LINE
  5
B447
  8
0
 10
4745.2404183886983446
 20
185.0372373542030005
 30
0.0
 11
4745.8584573586986153
 21
185.0372373542030005
 31
0.0
  0
LINE
  5
B448
  8
0
 10
4745.2404183886983446
 20
185.6772373542029868
 30
0.0
 11
4745.8584573586986153
 21
185.6772373542029868
 31
0.0
  0
LINE
  5
B449
  8
0
 10
4745.0844573586982733
 20
185.5673604242030024
 30
0.0
 11
4745.0844573586982733
 21
185.1423419840629094
 31
0.0
  0
ARC
  5
B44A
  8
0
 10
4745.2382526052460889
 20
185.3788437071227975
 30
0.0
 40
0.3416132183817347
 50
262.871510853126324
 51
270.3632502365531991
  0
ARC
  5
B44B
  8
0
 10
4745.2236642265388582
 20
185.2607628476905006
 30
0.0
 40
0.222634809618232
 50
252.6613473403822923
 51
262.8258012905637884
  0
ARC
  5
B44C
  8
0
 10
4745.1945837963494341
 20
185.167617700849803
 30
0.0
 40
0.1250556632804092
 50
233.6054444869600957
 51
252.6613473403822923
  0
ARC
  5
B44D
  8
0
 10
4745.1695557899993219
 20
185.1336637843492952
 30
0.0
 40
0.0828742746402176
 50
208.2012037145937029
 51
233.6054444869600957
  0
ARC
  5
B44E
  8
0
 10
4745.1817785443572575
 20
185.140217898349789
 30
0.0
 40
0.096743381837054
 50
190.7431457124507119
 51
208.2012037145950956
  0
ARC
  5
B44F
  8
0
 10
4745.2242194869959349
 20
185.1478978000328084
 30
0.0
 40
0.139872511944489
 50
182.2764199101656004
 51
190.5932321379798111
  0
LINE
  5
B450
  8
0
 10
4745.8584573586986153
 20
185.2282545469699926
 30
0.0
 11
4745.8679846798986546
 21
185.1506607423528123
 31
0.0
  0
ARC
  5
B451
  8
0
 10
4745.8519847098987157
 20
185.1496818961030044
 30
0.0
 40
0.016000000000024
 50
293.8623388559167893
 51
359.8890471568727776
  0
ARC
  5
B452
  8
0
 10
4745.7440435567987151
 20
185.6472358706029979
 30
0.0
 40
0.1224999999999785
 50
339.0656155100181195
 51
20.9343844899819302
  0
ARC
  5
B453
  8
0
 10
4745.2382526052460889
 20
185.3356310012831898
 30
0.0
 40
0.3416132183817347
 50
89.6367497634467441
 51
97.1284891468736475
  0
ARC
  5
B454
  8
0
 10
4745.2236642265388582
 20
185.4537118607156003
 30
0.0
 40
0.222634809618232
 50
97.1741987094362258
 51
107.3386526596175941
  0
ARC
  5
B455
  8
0
 10
4745.1945837963494341
 20
185.546857007556298
 30
0.0
 40
0.1250556632804092
 50
107.3386526596175941
 51
126.3945555130399043
  0
ARC
  5
B456
  8
0
 10
4745.1695557899993219
 20
185.5808109240568058
 30
0.0
 40
0.0828742746402176
 50
126.3945555130399043
 51
151.7987962854062118
  0
ARC
  5
B457
  8
0
 10
4745.1817785443572575
 20
185.5742568100563119
 30
0.0
 40
0.096743381837054
 50
151.7987962854047908
 51
169.2568542875492028
  0
ARC
  5
B458
  8
0
 10
4745.2138488440450601
 20
185.5681294074487084
 30
0.0
 40
0.1293937703886354
 50
169.2383038382232883
 51
180.3405090810499019
  0
ARC
  5
B459
  8
0
 10
4745.8384573587063642
 20
185.7177918896962012
 30
0.0
 40
0.0199999999897077
 50
268.9999282074862208
 51
0.0
  0
LINE
  5
B45A
  8
0
 10
4745.8381082855203204
 20
185.6977949362407116
 30
0.0
 11
4745.5591083166727913
 21
185.7026652485097884
 31
0.0
  0
ARC
  5
B45B
  8
0
 10
4745.5594573904118079
 20
185.7226622336881974
 30
0.0
 40
0.0200000317174555
 50
180.0
 51
268.9999282074862208
  0
LINE
  5
B45C
  8
0
 10
4745.5394573586982006
 20
185.7226622336881974
 30
0.0
 11
4745.5394573586982006
 21
186.2104584070025908
 31
0.0
  0
LINE
  5
B45D
  8
0
 10
4744.8694573586981278
 20
186.2614611910969131
 30
0.0
 11
4744.8694573586981278
 21
187.3467635135025944
 31
0.0
  0
ARC
  5
B45E
  8
0
 10
4744.8894573586912884
 20
187.3467635135052092
 30
0.0
 40
0.0199999999936942
 50
90.9999998998567605
 51
180.0000000073686977
  0
LINE
  5
B45F
  8
0
 10
4744.8891083105982034
 20
187.3667604674025995
 30
0.0
 11
4745.5198063925981842
 21
187.3777693168026133
 31
0.0
  0
ARC
  5
B460
  8
0
 10
4745.5594552601041869
 20
187.7288902059420082
 30
0.0
 40
0.0199999999962975
 50
90.9999999072575463
 51
179.173341915230111
  0
LINE
  5
B461
  8
0
 10
4745.5591062120083734
 20
187.7488871598420133
 30
0.0
 11
4745.8381104089876317
 21
187.7537571957637113
 31
0.0
  0
ARC
  5
B462
  8
0
 10
4745.8384444330567931
 20
187.7337255658131028
 30
0.0
 40
0.0200344146477787
 50
2.6539717150754498
 51
90.9553431409643593
  0
ARC
  5
B463
  8
0
 10
4745.5194573108983604
 20
187.3977663179242938
 30
0.0
 40
0.0200000477997588
 50
271.0000937216931902
 51
0.0
  0
LINE
  5
B464
  8
0
 10
4745.8584573586986153
 20
188.5281041537527926
 30
0.0
 11
4745.5581595192452369
 21
188.5123662161039135
 31
0.0
  0
ARC
  5
B465
  8
0
 10
4745.5614566460990318
 20
188.4494532669760929
 30
0.0
 40
0.0629992874042944
 50
92.9999990029172352
 51
180.0006188679128059
  0
LINE
  5
B466
  8
0
 10
4745.4984573586980332
 20
188.4494525865030141
 30
0.0
 11
4745.4984573586980332
 21
187.8786700122527975
 31
0.0
  0
LINE
  5
B467
  8
0
 10
4745.4984573586980332
 20
187.5416700122528084
 30
0.0
 11
4745.4984573586980332
 21
187.3773966689292081
 31
0.0
  0
LINE
  5
B468
  8
0
 10
4745.4984573586980332
 20
186.2308275651004976
 30
0.0
 11
4745.4984573586980332
 21
185.7472092505358887
 31
0.0
  0
ARC
  5
B469
  8
0
 10
4745.7564027259541035
 20
185.6487373546445951
 30
0.0
 40
0.0320546324337371
 50
62.761252302311668
 51
89.0000000532369171
  0
LINE
  5
B46A
  8
0
 10
4745.7569621563980036
 20
185.6807871050029917
 30
0.0
 11
4745.5593878856261654
 21
185.6842357765438862
 31
0.0
  0
ARC
  5
B46B
  8
0
 10
4745.5614817854457215
 20
185.7472254122924085
 30
0.0
 40
0.0630244288207708
 50
180.0146926614625045
 51
268.0960762891958211
  0
LINE
  5
B46C
  8
0
 10
4745.532457358697684
 20
185.6912820366335097
 30
0.0
 11
4745.532457358697684
 21
185.6772373542029868
 31
0.0
  0
LINE
  5
B46D
  8
0
 10
4745.0897003152986144
 20
185.843237353252789
 30
0.0
 11
4745.4984573586980332
 21
185.843237353252789
 31
0.0
  0
LINE
  5
B46E
  8
0
 10
4734.3638771753858236
 20
187.2001123523025967
 30
0.0
 11
4734.756543704293108
 21
187.2001123523025967
 31
0.0
  0
LINE
  5
B46F
  8
0
 10
4704.35973082952205
 20
187.2001123523025967
 30
0.0
 11
4704.7545322857713472
 21
187.2001123523027104
 31
0.0
  0
LINE
  5
B470
  8
0
 10
4745.8679846798986546
 20
185.1506607423528123
 30
0.0
 11
4745.8679846798986546
 21
185.1496509122441978
 31
0.0
  0
LINE
  5
B471
  8
0
 10
4689.2239300374976665
 20
185.150660741402703
 30
0.0
 11
4689.2239300374976665
 21
185.1496509112932074
 31
0.0
  0
LINE
  5
B472
  8
0
 10
4689.5721116083259403
 20
186.2354559036515127
 30
0.0
 11
4690.2028064068972526
 21
186.2464642372025878
 31
0.0
  0
ARC
  5
B473
  8
0
 10
4690.2024573744201916
 20
186.2664611756547117
 30
0.0
 40
0.0199999842781289
 50
270.9999559435171932
 51
0.0000442551786714
  0
LINE
  5
B474
  8
0
 10
4690.2224573586981933
 20
186.2664611911027066
 30
0.0
 11
4690.2224565204123792
 21
187.3517635135023056
 31
0.0
  0
ARC
  5
B475
  8
0
 10
4689.5724581505483002
 20
186.2154581141938081
 30
0.0
 40
0.0200007918520368
 50
90.9927807115862066
 51
179.9991609110925026
  0
LINE
  5
B476
  8
0
 10
4717.6549302115654427
 20
185.4020670730961911
 30
0.0
 11
4717.614579157465414
 21
185.3617166311962023
 31
0.0
  0
LINE
  5
B477
  8
0
 10
4717.614579157465414
 20
185.3617166311962023
 30
0.0
 11
4717.6146134208302101
 21
185.2315273126963007
 31
0.0
  0
LINE
  5
B478
  8
0
 10
4717.6146134208302101
 20
185.2315273126963007
 30
0.0
 11
4717.6549639614322587
 21
185.1911768801963092
 31
0.0
  0
LINE
  5
B479
  8
0
 10
4717.6549639614322587
 20
185.1911768801963092
 30
0.0
 11
4719.4492598065307902
 21
185.1911768734962891
 31
0.0
  0
LINE
  5
B47A
  8
0
 10
4719.4492598065307902
 20
185.1911768734962891
 30
0.0
 11
4719.4896121376314113
 21
185.2315298747963084
 31
0.0
  0
LINE
  5
B47B
  8
0
 10
4719.4896121376314113
 20
185.2315298747963084
 30
0.0
 11
4719.4895778763648195
 21
185.3617140690961946
 31
0.0
  0
LINE
  5
B47C
  8
0
 10
4719.4895778763648195
 20
185.3617140690961946
 30
0.0
 11
4719.4492255452651079
 21
185.4020670703962139
 31
0.0
  0
LINE
  5
B47D
  8
0
 10
4719.4492255452651079
 20
185.4020670703962139
 30
0.0
 11
4717.6549302115654427
 21
185.4020670730961911
 31
0.0
  0
LINE
  5
B47E
  8
0
 10
4717.8919228840732103
 20
185.6830979883528983
 30
0.0
 11
4717.8879492014402786
 21
185.4020670727456093
 31
0.0
  0
LINE
  5
B47F
  8
0
 10
4719.2124047715587949
 20
185.6830979883528983
 30
0.0
 11
4719.2163150489450345
 21
185.4020670707467104
 31
0.0
  0
LINE
  5
B480
  8
0
 10
4717.8273927949239805
 20
186.8378092771027923
 30
0.0
 11
4717.8294116479528384
 21
187.1036059395474922
 31
0.0
  0
ARC
  5
B481
  8
0
 10
4717.8443812568648354
 20
187.1034753015723879
 30
0.0
 40
0.0149701789324701
 50
134.6629836722082985
 51
179.4999993215973859
  0
ARC
  5
B482
  8
0
 10
4708.3106771224120166
 20
196.7499996959045063
 30
0.0
 40
13.5477341020625293
 50
314.6629836722077016
 51
314.8510271242926137
  0
ARC
  5
B483
  8
0
 10
4717.8789090652180676
 20
187.1318818423312109
 30
0.0
 40
0.0191098034501705
 50
103.0988700276395065
 51
134.8510271242919885
  0
ARC
  5
B484
  8
0
 10
4719.3477725363190984
 20
-2474.3247213634481341
 30
0.0
 40
2661.4756235057789127
 50
90.002510706398823
 51
90.0317146710194578
  0
ARC
  5
B485
  8
0
 10
4719.2283386611306923
 20
187.1388001165132948
 30
0.0
 40
0.0124209796308889
 50
32.2665290228726533
 51
76.9353553498055618
  0
ARC
  5
B486
  8
0
 10
4719.2598601600420807
 20
187.1034761572383047
 30
0.0
 40
0.0149996461837932
 50
0.4956722043778044
 51
45.2558826325091275
  0
LINE
  5
B487
  8
0
 10
4719.2748592449288481
 20
187.1036059192383902
 30
0.0
 11
4719.2768781113436489
 21
186.8378092771027923
 31
0.0
  0
LINE
  5
B488
  8
0
 10
4717.8294116479528384
 20
187.1036059395474922
 30
0.0
 11
4719.2748592449288481
 21
187.1036059192383902
 31
0.0
  0
LINE
  5
B489
  8
0
 10
4717.8654315731009774
 20
187.1454296020772006
 30
0.0
 11
4719.2388415166524283
 21
187.1454311617474104
 31
0.0
  0
LINE
  5
B48A
  8
0
 10
4718.3421354539077583
 20
186.8378092771027923
 30
0.0
 11
4718.3421354539077583
 21
186.777508766866589
 31
0.0
  0
LINE
  5
B48B
  8
0
 10
4718.7621354539078311
 20
186.8378092771027923
 30
0.0
 11
4718.7621354539078311
 21
186.7775087024818106
 31
0.0
  0
LINE
  5
B48C
  8
0
 10
4717.614579157465414
 20
185.3617166311962023
 30
0.0
 11
4719.4895778763648195
 21
185.3617140690961946
 31
0.0
  0
LINE
  5
B48D
  8
0
 10
4719.4896121376314113
 20
185.2315298747963084
 30
0.0
 11
4717.6146134208302101
 21
185.2315273126963007
 31
0.0
  0
LINE
  5
B48E
  8
0
 10
4745.5198064061987679
 20
186.2304549005025933
 30
0.0
 11
4744.8891083105982034
 21
186.2414642372025924
 31
0.0
  0
ARC
  5
B48F
  8
0
 10
4744.8894573586912884
 20
186.2614611910969131
 30
0.0
 40
0.0199999999905378
 50
180.0
 51
269.0000001052508196
  0
ARC
  5
B490
  8
0
 10
4745.5194581692730935
 20
186.2104587431512925
 30
0.0
 40
0.0199991894280031
 50
359.9990369660779947
 51
89.002283840090783
  0
LINE
  5
B491
  8
0
 10
4715.6423084120951899
 20
188.4515558404029036
 30
0.0
 11
4715.6019573579951611
 21
188.4112053985028012
 31
0.0
  0
LINE
  5
B492
  8
0
 10
4715.6019573579951611
 20
188.4112053985028012
 30
0.0
 11
4715.6019573600951844
 21
188.2849016426027902
 31
0.0
  0
LINE
  5
B493
  8
0
 10
4715.6019573600951844
 20
188.2849016426027902
 30
0.0
 11
4715.642307900695414
 21
188.2445512101027987
 31
0.0
  0
LINE
  5
B494
  8
0
 10
4715.642307900695414
 20
188.2445512101027987
 30
0.0
 11
4717.4366037457939456
 21
188.244551203402807
 31
0.0
  0
LINE
  5
B495
  8
0
 10
4717.4366037457939456
 20
188.244551203402807
 30
0.0
 11
4717.4769560768936572
 21
188.2849042047027979
 31
0.0
  0
LINE
  5
B496
  8
0
 10
4717.4769560768936572
 20
188.2849042047027979
 30
0.0
 11
4717.4769560768936572
 21
188.4112028364029072
 31
0.0
  0
LINE
  5
B497
  8
0
 10
4717.4769560768936572
 20
188.4112028364029072
 30
0.0
 11
4717.4366037457939456
 21
188.4515558377028128
 31
0.0
  0
LINE
  5
B498
  8
0
 10
4717.4366037457939456
 20
188.4515558377028128
 30
0.0
 11
4715.6423084120951899
 21
188.4515558404029036
 31
0.0
  0
LINE
  5
B499
  8
0
 10
4715.6019573579951611
 20
188.4112053985028012
 30
0.0
 11
4717.4769560768936572
 21
188.4112028364029072
 31
0.0
  0
LINE
  5
B49A
  8
0
 10
4717.4769560768936572
 20
188.2849042047027979
 30
0.0
 11
4715.6019573600951844
 21
188.2849016426027902
 31
0.0
  0
LINE
  5
B49B
  8
0
 10
4690.891876663921721
 20
185.6830979883528983
 30
0.0
 11
4690.8883772223543929
 21
185.4020657511520085
 31
0.0
  0
LINE
  5
B49C
  8
0
 10
4692.2127029474786468
 20
185.6830979883528983
 30
0.0
 11
4692.2165706440846407
 21
185.4020657491533939
 31
0.0
  0
LINE
  5
B49D
  8
0
 10
4717.6549302115654427
 20
185.4020670730961911
 30
0.0
 11
4717.8879902153521471
 21
185.4049677012847042
 31
0.0
  0
LINE
  5
B49E
  8
0
 10
4719.4492255452651079
 20
185.4020670703962139
 30
0.0
 11
4719.2162744919569377
 21
185.4049818940837042
 31
0.0
  0
LINE
  5
B49F
  8
0
 10
4690.6553042821187773
 20
185.402065751502704
 30
0.0
 11
4690.6149532280196581
 21
185.3617153096026868
 31
0.0
  0
LINE
  5
B4A0
  8
0
 10
4690.6149532280196581
 20
185.3617153096026868
 30
0.0
 11
4690.6149874913862732
 21
185.2315259911028136
 31
0.0
  0
LINE
  5
B4A1
  8
0
 10
4690.6149874913862732
 20
185.2315259911028136
 30
0.0
 11
4690.6553380319855933
 21
185.1911755586027937
 31
0.0
  0
LINE
  5
B4A2
  8
0
 10
4690.6553380319855933
 20
185.1911755586027937
 30
0.0
 11
4692.4496338770868533
 21
185.191175551902802
 31
0.0
  0
LINE
  5
B4A3
  8
0
 10
4692.4496338770868533
 20
185.191175551902802
 30
0.0
 11
4692.4899862081856554
 21
185.2315285532027929
 31
0.0
  0
LINE
  5
B4A4
  8
0
 10
4692.4899862081856554
 20
185.2315285532027929
 30
0.0
 11
4692.4899519469199731
 21
185.3617127475027075
 31
0.0
  0
LINE
  5
B4A5
  8
0
 10
4692.4899519469199731
 20
185.3617127475027075
 30
0.0
 11
4692.4495996158202615
 21
185.4020657488026984
 31
0.0
  0
LINE
  5
B4A6
  8
0
 10
4692.4495996158202615
 20
185.4020657488026984
 30
0.0
 11
4690.6553042821187773
 21
185.402065751502704
 31
0.0
  0
LINE
  5
B4A7
  8
0
 10
4690.6149532280196581
 20
185.3617153096026868
 30
0.0
 11
4692.4899519469199731
 21
185.3617127475027075
 31
0.0
  0
LINE
  5
B4A8
  8
0
 10
4692.4899862081856554
 20
185.2315285532027929
 30
0.0
 11
4690.6149874913862732
 21
185.2315259911028136
 31
0.0
  0
LINE
  5
B4A9
  8
0
 10
4690.6553042821187773
 20
185.402065751502704
 30
0.0
 11
4690.8884133488745647
 21
185.4049669903212134
 31
0.0
  0
LINE
  5
B4AA
  8
0
 10
4692.4495996158202615
 20
185.4020657488026984
 30
0.0
 11
4692.2165305085982254
 21
185.4049820496518066
 31
0.0
  0
LINE
  5
B4AB
  8
0
 10
4719.2704190380518412
 20
187.1141297707474962
 30
0.0
 11
4719.2388415166524283
 21
187.1454311617474957
 31
0.0
  0
LINE
  5
B4AC
  8
0
 10
4719.2768781113436489
 20
186.8378092771027923
 30
0.0
 11
4717.8273927949239805
 21
186.8378092771027923
 31
0.0
  0
LINE
  5
B4AD
  8
0
 10
4718.2867093271970589
 20
186.4057749019061134
 30
0.0
 11
4718.2867093271970589
 21
186.357476332472487
 31
0.0
  0
LINE
  5
B4AE
  8
0
 10
4718.8182053901982727
 20
186.4057749444961871
 30
0.0
 11
4718.8182053901982727
 21
186.3574763324729986
 31
0.0
  0
LINE
  5
B4AF
  8
0
 10
4717.8258845849986756
 20
186.2751810471528131
 30
0.0
 11
4717.8241549176982517
 21
186.0802550216529028
 31
0.0
  0
ARC
  5
B4B0
  8
0
 10
4717.8292432176249349
 20
186.0802106162817893
 30
0.0
 40
0.0050884936852762
 50
179.4999949305041014
 51
267.2821337016114853
  0
ARC
  5
B4B1
  8
0
 10
4718.5532124163528351
 20
268.6047665693932913
 30
0.0
 40
82.5328161918943124
 50
269.4972334803683793
 51
270.5016052291102255
  0
ARC
  5
B4B2
  8
0
 10
4719.2755755722719186
 20
186.0802946229590873
 30
0.0
 40
0.0051843786772868
 50
271.929860963034173
 51
359.5623371827954884
  0
LINE
  5
B4B3
  8
0
 10
4719.2807597996979894
 20
186.0802550216527891
 30
0.0
 11
4719.2789996996980335
 21
186.2752512834528034
 31
0.0
  0
ARC
  5
B4B4
  8
0
 10
4718.5485514780357335
 20
266.7689653798652216
 30
0.0
 40
80.4970282907356705
 50
269.4856167978202279
 51
270.5199219837061264
  0
ARC
  5
B4B5
  8
0
 10
4719.1161967012212699
 20
179.764113548654791
 30
0.0
 40
6.5131727612450367
 50
88.567687874295558
 51
90.1104737483883582
  0
ARC
  5
B4B6
  8
0
 10
4718.0107495327083598
 20
178.3705964205213945
 30
0.0
 40
7.9067460543810393
 50
90.0686475678480321
 51
91.3397352685280453
  0
LINE
  5
B4B7
  8
0
 10
4719.1036384609978995
 20
186.2738509810343999
 30
0.0
 11
4719.1036384609978995
 21
186.3474920084528037
 31
0.0
  0
ARC
  5
B4B8
  8
0
 10
4719.0917398160099765
 20
186.3474920084528037
 30
0.0
 40
0.0118986449872072
 50
0.0
 51
87.8762982766281482
  0
ARC
  5
B4B9
  8
0
 10
4718.823555739098083
 20
168.5787439619280121
 30
0.0
 40
17.7826675595825385
 50
89.1344569375047655
 51
90.0172388318083563
  0
ARC
  5
B4BA
  8
0
 10
4718.5524573586490078
 20
244.2446150145958086
 30
0.0
 40
57.8877486763787203
 50
269.4657881690300201
 51
270.5342118309700936
  0
LINE
  5
B4BB
  8
0
 10
4718.0012762562973876
 20
186.2737974909094021
 30
0.0
 11
4718.0012762562973876
 21
186.3474920084528037
 31
0.0
  0
ARC
  5
B4BC
  8
0
 10
4718.0131749012853106
 20
186.3474920084528037
 30
0.0
 40
0.0118986449872072
 50
92.1237017233718376
 51
180.0
  0
ARC
  5
B4BD
  8
0
 10
4718.2813589781981136
 20
168.5787439619280121
 30
0.0
 40
17.7826675595825385
 50
89.9827611678268937
 51
90.8655430624952345
  0
LINE
  5
B4BE
  8
0
 10
4720.4990745534178131
 20
186.3276413107529095
 30
0.0
 11
4720.5524573586981205
 21
186.2744997185527893
 31
0.0
  0
LINE
  5
B4BF
  8
0
 10
4720.5524573586981205
 20
186.2744997185527893
 30
0.0
 11
4720.5524573586981205
 21
185.745315578752809
 31
0.0
  0
LINE
  5
B4C0
  8
0
 10
4720.5524573586981205
 20
185.745315578752809
 30
0.0
 11
4720.4899573586981205
 21
185.6830979883528983
 31
0.0
  0
LINE
  5
B4C1
  8
0
 10
4720.4899573586981205
 20
185.6830979883528983
 30
0.0
 11
4689.6149573586981205
 21
185.6830979883528983
 31
0.0
  0
LINE
  5
B4C2
  8
0
 10
4689.6149573586981205
 20
185.6830979883528983
 30
0.0
 11
4689.5524573586981205
 21
185.745315578752809
 31
0.0
  0
LINE
  5
B4C3
  8
0
 10
4689.5524573586981205
 20
185.745315578752809
 30
0.0
 11
4720.5524573586981205
 21
185.745315578752809
 31
0.0
  0
LINE
  5
B4C4
  8
0
 10
4720.4899573586981205
 20
186.3276413107529095
 30
0.0
 11
4720.4899573586981205
 21
186.0630941264527962
 31
0.0
  0
LINE
  5
B4C5
  8
0
 10
4720.4899573586981205
 20
186.0630941264527962
 30
0.0
 11
4689.6149573586981205
 21
186.0630941264527962
 31
0.0
  0
LINE
  5
B4C6
  8
0
 10
4689.6149573586981205
 20
186.0630941264527962
 30
0.0
 11
4689.5524573586981205
 21
186.0003129872528973
 31
0.0
  0
LINE
  5
B4C7
  8
0
 10
4689.6149573586981205
 20
186.2362037460507054
 30
0.0
 11
4689.6149573586981205
 21
186.0630941264527962
 31
0.0
  0
LINE
  5
B4C8
  8
0
 10
4689.5524573586981205
 20
186.000312987252812
 30
0.0
 11
4720.5524573586981205
 21
186.0003129872528973
 31
0.0
  0
LINE
  5
B4C9
  8
0
 10
4720.4899573586981205
 20
186.0630941264527962
 30
0.0
 11
4720.5524573586981205
 21
186.0003129872528973
 31
0.0
  0
LINE
  5
B4CA
  8
0
 10
4715.8769004268024219
 20
188.2445512092268132
 30
0.0
 11
4715.8794571761600309
 21
187.9515767559063022
 31
0.0
  0
LINE
  5
B4CB
  8
0
 10
4715.8794571761600309
 20
187.9515767559063022
 30
0.0
 11
4717.199457358698055
 21
187.9515558390527872
 31
0.0
  0
LINE
  5
B4CC
  8
0
 10
4717.199457358698055
 20
187.9515558390527872
 30
0.0
 11
4717.2020142904511886
 21
188.2445512042787925
 31
0.0
  0
LINE
  5
B4CD
  8
0
 10
4715.9390636578982594
 20
187.9515758113761024
 30
0.0
 11
4715.9390636578982594
 21
187.9401700122527927
 31
0.0
  0
LINE
  5
B4CE
  8
0
 10
4715.9390636578982594
 20
187.9401700122527927
 30
0.0
 11
4717.1398510594981417
 21
187.9401700122527927
 31
0.0
  0
LINE
  5
B4CF
  8
0
 10
4717.1398510594981417
 20
187.9401700122527927
 30
0.0
 11
4717.1398510594981417
 21
187.951556783580088
 31
0.0
  0
LINE
  5
B4D0
  8
0
 10
4717.1294573586983461
 20
187.9001700122528007
 30
0.0
 11
4717.1289478107983086
 21
187.9293619887527882
 31
0.0
  0
ARC
  5
B4D1
  8
0
 10
4717.1179494861089552
 20
187.9291700122606983
 30
0.0
 40
0.0110000000427084
 50
1.000000107536595
 51
90.0
  0
LINE
  5
B4D2
  8
0
 10
4715.9494573586862316
 20
187.9001700122528007
 30
0.0
 11
4715.9499669065517082
 21
187.9293619887527882
 31
0.0
  0
ARC
  5
B4D3
  8
0
 10
4715.9609652311983155
 20
187.9291700122529107
 30
0.0
 40
0.0109999999999298
 50
90.0
 51
178.9999998481605132
  0
LINE
  5
B4D4
  8
0
 10
4714.6019573586982006
 20
187.9001700122528007
 30
0.0
 11
4714.5394573586982006
 21
187.8376700122528007
 31
0.0
  0
LINE
  5
B4D5
  8
0
 10
4714.5394573586982006
 20
187.8376700122528007
 30
0.0
 11
4714.5394573586982006
 21
187.5826700122528052
 31
0.0
  0
LINE
  5
B4D6
  8
0
 10
4714.5394573586982006
 20
187.5826700122528052
 30
0.0
 11
4714.6019573586982006
 21
187.5201700122528052
 31
0.0
  0
LINE
  5
B4D7
  8
0
 10
4714.6019573586982006
 20
187.5201700122528052
 30
0.0
 11
4745.4769573586982006
 21
187.5201700122528052
 31
0.0
  0
LINE
  5
B4D8
  8
0
 10
4745.5394573586982006
 20
187.5826700122528052
 30
0.0
 11
4714.5394573586982006
 21
187.5826700122528052
 31
0.0
  0
LINE
  5
B4D9
  8
0
 10
4745.5394573586982006
 20
187.8376700122528007
 30
0.0
 11
4714.5394573586982006
 21
187.8376700122528007
 31
0.0
  0
LINE
  5
B4DA
  8
0
 10
4745.4769573586982006
 20
187.9001700122528007
 30
0.0
 11
4714.6019573586982006
 21
187.9001700122528007
 31
0.0
  0
LINE
  5
B4DB
  8
0
 10
4745.4769573586982006
 20
187.9001700122528007
 30
0.0
 11
4745.5394573586982006
 21
187.8376700122528007
 31
0.0
  0
LINE
  5
B4DC
  8
0
 10
4745.5394573586982006
 20
187.8376700122528007
 30
0.0
 11
4745.5394573586982006
 21
187.3977663179242938
 31
0.0
  0
LINE
  5
B4DD
  8
0
 10
4745.5394573586982006
 20
187.5826700122528052
 30
0.0
 11
4745.4769573586982006
 21
187.5201700122528052
 31
0.0
  0
LINE
  5
B4DE
  8
0
 10
4715.8111549170980652
 20
187.5151263795528109
 30
0.0
 11
4715.812856275498234
 21
187.3201700122527882
 31
0.0
  0
LINE
  5
B4DF
  8
0
 10
4715.812856275498234
 20
187.3201700122527882
 30
0.0
 11
4717.2660584417981227
 21
187.3201700122527882
 31
0.0
  0
LINE
  5
B4E0
  8
0
 10
4717.2660584417981227
 20
187.3201700122527882
 30
0.0
 11
4717.2677598002137529
 21
187.5151263795528109
 31
0.0
  0
ARC
  5
B4E1
  8
0
 10
4717.2627599905981697
 20
187.5151700122528098
 30
0.0
 40
0.005000000000075
 50
359.4999997422493152
 51
90.0
  0
ARC
  5
B4E2
  8
0
 10
4715.8161547266608977
 20
187.5151700122900991
 30
0.0
 40
0.0049999999484989
 50
90.0
 51
180.5000006903094061
  0
LINE
  5
B4E3
  8
0
 10
4715.9882762562992866
 20
187.3201700122527882
 30
0.0
 11
4715.9882762562992866
 21
187.2681123532528886
 31
0.0
  0
LINE
  5
B4E4
  8
0
 10
4717.0906384609970701
 20
187.3201700122527882
 30
0.0
 11
4717.0906384609970701
 21
187.2681123532528886
 31
0.0
  0
ARC
  5
B4E5
  8
0
 10
4717.5459573586967963
 20
184.0973843647506953
 30
0.0
 40
3.5104545083022689
 50
70.9167697246124931
 51
77.1682281106950398
  0
ARC
  5
B4E6
  8
0
 10
4717.5459573586977058
 20
184.0973843647529975
 30
0.0
 40
3.485562222199873
 50
70.7754662037347941
 51
79.1093449797945567
  0
LINE
  5
B4E7
  8
0
 10
4718.8874607554280374
 20
187.4337883628494126
 30
0.0
 11
4718.8891493501905643
 21
187.5201700122528052
 31
0.0
  0
LINE
  5
B4E8
  8
0
 10
4742.642309691797891
 20
188.45155584040279
 30
0.0
 11
4742.6019586376978623
 21
188.4112053985028012
 31
0.0
  0
LINE
  5
B4E9
  8
0
 10
4742.6019586376978623
 20
188.4112053985028012
 30
0.0
 11
4742.6019586397978856
 21
188.2849016426027902
 31
0.0
  0
LINE
  5
B4EA
  8
0
 10
4742.6019586397978856
 20
188.2849016426027902
 30
0.0
 11
4742.6423091803981151
 21
188.2445512101027987
 31
0.0
  0
LINE
  5
B4EB
  8
0
 10
4742.6423091803981151
 20
188.2445512101027987
 30
0.0
 11
4744.4366050254975562
 21
188.244551203402807
 31
0.0
  0
LINE
  5
B4EC
  8
0
 10
4744.4366050254975562
 20
188.244551203402807
 30
0.0
 11
4744.4769573565990868
 21
188.2849042047027979
 31
0.0
  0
LINE
  5
B4ED
  8
0
 10
4744.4769573565990868
 20
188.2849042047027979
 30
0.0
 11
4744.4769573565990868
 21
188.4112028364027935
 31
0.0
  0
LINE
  5
B4EE
  8
0
 10
4744.4769573565990868
 20
188.4112028364027935
 30
0.0
 11
4744.4366050254975562
 21
188.4515558377028128
 31
0.0
  0
LINE
  5
B4EF
  8
0
 10
4744.4366050254975562
 20
188.4515558377028128
 30
0.0
 11
4742.642309691797891
 21
188.45155584040279
 31
0.0
  0
LINE
  5
B4F0
  8
0
 10
4742.6019586376978623
 20
188.4112053985028012
 30
0.0
 11
4744.4769573565990868
 21
188.4112028364027935
 31
0.0
  0
LINE
  5
B4F1
  8
0
 10
4744.4769573565990868
 20
188.2849042047027979
 30
0.0
 11
4742.6019586397978856
 21
188.2849016426027902
 31
0.0
  0
LINE
  5
B4F2
  8
0
 10
4742.876901706505123
 20
188.2445512092268132
 30
0.0
 11
4742.8794584558627321
 21
187.9515767559063022
 31
0.0
  0
LINE
  5
B4F3
  8
0
 10
4742.8794584558627321
 20
187.9515767559063022
 30
0.0
 11
4744.1994586384007562
 21
187.9515558390527872
 31
0.0
  0
LINE
  5
B4F4
  8
0
 10
4744.1994586384007562
 20
187.9515558390527872
 30
0.0
 11
4744.2020155701547992
 21
188.2445512042787925
 31
0.0
  0
LINE
  5
B4F5
  8
0
 10
4742.9390649376009605
 20
187.9515758113761024
 30
0.0
 11
4742.9390649376009605
 21
187.9401700122527927
 31
0.0
  0
LINE
  5
B4F6
  8
0
 10
4742.9390649376009605
 20
187.9401700122527927
 30
0.0
 11
4744.1398523392008428
 21
187.9401700122527927
 31
0.0
  0
LINE
  5
B4F7
  8
0
 10
4744.1398523392008428
 20
187.9401700122527927
 30
0.0
 11
4744.1398523392008428
 21
187.951556783580088
 31
0.0
  0
LINE
  5
B4F8
  8
0
 10
4744.1294586384010472
 20
187.9001700122528007
 30
0.0
 11
4744.1289490905019193
 21
187.9293619887527882
 31
0.0
  0
ARC
  5
B4F9
  8
0
 10
4744.1179507658116563
 20
187.929170012260613
 30
0.0
 40
0.0110000000427084
 50
1.000000107536595
 51
90.0
  0
LINE
  5
B4FA
  8
0
 10
4742.9494586383889327
 20
187.9001700122528007
 30
0.0
 11
4742.9499681862553189
 21
187.9293619887313014
 31
0.0
  0
ARC
  5
B4FB
  8
0
 10
4742.9609665109019261
 20
187.9291700122529107
 30
0.0
 40
0.0109999999999298
 50
90.0
 51
178.9999998481605132
  0
LINE
  5
B4FC
  8
0
 10
4742.8111561968007663
 20
187.5151263795528109
 30
0.0
 11
4742.8128575552009352
 21
187.3201700122527882
 31
0.0
  0
LINE
  5
B4FD
  8
0
 10
4742.8128575552009352
 20
187.3201700122527882
 30
0.0
 11
4744.2660597215017333
 21
187.3201700122527882
 31
0.0
  0
LINE
  5
B4FE
  8
0
 10
4744.2660597215017333
 20
187.3201700122527882
 30
0.0
 11
4744.2677610799173635
 21
187.5151263795528109
 31
0.0
  0
ARC
  5
B4FF
  8
0
 10
4744.2627612703008708
 20
187.5151700122528098
 30
0.0
 40
0.0050000000000644
 50
359.4999997420856062
 51
90.0
  0
ARC
  5
B500
  8
0
 10
4742.8161560063654179
 20
187.5151700122900991
 30
0.0
 40
0.0049999999485038
 50
90.0
 51
180.5000006902280063
  0
LINE
  5
B501
  8
0
 10
4742.9882775360019878
 20
187.3201700122527882
 30
0.0
 11
4742.9882775360019878
 21
187.2681123532528886
 31
0.0
  0
LINE
  5
B502
  8
0
 10
4744.0906397407015902
 20
187.3201700122527882
 30
0.0
 11
4744.0906397407015902
 21
187.2681123532528886
 31
0.0
  0
LINE
  5
B503
  8
0
 10
4741.4144573586982006
 20
189.6670070265232084
 30
0.0
 11
4741.4144573586982006
 21
187.9391700122529016
 31
0.0
  0
LINE
  5
B504
  8
0
 10
4742.1644573586982006
 20
189.6670070265232084
 30
0.0
 11
4742.1644573586982006
 21
187.9391700122529016
 31
0.0
  0
LINE
  5
B505
  8
0
 10
4741.4115046027982316
 20
187.9081700122528105
 30
0.0
 11
4741.4115046027982316
 21
187.9311700122528066
 31
0.0
  0
ARC
  5
B506
  8
0
 10
4741.4195046027980425
 20
187.9311700122528066
 30
0.0
 40
0.0080000000000027
 50
90.0
 51
179.9999999999909903
  0
LINE
  5
B507
  8
0
 10
4741.4144573586982006
 20
187.9391700122529016
 30
0.0
 11
4742.1644573586982006
 21
187.9391700122529016
 31
0.0
  0
ARC
  5
B508
  8
0
 10
4741.4195046027980425
 20
187.9081700122528105
 30
0.0
 40
0.008000000000024
 50
180.0000000001018066
 51
270.0
  0
LINE
  5
B509
  8
0
 10
4742.1674101145981695
 20
187.9081700122528105
 30
0.0
 11
4742.1674101145981695
 21
187.9311700122528066
 31
0.0
  0
ARC
  5
B50A
  8
0
 10
4742.1594101145983586
 20
187.9311700122528066
 30
0.0
 40
0.0080000000000027
 50
0.0000000000089564
 51
90.0
  0
ARC
  5
B50B
  8
0
 10
4742.1594101145983586
 20
187.9081700122528105
 30
0.0
 40
0.008000000000024
 50
270.0
 51
359.9999999998981934
  0
LINE
  5
B50C
  8
0
 10
4741.4115046027982316
 20
187.5121700122527955
 30
0.0
 11
4741.4115046027982316
 21
187.4891700122527993
 31
0.0
  0
ARC
  5
B50D
  8
0
 10
4741.4195046027980425
 20
187.4891700122527993
 30
0.0
 40
0.0080000000000027
 50
180.000000000008896
 51
270.0
  0
ARC
  5
B50E
  8
0
 10
4741.4195046027980425
 20
187.5121700122527955
 30
0.0
 40
0.008000000000024
 50
90.0
 51
179.9999999998981934
  0
LINE
  5
B50F
  8
0
 10
4742.1674101145981695
 20
187.5121700122527955
 30
0.0
 11
4742.1674101145981695
 21
187.4891700122527993
 31
0.0
  0
ARC
  5
B510
  8
0
 10
4742.1594101145983586
 20
187.4891700122527993
 30
0.0
 40
0.0080000000000027
 50
270.0
 51
359.9999999999910187
  0
ARC
  5
B511
  8
0
 10
4742.1594101145983586
 20
187.5121700122527955
 30
0.0
 40
0.008000000000024
 50
0.0000000001017777
 51
90.0
  0
LINE
  5
B512
  8
0
 10
4741.3956778310976006
 20
187.2681123532528886
 30
0.0
 11
4741.3956778310976006
 21
187.4611700122528077
 31
0.0
  0
ARC
  5
B513
  8
0
 10
4741.4156778310980371
 20
187.4611700122528077
 30
0.0
 40
0.02
 50
90.0
 51
180.0
  0
LINE
  5
B514
  8
0
 10
4741.4156778310980371
 20
187.4811700122527895
 30
0.0
 11
4742.1632368861983196
 21
187.4811700122527895
 31
0.0
  0
LINE
  5
B515
  8
0
 10
4742.1832368861987561
 20
187.4611700122528077
 30
0.0
 11
4742.1832368861987561
 21
187.2681123532528886
 31
0.0
  0
ARC
  5
B516
  8
0
 10
4742.1632368861983196
 20
187.4611700122528077
 30
0.0
 40
0.02
 50
0.0
 51
90.0
  0
CIRCLE
  5
B517
  8
0
 10
4741.7894573586982006
 20
189.8971700122527864
 30
0.0
 40
0.3900000000000006
  0
CIRCLE
  5
B518
  8
0
 10
4741.7894573586982006
 20
189.8971700122527864
 30
0.0
 40
0.4399999999999978
  0
LINE
  5
B519
  8
0
 10
4692.9274573586981205
 20
184.0372686685824988
 30
0.0
 11
4692.9274573586981205
 21
185.6830979883528983
 31
0.0
  0
LINE
  5
B51A
  8
0
 10
4693.6774573586981205
 20
184.0372686685824988
 30
0.0
 11
4693.6774573586981205
 21
185.6830979883528983
 31
0.0
  0
LINE
  5
B51B
  8
0
 10
4692.9245046027981516
 20
186.2006591373528011
 30
0.0
 11
4692.9245046027981516
 21
186.2236591373527972
 31
0.0
  0
ARC
  5
B51C
  8
0
 10
4692.9325046027979624
 20
186.2236591373527972
 30
0.0
 40
0.0080000000000027
 50
90.0
 51
179.9999999999909903
  0
ARC
  5
B51D
  8
0
 10
4692.9325046027979624
 20
186.2006591373528863
 30
0.0
 40
0.008000000000024
 50
180.0000000001018066
 51
270.0
  0
LINE
  5
B51E
  8
0
 10
4693.6804101145971799
 20
186.2006591373528011
 30
0.0
 11
4693.6804101145971799
 21
186.2236591373527972
 31
0.0
  0
ARC
  5
B51F
  8
0
 10
4693.6724101145982786
 20
186.2236591373527972
 30
0.0
 40
0.0080000000000027
 50
0.0000000000089564
 51
90.0
  0
ARC
  5
B520
  8
0
 10
4693.6724101145982786
 20
186.2006591373528863
 30
0.0
 40
0.008000000000024
 50
270.0
 51
359.9999999998981934
  0
LINE
  5
B521
  8
0
 10
4692.908677831096611
 20
186.3276413107529095
 30
0.0
 11
4692.908677831096611
 21
186.2516591373529025
 31
0.0
  0
ARC
  5
B522
  8
0
 10
4692.9286778310979571
 20
186.2516591373529025
 30
0.0
 40
0.02
 50
180.0
 51
270.0
  0
LINE
  5
B523
  8
0
 10
4692.9286778310979571
 20
186.231659137352807
 30
0.0
 11
4693.6762368861982395
 21
186.231659137352807
 31
0.0
  0
LINE
  5
B524
  8
0
 10
4693.6962368861986761
 20
186.2516591373529025
 30
0.0
 11
4693.6962368861986761
 21
186.3276413107529095
 31
0.0
  0
ARC
  5
B525
  8
0
 10
4693.6762368861982395
 20
186.2516591373529025
 30
0.0
 40
0.02
 50
270.0
 51
0.0
  0
CIRCLE
  5
B526
  8
0
 10
4693.3024573586981205
 20
183.8071056828528071
 30
0.0
 40
0.3900000000000006
  0
CIRCLE
  5
B527
  8
0
 10
4693.3024573586981205
 20
183.8071056828528071
 30
0.0
 40
0.4399999999999978
  0
ARC
  5
B528
  8
0
 10
4693.3024538385971027
 20
183.8835260528528011
 30
0.0
 40
0.4399964791000792
 50
148.4596016512776941
 51
184.9819462434159902
  0
ARC
  5
B529
  8
0
 10
4693.3024608786972749
 20
183.8835260528528011
 30
0.0
 40
0.4399964791000958
 50
355.0180538315601098
 51
31.5403983237789305
  0
LINE
  5
B52A
  8
0
 10
4692.9325046027979624
 20
186.1926591373527913
 30
0.0
 11
4693.6724101145982786
 21
186.1926591373527913
 31
0.0
  0
LINE
  5
B52B
  8
0
 10
4690.805192226041072
 20
186.4058992422637004
 30
0.0
 11
4692.2976342598212796
 21
186.4058993618567968
 31
0.0
  0
ARC
  5
B52C
  8
0
 10
4691.5514005655713845
 20
298.5722300458020868
 30
0.0
 40
111.7947941687960025
 50
269.6175588262823908
 51
270.3824536695548204
  0
ARC
  5
B52D
  8
0
 10
4692.069121921693295
 20
186.5929126007324896
 30
0.0
 40
0.2952826445827195
 50
320.7032947760291108
 51
39.2968627240024801
  0
ARC
  5
B52E
  8
0
 10
4691.0337040362446714
 20
186.5929130543146073
 30
0.0
 40
0.2952825990478155
 50
140.7032845796939
 51
219.2968561695043945
  0
ARC
  5
B52F
  8
0
 10
4691.3295335490647631
 20
128.5937247563769006
 30
0.0
 40
58.1885640393695027
 50
89.9883319333884231
 51
90.5163038174219423
  0
ARC
  5
B530
  8
0
 10
4691.7911498747989754
 20
132.6962416348220017
 30
0.0
 40
54.0860563456099115
 50
89.4634511313693253
 51
90.0315329308053833
  0
LINE
  5
B531
  8
0
 10
4690.8266407687797255
 20
186.8379336559854096
 30
0.0
 11
4690.8286596218104023
 21
187.1037303184299958
 31
0.0
  0
ARC
  5
B532
  8
0
 10
4690.8436292307223994
 20
187.1035996804548915
 30
0.0
 40
0.0149701789324701
 50
134.6629836722082985
 51
179.4999993215973859
  0
ARC
  5
B533
  8
0
 10
4681.309925096268671
 20
196.7501240747870099
 30
0.0
 40
13.5477341020625293
 50
314.6629836722077016
 51
314.8510271242921021
  0
ARC
  5
B534
  8
0
 10
4690.878157039074722
 20
187.1320062212137998
 30
0.0
 40
0.0191098034501705
 50
103.0988700276395065
 51
134.8510271242919885
  0
ARC
  5
B535
  8
0
 10
4692.3470205101757529
 20
-2474.3245969845661421
 30
0.0
 40
2661.4756235057789127
 50
90.002510706398823
 51
90.0317146710194578
  0
ARC
  5
B536
  8
0
 10
4692.2275866349891658
 20
187.1389244953957984
 30
0.0
 40
0.0124209796308889
 50
32.2665290228726533
 51
76.9353553498055618
  0
ARC
  5
B537
  8
0
 10
4692.2591081338996446
 20
187.1036005361208083
 30
0.0
 40
0.0149996461837932
 50
0.4956722043778044
 51
45.2558826325091275
  0
LINE
  5
B538
  8
0
 10
4692.2741072187873215
 20
187.1037302981210075
 30
0.0
 11
4692.2761260852012128
 21
186.8379336559854096
 31
0.0
  0
LINE
  5
B539
  8
0
 10
4690.8286596218104023
 20
187.1037303184299958
 30
0.0
 11
4692.2741072187873215
 21
187.1037302981210075
 31
0.0
  0
LINE
  5
B53A
  8
0
 10
4690.8646795469567223
 20
187.1455539809597042
 30
0.0
 11
4692.2380894905099922
 21
187.1455555406299993
 31
0.0
  0
LINE
  5
B53B
  8
0
 10
4691.3413834277653223
 20
186.8379336559854096
 30
0.0
 11
4691.3413834277653223
 21
186.7776331457492063
 31
0.0
  0
LINE
  5
B53C
  8
0
 10
4691.761383427765395
 20
186.8379336559854096
 30
0.0
 11
4691.761383427765395
 21
186.7776330813643142
 31
0.0
  0
LINE
  5
B53D
  8
0
 10
4692.2696670119094051
 20
187.1142541496301135
 30
0.0
 11
4692.2380894905099922
 21
187.145555540630113
 31
0.0
  0
LINE
  5
B53E
  8
0
 10
4692.2761260852012128
 20
186.8379336559854096
 30
0.0
 11
4690.8266407687797255
 21
186.8379336559854096
 31
0.0
  0
LINE
  5
B53F
  8
0
 10
4691.2859573010546228
 20
186.4058992807885886
 30
0.0
 11
4691.2859573010546228
 21
186.3576007113551043
 31
0.0
  0
LINE
  5
B540
  8
0
 10
4691.8174533640549271
 20
186.4058993233788044
 30
0.0
 11
4691.8174533640549271
 21
186.3576007113555022
 31
0.0
  0
LINE
  5
B541
  8
0
 10
4690.82513255885533
 20
186.275305426035402
 30
0.0
 11
4690.8234028915549061
 21
186.0803794005354064
 31
0.0
  0
ARC
  5
B542
  8
0
 10
4690.8284911914815893
 20
186.0803349951644066
 30
0.0
 40
0.0050884936852762
 50
179.4999949305041014
 51
267.2821337016114853
  0
ARC
  5
B543
  8
0
 10
4691.6234681417718093
 20
252.3629426943961107
 30
0.0
 40
66.2924602029902985
 50
269.3126859169803993
 51
270.5631186373781247
  0
ARC
  5
B544
  8
0
 10
4692.2748235461303921
 20
186.0804190018417046
 30
0.0
 40
0.0051843786772868
 50
271.929860963034173
 51
359.5623371827954884
  0
LINE
  5
B545
  8
0
 10
4692.2800077735555533
 20
186.0803794005354064
 30
0.0
 11
4692.2782476735546879
 21
186.2753756623353922
 31
0.0
  0
ARC
  5
B546
  8
0
 10
4691.5477994518942069
 20
266.7690897587477252
 30
0.0
 40
80.4970282907356705
 50
269.4856167978202279
 51
270.5199219837061264
  0
ARC
  5
B547
  8
0
 10
4692.1154446750788338
 20
179.7642379275372946
 30
0.0
 40
6.5131727612450367
 50
88.567687874295558
 51
90.1104737483883582
  0
ARC
  5
B548
  8
0
 10
4691.0099975065659237
 20
178.3707207994038981
 30
0.0
 40
7.9067460543810393
 50
90.0686475678480321
 51
91.3397352685280453
  0
LINE
  5
B549
  8
0
 10
4692.102886434854554
 20
186.2739753599169887
 30
0.0
 11
4692.102886434854554
 21
186.3476163873353926
 31
0.0
  0
ARC
  5
B54A
  8
0
 10
4692.0909877898684499
 20
186.3476163873353926
 30
0.0
 40
0.0118986449872072
 50
359.9999999999992042
 51
87.8762982766281482
  0
ARC
  5
B54B
  8
0
 10
4691.8228037129547374
 20
168.5788683408104873
 30
0.0
 40
17.7826675595825385
 50
89.1344569375047655
 51
90.0172388318083563
  0
ARC
  5
B54C
  8
0
 10
4691.5517053325047527
 20
244.2447393934783122
 30
0.0
 40
57.8877486763787203
 50
269.4657881690300201
 51
270.5342118309700936
  0
LINE
  5
B54D
  8
0
 10
4691.000524230155861
 20
186.273921869791991
 30
0.0
 11
4691.000524230155861
 21
186.3476163873353926
 31
0.0
  0
ARC
  5
B54E
  8
0
 10
4691.0124228751419651
 20
186.3476163873353926
 30
0.0
 40
0.0118986449872072
 50
92.1237017233718376
 51
180.0
  0
ARC
  5
B54F
  8
0
 10
4691.280606952054768
 20
168.5788683408104873
 30
0.0
 40
17.7826675595825385
 50
89.9827611678268937
 51
90.8655430624952345
  0
LINE
  5
B69C
  8
0
 10
4693.6774573586981205
 20
185.1522373532527865
 30
0.0
 11
4745.0844573586982733
 21
185.1522373532527865
 31
0.0
  0
ENDSEC
  0
EOF
