  0
SECTION
  2
HEADER
  9
$ACADVER
  1
AC1009
  9
$INSBASE
 10
4779.6820196450617004
 20
143.436798735390397
 30
0.0
  9
$EXTMIN
 10
4751.2235593985096784
 20
143.4239335262440989
 30
-0.0000000000112498
  9
$EXTMAX
 10
4808.0844551545233116
 20
205.0035032157713033
 30
0.0000000000002956
  9
$LIMMIN
 10
0.0
 20
0.0
  9
$LIMMAX
 10
11.6929133858000007
 20
8.2677165353999982
  9
$ORTHOMODE
 70
     0
  9
$REGENMODE
 70
     1
  9
$FILLMODE
 70
     1
  9
$QTEXTMODE
 70
     0
  9
$MIRRTEXT
 70
     0
  9
$DRAGMODE
 70
     2
  9
$LTSCALE
 40
0.6431102362
  9
$OSMODE
 70
  4095
  9
$ATTMODE
 70
     1
  9
$TEXTSIZE
 40
0.2
  9
$TRACEWID
 40
0.05
  9
$TEXTSTYLE
  7
STANDARD
  9
$CLAYER
  8
0
  9
$CELTYPE
  6
BYLAYER
  9
$CECOLOR
 62
   256
  9
$DIMSCALE
 40
1.0
  9
$DIMASZ
 40
0.1875
  9
$DIMEXO
 40
0.0625
  9
$DIMDLI
 40
0.4443307087
  9
$DIMRND
 40
0.0
  9
$DIMDLE
 40
0.0
  9
$DIMEXE
 40
0.125
  9
$DIMTP
 40
0.01
  9
$DIMTM
 40
0.01
  9
$DIMTXT
 40
2.0
  9
$DIMCEN
 40
0.1052362205
  9
$DIMTSZ
 40
0.0
  9
$DIMTOL
 70
     1
  9
$DIMLIM
 70
     0
  9
$DIMTIH
 70
     1
  9
$DIMTOH
 70
     1
  9
$DIMSE1
 70
     0
  9
$DIMSE2
 70
     0
  9
$DIMTAD
 70
     0
  9
$DIMZIN
 70
     0
  9
$DIMBLK
  1

  9
$DIMASO
 70
     1
  9
$DIMSHO
 70
     1
  9
$DIMPOST
  1
\X
  9
$DIMAPOST
  1

  9
$DIMALT
 70
     1
  9
$DIMALTD
 70
     2
  9
$DIMALTF
 40
25.3999999999999986
  9
$DIMLFAC
 40
1.0
  9
$DIMTOFL
 70
     0
  9
$DIMTVP
 40
0.0
  9
$DIMTIX
 70
     0
  9
$DIMSOXD
 70
     0
  9
$DIMSAH
 70
     0
  9
$DIMBLK1
  1

  9
$DIMBLK2
  1

  9
$DIMSTYLE
  2
STANDARD
  9
$DIMCLRD
 70
     0
  9
$DIMCLRE
 70
     0
  9
$DIMCLRT
 70
     0
  9
$DIMTFAC
 40
1.0
  9
$DIMGAP
 40
0.09
  9
$LUNITS
 70
     2
  9
$LUPREC
 70
     4
  9
$SKETCHINC
 40
0.1
  9
$FILLETRAD
 40
0.0
  9
$AUNITS
 70
     0
  9
$AUPREC
 70
     0
  9
$MENU
  1
.
  9
$ELEVATION
 40
0.0
  9
$PELEVATION
 40
0.0
  9
$THICKNESS
 40
0.0
  9
$LIMCHECK
 70
     0
  9
$BLIPMODE
 70
     0
  9
$CHAMFERA
 40
0.0
  9
$CHAMFERB
 40
0.0
  9
$SKPOLY
 70
     0
  9
$TDCREATE
 40
2458060.468368056230247
  9
$TDUPDATE
 40
2460998.7786805559881032
  9
$TDINDWG
 40
0.4105047454
  9
$TDUSRTIMER
 40
0.4105047454
  9
$USRTIMER
 70
     1
  9
$ANGBASE
 50
0.0
  9
$ANGDIR
 70
     0
  9
$PDMODE
 70
     0
  9
$PDSIZE
 40
0.3125
  9
$PLINEWID
 40
0.0
  9
$COORDS
 70
     1
  9
$SPLFRAME
 70
     0
  9
$SPLINETYPE
 70
     6
  9
$SPLINESEGS
 70
     8
  9
$ATTDIA
 70
     1
  9
$ATTREQ
 70
     1
  9
$HANDLING
 70
     1
  9
$HANDSEED
  5
AD03
  9
$SURFTAB1
 70
     6
  9
$SURFTAB2
 70
     6
  9
$SURFTYPE
 70
     6
  9
$SURFU
 70
     6
  9
$SURFV
 70
     6
  9
$UCSNAME
  2

  9
$UCSORG
 10
0.0
 20
0.0
 30
0.0
  9
$UCSXDIR
 10
1.0
 20
0.0
 30
0.0
  9
$UCSYDIR
 10
0.0
 20
1.0
 30
0.0
  9
$PUCSNAME
  2

  9
$PUCSORG
 10
0.0
 20
0.0
 30
0.0
  9
$PUCSXDIR
 10
1.0
 20
0.0
 30
0.0
  9
$PUCSYDIR
 10
0.0
 20
1.0
 30
0.0
  9
$USERI1
 70
     0
  9
$USERI2
 70
     0
  9
$USERI3
 70
     0
  9
$USERI4
 70
     0
  9
$USERI5
 70
     0
  9
$USERR1
 40
0.0
  9
$USERR2
 40
0.0
  9
$USERR3
 40
0.0
  9
$USERR4
 40
0.0
  9
$USERR5
 40
0.0
  9
$WORLDVIEW
 70
     1
  9
$SHADEDGE
 70
     3
  9
$SHADEDIF
 70
    70
  9
$TILEMODE
 70
     1
  9
$MAXACTVP
 70
    64
  9
$PLIMCHECK
 70
     0
  9
$PEXTMIN
 10
1.0000000000000000E+20
 20
1.0000000000000000E+20
 30
1.0000000000000000E+20
  9
$PEXTMAX
 10
-1.0000000000000000E+20
 20
-1.0000000000000000E+20
 30
-1.0000000000000000E+20
  9
$PLIMMIN
 10
0.0
 20
0.0
  9
$PLIMMAX
 10
12.0
 20
9.0
  9
$UNITMODE
 70
     0
  9
$VISRETAIN
 70
     1
  9
$PLINEGEN
 70
     0
  9
$PSLTSCALE
 70
     1
  0
ENDSEC
  0
SECTION
  2
TABLES
  0
TABLE
  2
VPORT
 70
     1
  0
VPORT
  2
*ACTIVE
 70
     0
 10
0.0
 20
0.0
 11
1.0
 21
1.0
 12
976.1099398937038814
 22
48.2184561742577813
 13
0.0
 23
0.0
 14
1.0
 24
1.0
 15
0.0
 25
0.0
 16
0.0
 26
0.0
 36
17.1152628219792007
 17
3803.5440673828129547
 27
125.9952621967499056
 37
0.0
 40
62.0621958514431711
 41
2.2182448036951499
 42
50.0
 43
0.0
 44
0.0
 50
0.0
 51
0.0
 71
     0
 72
   100
 73
     1
 74
     1
 75
     0
 76
     0
 77
     0
 78
     0
  0
ENDTAB
  0
TABLE
  2
LTYPE
 70
     2
  0
LTYPE
  2
CONTINUOUS
 70
     0
  3
Solid line
 72
    65
 73
     0
 40
0.0
  0
LTYPE
  2
PHANTOM2
 70
     0
  3
___ _ _ ___ _ _ ___ _ _ ___ _ _
 72
    65
 73
     6
 40
1.25
 49
0.625
 49
-0.125
 49
0.125
 49
-0.125
 49
0.125
 49
-0.125
  0
ENDTAB
  0
TABLE
  2
LAYER
 70
     2
  0
LAYER
  2
0
 70
     0
 62
   255
  6
CONTINUOUS
  0
LAYER
  2
DEFPOINTS
 70
     0
 62
     7
  6
CONTINUOUS
  0
ENDTAB
  0
TABLE
  2
STYLE
 70
     1
  0
STYLE
  2
STANDARD
 70
     0
 40
0.0
 41
0.8
 50
0.0
 71
     0
 42
0.2
  3
txt
  4

  0
ENDTAB
  0
TABLE
  2
VIEW
 70
     0
  0
ENDTAB
  0
TABLE
  2
UCS
 70
     0
  0
ENDTAB
  0
TABLE
  2
APPID
 70
     9
  0
APPID
  2
ACAD
 70
     0
  0
APPID
  2
ACAD_MLEADERVER
 70
     0
  0
APPID
  2
ACAD_EXEMPT_FROM_CAD_STANDARDS
 70
     0
  0
APPID
  2
ACAD_NAV_VCDISPLAY
 70
     0
  0
APPID
  2
ACAECLAYERSTANDARD
 70
     0
  0
APPID
  2
ACCMTRANSPARENCY
 70
     0
  0
APPID
  2
ACAD_DSTYLE_DIMJAG
 70
     0
  0
APPID
  2
ACAD_DSTYLE_DIMTALN
 70
     0
  0
APPID
  2
ACDBATTR
 70
     0
  0
ENDTAB
  0
TABLE
  2
DIMSTYLE
 70
     1
  0
DIMSTYLE
  2
STANDARD
 70
     0
  3

  4

  5

  6

  7

 40
1.0
 41
0.1875
 42
0.0625
 43
0.38
 44
0.125
 45
0.0
 46
0.0
 47
0.01
 48
0.01
140
0.15625
141
0.09
142
0.0
143
25.3999999999999986
144
1.0
145
0.0
146
1.0
147
0.09
 71
     1
 72
     0
 73
     1
 74
     1
 75
     0
 76
     0
 77
     0
 78
     4
170
     0
171
     2
172
     0
173
     0
174
     0
175
     0
176
     0
177
     0
178
     0
  0
ENDTAB
  0
ENDSEC
  0
SECTION
  2
BLOCKS
  0
BLOCK
  8
0
  2
$MODEL_SPACE
 70
     0
 10
0.0
 20
0.0
 30
0.0
  3
$MODEL_SPACE
  1

  0
ENDBLK
  5
21
  8
0
  0
BLOCK
 67
     1
  8
0
  2
$PAPER_SPACE
 70
     0
 10
0.0
 20
0.0
 30
0.0
  3
$PAPER_SPACE
  1

  0
ENDBLK
  5
1D
 67
     1
  8
0
  0
BLOCK
  8
0
  2
_FILLED
 70
     0
 10
0.0
 20
0.0
 30
0.0
  3
_FILLED
  1

  0
SOLID
  5
A5FC
  8
0
  6
BYBLOCK
 62
     0
 10
0.0
 20
0.0
 30
0.0
 11
-1.0
 21
0.1666666667
 31
0.0
 12
-1.0
 22
-0.1666666667
 32
0.0
 13
-1.0
 23
-0.1666666667
 33
0.0
  0
ENDBLK
  5
A5FD
  8
0
  6
BYBLOCK
 62
     0
  0
ENDSEC
  0
SECTION
  2
ENTITIES
  0
ATTDEF
  5
3930
  8
DEFPOINTS
 10
4779.6770662792550866
 20
143.4354323411695873
 30
0.0
 40
0.001
  1
K-702426-L
  3

  2
MODELNUMBER
 70
     0
1001
ACDBATTR
1070
     0
1070
     1
  0
ATTDEF
  5
3931
  8
DEFPOINTS
 10
4779.6770662792550866
 20
143.4337656745030074
 30
0.0
 40
0.001
  1
KOHLER
  3

  2
BRANDNAME
 70
     0
1001
ACDBATTR
1070
     0
1070
     1
  0
ATTDEF
  5
3932
  8
DEFPOINTS
 10
4779.6770662792550866
 20
143.4320990078363138
 30
0.0
 40
0.001
  1
BATH DOOR
  3

  2
PRODUCT
 70
     0
1001
ACDBATTR
1070
     0
1070
     1
  0
LINE
  5
AA7C
  8
0
 10
4807.6685196450616786
 20
143.436798735390397
 30
0.0
 11
4751.6955196450617223
 21
143.436798735390397
 31
0.0
  0
LINE
  5
AA7D
  8
0
 10
4751.6955196450617223
 20
143.436798735390397
 30
0.0
 11
4751.6955196450617223
 21
143.5147987353904
 31
0.0
  0
LINE
  5
AA7E
  8
0
 10
4807.6685196450616786
 20
143.436798735390397
 30
0.0
 11
4807.6685196450616786
 21
143.5147987353904
 31
0.0
  0
LINE
  5
AA7F
  8
0
 10
4752.138223858962192
 20
143.5147987353904
 30
0.0
 11
4751.3695196450617004
 21
143.5147987353904
 31
0.0
  0
LINE
  5
AA80
  8
0
 10
4751.3695196450617004
 20
143.5147987353904
 30
0.0
 11
4751.3695196450617004
 21
144.4322987353903898
 31
0.0
  0
LINE
  5
AA81
  8
0
 10
4751.3695196450617004
 20
144.4904319348904096
 30
0.0
 11
4751.3695196450617004
 21
144.7772987353903886
 31
0.0
  0
LINE
  5
AA82
  8
0
 10
4751.3695196450617004
 20
145.2772987353903886
 30
0.0
 11
4751.3695196450617004
 21
201.7554465876868051
 31
0.0
  0
LINE
  5
AA83
  8
0
 10
4752.138223858962192
 20
143.5147987353904
 30
0.0
 11
4752.138223858962192
 21
201.679798735490408
 31
0.0
  0
LINE
  5
AA84
  8
0
 10
4752.1020984324932215
 20
201.7597987354903921
 30
0.0
 11
4751.3723133066632727
 21
201.7597987354903921
 31
0.0
  0
LINE
  5
AA85
  8
0
 10
4752.1435196450629519
 20
201.679798735490408
 30
0.0
 11
4751.3695196450617004
 21
201.679798735490408
 31
0.0
  0
LINE
  5
AA86
  8
0
 10
4752.1435196450629519
 20
201.679798735490408
 30
0.0
 11
4752.1420740655721602
 21
201.7211947153766118
 31
0.0
  0
ARC
  5
AA87
  8
0
 10
4752.1020984324932215
 20
201.7197987354904001
 30
0.0
 40
0.04
 50
2.0000000260391109
 51
90.0
  0
LINE
  5
AA88
  8
0
 10
4751.3891705969608665
 20
201.6427187860903985
 30
0.0
 11
4751.4295196450630101
 21
201.6420144908904035
 31
0.0
  0
LINE
  5
AA89
  8
0
 10
4751.3723133066632727
 20
201.7597987354903921
 30
0.0
 11
4751.3695196450617004
 21
201.679798735490408
 31
0.0
  0
ARC
  5
AA8A
  8
0
 10
4751.3895196450630465
 20
201.6627157399940131
 30
0.0
 40
0.02
 50
179.9999999999795932
 51
269.0000000772112116
  0
LINE
  5
AA8B
  8
0
 10
4751.3898686931943303
 20
201.7754435415899081
 30
0.0
 11
4751.6885196450630247
 21
201.7702305697903
 31
0.0
  0
ARC
  5
AA8C
  8
0
 10
4751.3895196450630465
 20
201.7554465876868051
 30
0.0
 40
0.02
 50
88.999999991581177
 51
180.0
  0
LINE
  5
AA8D
  8
0
 10
4751.3695196450617004
 20
144.4904319348904096
 30
0.0
 11
4751.4295196450630101
 21
144.4935764016904045
 31
0.0
  0
LINE
  5
AA8E
  8
0
 10
4751.3695196450617004
 20
144.4322987353903898
 30
0.0
 11
4751.4295196450630101
 21
144.4322987353903898
 31
0.0
  0
LINE
  5
AA8F
  8
0
 10
4751.4295196450630101
 20
143.5147987353904
 30
0.0
 11
4751.4295196450630101
 21
201.679798735490408
 31
0.0
  0
ARC
  5
AA90
  8
0
 10
4751.6685196450616786
 20
201.7505766245903942
 30
0.0
 40
0.0200000000000094
 50
27.4584693396875892
 51
88.9999999920502205
  0
LINE
  5
AA91
  8
0
 10
4751.6885196450630247
 20
201.7597987354903921
 30
0.0
 11
4751.6885196450630247
 21
204.9638487824904018
 31
0.0
  0
LINE
  5
AA92
  8
0
 10
4751.7485196450634248
 20
201.7597987354903921
 30
0.0
 11
4751.7485196450634248
 21
204.9023944884903869
 31
0.0
  0
LINE
  5
AA93
  8
0
 10
4751.3599922938619784
 20
144.7772987353903886
 30
0.0
 11
4751.4295196450630101
 21
144.7772987353903886
 31
0.0
  0
LINE
  5
AA94
  8
0
 10
4751.3599922938619784
 20
144.7772987353903886
 30
0.0
 11
4751.3599922938619784
 21
145.2772987353903886
 31
0.0
  0
LINE
  5
AA95
  8
0
 10
4751.3599922938619784
 20
145.2772987353903886
 30
0.0
 11
4751.4295196450630101
 21
145.2772987353903886
 31
0.0
  0
LINE
  5
AA96
  8
0
 10
4751.4295196450630101
 20
144.771240359490406
 30
0.0
 11
4751.3695196450617004
 21
144.7702021553903933
 31
0.0
  0
LINE
  5
AA97
  8
0
 10
4751.4295196450630101
 20
144.755243405490404
 30
0.0
 11
4751.3695196450617004
 21
144.7542052014904073
 31
0.0
  0
LINE
  5
AA98
  8
0
 10
4751.4295196450630101
 20
144.7493820742218986
 30
0.0
 11
4751.3695196450617004
 21
144.7483438701904106
 31
0.0
  0
LINE
  5
AA99
  8
0
 10
4751.4295196450630101
 20
144.5883460392903999
 30
0.0
 11
4751.3695196450617004
 21
144.5872987353903909
 31
0.0
  0
LINE
  5
AA9A
  8
0
 10
4751.4295196450630101
 20
144.6043436024903883
 30
0.0
 11
4751.3695196450617004
 21
144.6032962985904078
 31
0.0
  0
LINE
  5
AA9B
  8
0
 10
4751.4295196450630101
 20
144.6781725224124102
 30
0.0
 11
4751.3695196450617004
 21
144.6781725224124102
 31
0.0
  0
LINE
  5
AA9C
  8
0
 10
4751.4295196450630101
 20
144.6781725224124102
 30
0.0
 11
4751.3695196450617004
 21
144.6781725224124102
 31
0.0
  0
LINE
  5
AA9D
  8
0
 10
4751.4295196450630101
 20
144.6937514314903979
 30
0.0
 11
4751.3695196450617004
 21
144.6947987353904068
 31
0.0
  0
LINE
  5
AA9E
  8
0
 10
4751.4295196450630101
 20
145.283357111290286
 30
0.0
 11
4751.3695196450617004
 21
145.2843953153904124
 31
0.0
  0
LINE
  5
AA9F
  8
0
 10
4751.4295196450630101
 20
145.2993540652904016
 30
0.0
 11
4751.3695196450617004
 21
145.300392269390386
 31
0.0
  0
LINE
  5
AAA0
  8
0
 10
4751.4295196450630101
 20
145.3052153966588946
 30
0.0
 11
4751.3695196450617004
 21
145.3062536006904111
 31
0.0
  0
LINE
  5
AAA1
  8
0
 10
4751.4295196450630101
 20
145.3608460392904078
 30
0.0
 11
4751.3695196450617004
 21
145.3597987353903989
 31
0.0
  0
LINE
  5
AAA2
  8
0
 10
4751.4295196450630101
 20
145.3768436024903963
 30
0.0
 11
4751.3695196450617004
 21
145.3757962985903873
 31
0.0
  0
LINE
  5
AAA3
  8
0
 10
4751.4295196450630101
 20
145.5572987353903898
 30
0.0
 11
4751.3695196450617004
 21
145.5572987353903898
 31
0.0
  0
LINE
  5
AAA4
  8
0
 10
4751.4295196450630101
 20
145.4662514314904058
 30
0.0
 11
4751.3695196450617004
 21
145.4672987353903864
 31
0.0
  0
LINE
  5
AAA5
  8
0
 10
4751.4295196450630101
 20
145.4502538683904049
 30
0.0
 11
4751.3695196450617004
 21
145.4513011722904139
 31
0.0
  0
LINE
  5
AAA6
  8
0
 10
4751.4295196450630101
 20
201.5767987354903994
 30
0.0
 11
4751.3695196450617004
 21
201.5767987354903994
 31
0.0
  0
LINE
  5
AAA7
  8
0
 10
4807.6685196450616786
 20
143.436798735390397
 30
0.0
 11
4807.6685196450616786
 21
143.5147987353904
 31
0.0
  0
LINE
  5
AAA8
  8
0
 10
4807.2258154311630278
 20
143.5147987353904
 30
0.0
 11
4807.9945196450626099
 21
143.5147987353904
 31
0.0
  0
LINE
  5
AAA9
  8
0
 10
4807.9945196450626099
 20
143.5147987353904
 30
0.0
 11
4807.9945196450626099
 21
144.4322987353903898
 31
0.0
  0
LINE
  5
AAAA
  8
0
 10
4807.9945196450626099
 20
144.4904319348904096
 30
0.0
 11
4807.9945196450626099
 21
144.7772987353903886
 31
0.0
  0
LINE
  5
AAAB
  8
0
 10
4807.9945196450626099
 20
145.2772987353903886
 30
0.0
 11
4807.9945196450626099
 21
201.7554465876868051
 31
0.0
  0
LINE
  5
AAAC
  8
0
 10
4807.2258154311630278
 20
143.5147987353904
 30
0.0
 11
4807.2258154311630278
 21
201.679798735490408
 31
0.0
  0
LINE
  5
AAAD
  8
0
 10
4807.2619408576338174
 20
201.7597987354903921
 30
0.0
 11
4807.9917259834628567
 21
201.7597987354903921
 31
0.0
  0
LINE
  5
AAAE
  8
0
 10
4807.2205196450631774
 20
201.679798735490408
 30
0.0
 11
4807.9945196450626099
 21
201.679798735490408
 31
0.0
  0
LINE
  5
AAAF
  8
0
 10
4807.2205196450631774
 20
201.679798735490408
 30
0.0
 11
4807.2219652245521502
 21
201.7211947153766118
 31
0.0
  0
ARC
  5
AAB0
  8
0
 10
4807.2619408576338174
 20
201.7197987354904001
 30
0.0
 40
0.04
 50
90.0
 51
177.9999999739609109
  0
LINE
  5
AAB1
  8
0
 10
4807.9748686931652628
 20
201.6427187860903985
 30
0.0
 11
4807.9345196450631192
 21
201.6420144908904035
 31
0.0
  0
LINE
  5
AAB2
  8
0
 10
4807.9917259834628567
 20
201.7597987354903921
 30
0.0
 11
4807.9945196450626099
 21
201.679798735490408
 31
0.0
  0
ARC
  5
AAB3
  8
0
 10
4807.9745196450630829
 20
201.6627157399940131
 30
0.0
 40
0.02
 50
270.9999999227886747
 51
0.0000000000203555
  0
LINE
  5
AAB4
  8
0
 10
4807.9741705969308896
 20
201.7754435415899081
 30
0.0
 11
4807.0251705969312752
 21
201.7588786848338032
 31
0.0
  0
ARC
  5
AAB5
  8
0
 10
4807.9745196450630829
 20
201.7554465876868051
 30
0.0
 40
0.02
 50
0.0
 51
91.0000000083667686
  0
LINE
  5
AAB6
  8
0
 10
4807.9945196450626099
 20
144.4904319348904096
 30
0.0
 11
4807.9345196450631192
 21
144.4935764016904045
 31
0.0
  0
LINE
  5
AAB7
  8
0
 10
4807.9945196450626099
 20
144.4322987353903898
 30
0.0
 11
4807.9345196450631192
 21
144.4322987353903898
 31
0.0
  0
LINE
  5
AAB8
  8
0
 10
4807.9345196450631192
 20
143.5147987353904
 30
0.0
 11
4807.9345196450631192
 21
201.679798735490408
 31
0.0
  0
ARC
  5
AAB9
  8
0
 10
4807.6955196450617223
 20
201.7505766245903942
 30
0.0
 40
0.0200000000000094
 50
91.0000000079497937
 51
152.5415306603123895
  0
LINE
  5
AABA
  8
0
 10
4807.6755196450631047
 20
201.7702305697903
 30
0.0
 11
4807.6755196450631047
 21
205.0012186373903944
 31
0.0
  0
LINE
  5
AABB
  8
0
 10
4807.6126584744633874
 20
201.7691333239667983
 30
0.0
 11
4807.6155196450627045
 21
204.9412186373903921
 31
0.0
  0
LINE
  5
AABC
  8
0
 10
4808.0040469962632415
 20
144.7772987353903886
 30
0.0
 11
4807.9345196450631192
 21
144.7772987353903886
 31
0.0
  0
LINE
  5
AABD
  8
0
 10
4808.0040469962632415
 20
144.7772987353903886
 30
0.0
 11
4808.0040469962632415
 21
145.2772987353903886
 31
0.0
  0
LINE
  5
AABE
  8
0
 10
4808.0040469962632415
 20
145.2772987353903886
 30
0.0
 11
4807.9345196450631192
 21
145.2772987353903886
 31
0.0
  0
LINE
  5
AABF
  8
0
 10
4807.9345196450631192
 20
144.771240359490406
 30
0.0
 11
4807.9945196450626099
 21
144.7702021553903933
 31
0.0
  0
LINE
  5
AAC0
  8
0
 10
4807.9345196450631192
 20
144.755243405490404
 30
0.0
 11
4807.9945196450626099
 21
144.7542052014904073
 31
0.0
  0
LINE
  5
AAC1
  8
0
 10
4807.9345196450631192
 20
144.7493820742218986
 30
0.0
 11
4807.9945196450626099
 21
144.7483438701904106
 31
0.0
  0
LINE
  5
AAC2
  8
0
 10
4807.9345196450631192
 20
144.5883460392903999
 30
0.0
 11
4807.9945196450626099
 21
144.5872987353903909
 31
0.0
  0
LINE
  5
AAC3
  8
0
 10
4807.9345196450631192
 20
144.6043436024903883
 30
0.0
 11
4807.9945196450626099
 21
144.6032962985904078
 31
0.0
  0
LINE
  5
AAC4
  8
0
 10
4807.9345196450631192
 20
144.6781725224124102
 30
0.0
 11
4807.9945196450626099
 21
144.6781725224124102
 31
0.0
  0
LINE
  5
AAC5
  8
0
 10
4807.9345196450631192
 20
144.6781725224124102
 30
0.0
 11
4807.9945196450626099
 21
144.6781725224124102
 31
0.0
  0
LINE
  5
AAC6
  8
0
 10
4807.9345196450631192
 20
144.6937514314903979
 30
0.0
 11
4807.9945196450626099
 21
144.6947987353904068
 31
0.0
  0
LINE
  5
AAC7
  8
0
 10
4807.9345196450631192
 20
145.283357111290286
 30
0.0
 11
4807.9945196450626099
 21
145.2843953153904124
 31
0.0
  0
LINE
  5
AAC8
  8
0
 10
4807.9345196450631192
 20
145.2993540652904016
 30
0.0
 11
4807.9945196450626099
 21
145.300392269390386
 31
0.0
  0
LINE
  5
AAC9
  8
0
 10
4807.9345196450631192
 20
145.3052153966588946
 30
0.0
 11
4807.9945196450626099
 21
145.3062536006904111
 31
0.0
  0
LINE
  5
AACA
  8
0
 10
4807.9345196450631192
 20
145.3608460392904078
 30
0.0
 11
4807.9945196450626099
 21
145.3597987353903989
 31
0.0
  0
LINE
  5
AACB
  8
0
 10
4807.9345196450631192
 20
145.3768436024903963
 30
0.0
 11
4807.9945196450626099
 21
145.3757962985903873
 31
0.0
  0
LINE
  5
AACC
  8
0
 10
4807.9345196450631192
 20
145.5572987353903898
 30
0.0
 11
4807.9945196450626099
 21
145.5572987353903898
 31
0.0
  0
LINE
  5
AACD
  8
0
 10
4807.9345196450631192
 20
145.4662514314904058
 30
0.0
 11
4807.9945196450626099
 21
145.4672987353903864
 31
0.0
  0
LINE
  5
AACE
  8
0
 10
4807.9345196450631192
 20
145.4502538683904049
 30
0.0
 11
4807.9945196450626099
 21
145.4513011722904139
 31
0.0
  0
LINE
  5
AACF
  8
0
 10
4807.9345196450631192
 20
201.5767987354903994
 30
0.0
 11
4807.9945196450626099
 21
201.5767987354903994
 31
0.0
  0
LINE
  5
AAD0
  8
0
 10
4807.2258154311630278
 20
144.4807987353904082
 30
0.0
 11
4752.138223858962192
 21
144.4807987353904082
 31
0.0
  0
LINE
  5
AAD1
  8
0
 10
4782.6885196450630247
 20
144.4807987353904082
 30
0.0
 11
4782.6885196450630247
 21
204.9638487824904018
 31
0.0
  0
LINE
  5
AAD2
  8
0
 10
4782.628519645061715
 20
144.4807987353904082
 30
0.0
 11
4782.628519645061715
 21
204.9023944884903869
 31
0.0
  0
LINE
  5
AAD3
  8
0
 10
4807.6155196450627045
 20
204.9412186373903921
 30
0.0
 11
4782.6885196450630247
 21
204.9327872462538949
 31
0.0
  0
LINE
  5
AAD4
  8
0
 10
4807.0251705969303657
 20
198.7927187860908873
 30
0.0
 11
4807.2258154311630278
 21
198.7892165174480112
 31
0.0
  0
LINE
  5
AAD5
  8
0
 10
4807.0055196450630319
 20
201.7388817309308138
 30
0.0
 11
4807.0055196450630319
 21
198.8127157399939904
 31
0.0
  0
ARC
  5
AAD6
  8
0
 10
4807.0255196450616495
 20
201.7388817309308138
 30
0.0
 40
0.02
 50
91.0000000084188656
 51
180.0000000000202931
  0
ARC
  5
AAD7
  8
0
 10
4807.0255196450616495
 20
198.8127157399939904
 30
0.0
 40
0.02
 50
180.0000000000202931
 51
268.9999999902781269
  0
LINE
  5
AAD8
  8
0
 10
4807.0055196450630319
 20
199.007798735490411
 30
0.0
 11
4782.6885196450630247
 21
199.007798735490411
 31
0.0
  0
LINE
  5
AAD9
  8
0
 10
4807.0055196450630319
 20
201.5537987354904033
 30
0.0
 11
4782.6885196450630247
 21
201.5537987354904033
 31
0.0
  0
LINE
  5
AADA
  8
0
 10
4782.628519645061715
 20
204.9023944884903869
 30
0.0
 11
4782.6885196450630247
 21
204.9638487824904018
 31
0.0
  0
LINE
  5
AADB
  8
0
 10
4782.628519645061715
 20
204.9023944884903869
 30
0.0
 11
4751.7485196450634248
 21
204.9023944884903869
 31
0.0
  0
LINE
  5
AADC
  8
0
 10
4807.6155196450627045
 20
204.9412186373903921
 30
0.0
 11
4807.6755196450631047
 21
205.0012186373903944
 31
0.0
  0
LINE
  5
AADD
  8
0
 10
4782.6885196450630247
 20
204.9638487824904018
 30
0.0
 11
4751.6885196450630247
 21
204.9638487824904018
 31
0.0
  0
LINE
  5
AADE
  8
0
 10
4776.6755196450621952
 20
205.0012186373903944
 30
0.0
 11
4776.6755194958250286
 21
204.9638487824904018
 31
0.0
  0
LINE
  5
AADF
  8
0
 10
4751.7485196450634248
 20
204.9023944884903869
 30
0.0
 11
4751.6885196450630247
 21
204.9638487824904018
 31
0.0
  0
CIRCLE
  5
AAE0
  8
0
 10
4753.6885196450630247
 20
202.2097197337903935
 30
0.0
 40
0.9381956900551772
  0
CIRCLE
  5
AAE1
  8
0
 10
4753.6885196450630247
 20
202.2097197337903935
 30
0.0
 40
0.8971510613000019
  0
CIRCLE
  5
AAE2
  8
0
 10
4780.6885196450630247
 20
202.2089643296903887
 30
0.0
 40
0.9381956900551772
  0
CIRCLE
  5
AAE3
  8
0
 10
4780.6885196450630247
 20
202.2089643296903887
 30
0.0
 40
0.8971510613000019
  0
CIRCLE
  5
AAE4
  8
0
 10
4804.1755196450631047
 20
167.8942186373903951
 30
0.0
 40
0.3937795276000001
  0
CIRCLE
  5
AAE5
  8
0
 10
4804.1755196450631047
 20
167.8942186373903951
 30
0.0
 40
0.3737795275999997
  0
LINE
  5
AAE6
  8
0
 10
4753.2385196450632066
 20
168.2867237529904116
 30
0.0
 11
4753.2385196450632066
 21
167.4067237529903878
 31
0.0
  0
LINE
  5
AAE7
  8
0
 10
4753.2385196450632066
 20
167.4067237529903878
 30
0.0
 11
4781.1385196450628428
 21
167.4067237529903878
 31
0.0
  0
LINE
  5
AAE8
  8
0
 10
4781.1385196450628428
 20
167.4067237529903878
 30
0.0
 11
4781.1385196450628428
 21
168.2867237529904116
 31
0.0
  0
LINE
  5
AAE9
  8
0
 10
4781.1385196450628428
 20
168.2867237529904116
 30
0.0
 11
4753.2385196450632066
 21
168.2867237529904116
 31
0.0
  0
LINE
  5
AAEA
  8
0
 10
4781.1385196450628428
 20
168.2867237529904116
 30
0.0
 11
4781.1885196450630247
 21
168.2367237529904003
 31
0.0
  0
LINE
  5
AAEB
  8
0
 10
4781.1885196450630247
 20
168.2367237529904003
 30
0.0
 11
4781.1885196450630247
 21
167.4567237529903991
 31
0.0
  0
LINE
  5
AAEC
  8
0
 10
4781.1885196450630247
 20
167.4567237529903991
 30
0.0
 11
4781.1385196450628428
 21
167.4067237529903878
 31
0.0
  0
LINE
  5
AAED
  8
0
 10
4753.2385196450632066
 20
168.2867237529904116
 30
0.0
 11
4753.1885196450630247
 21
168.2367237529904003
 31
0.0
  0
LINE
  5
AAEE
  8
0
 10
4753.1885196450630247
 20
168.2367237529904003
 30
0.0
 11
4753.1885196450630247
 21
167.4567237529903991
 31
0.0
  0
LINE
  5
AAEF
  8
0
 10
4753.1885196450630247
 20
167.4567237529903991
 30
0.0
 11
4753.2385196450632066
 21
167.4067237529903878
 31
0.0
  0
LINE
  5
AAF0
  8
0
 10
4776.6755196450621952
 20
205.0012186373903944
 30
0.0
 11
4776.7128894999641489
 21
204.9638487824904018
 31
0.0
  0
LINE
  5
AAF1
  8
0
 10
4776.6755196450621952
 20
205.0012186373903944
 30
0.0
 11
4807.6755196450631047
 21
205.0012186373903944
 31
0.0
  0
ENDSEC
  0
EOF
