  0
SECTION
  2
HEADER
  9
$ACADVER
  1
AC1009
  9
$INSBASE
 10
5025.3602502255380386
 20
189.7702626539598896
 30
0.0
  9
$EXTMIN
 10
5023.3145042208416271
 20
189.7542543593299911
 30
-0.0000000349181948
  9
$EXTMAX
 10
5030.6065674444071192
 20
271.4242065402860931
 30
0.0000000814935746
  9
$LIMMIN
 10
0.0
 20
0.0
  9
$LIMMAX
 10
11.6929133858000007
 20
8.2677165353999982
  9
$ORTHOMODE
 70
     0
  9
$REGENMODE
 70
     1
  9
$FILLMODE
 70
     1
  9
$QTEXTMODE
 70
     0
  9
$MIRRTEXT
 70
     0
  9
$DRAGMODE
 70
     2
  9
$LTSCALE
 40
0.6431102362
  9
$OSMODE
 70
  4095
  9
$ATTMODE
 70
     1
  9
$TEXTSIZE
 40
0.2
  9
$TRACEWID
 40
0.05
  9
$TEXTSTYLE
  7
STANDARD
  9
$CLAYER
  8
0
  9
$CELTYPE
  6
BYLAYER
  9
$CECOLOR
 62
   256
  9
$DIMSCALE
 40
1.0
  9
$DIMASZ
 40
0.1875
  9
$DIMEXO
 40
0.0625
  9
$DIMDLI
 40
0.4443307087
  9
$DIMRND
 40
0.0
  9
$DIMDLE
 40
0.0
  9
$DIMEXE
 40
0.125
  9
$DIMTP
 40
0.01
  9
$DIMTM
 40
0.01
  9
$DIMTXT
 40
2.0
  9
$DIMCEN
 40
0.1052362205
  9
$DIMTSZ
 40
0.0
  9
$DIMTOL
 70
     1
  9
$DIMLIM
 70
     0
  9
$DIMTIH
 70
     1
  9
$DIMTOH
 70
     1
  9
$DIMSE1
 70
     0
  9
$DIMSE2
 70
     0
  9
$DIMTAD
 70
     0
  9
$DIMZIN
 70
     0
  9
$DIMBLK
  1

  9
$DIMASO
 70
     1
  9
$DIMSHO
 70
     1
  9
$DIMPOST
  1
\X
  9
$DIMAPOST
  1

  9
$DIMALT
 70
     1
  9
$DIMALTD
 70
     2
  9
$DIMALTF
 40
25.3999999999999986
  9
$DIMLFAC
 40
1.0
  9
$DIMTOFL
 70
     0
  9
$DIMTVP
 40
0.0
  9
$DIMTIX
 70
     0
  9
$DIMSOXD
 70
     0
  9
$DIMSAH
 70
     0
  9
$DIMBLK1
  1

  9
$DIMBLK2
  1

  9
$DIMSTYLE
  2
STANDARD
  9
$DIMCLRD
 70
     0
  9
$DIMCLRE
 70
     0
  9
$DIMCLRT
 70
     0
  9
$DIMTFAC
 40
1.0
  9
$DIMGAP
 40
0.09
  9
$LUNITS
 70
     2
  9
$LUPREC
 70
     4
  9
$SKETCHINC
 40
0.1
  9
$FILLETRAD
 40
0.0
  9
$AUNITS
 70
     0
  9
$AUPREC
 70
     0
  9
$MENU
  1
.
  9
$ELEVATION
 40
0.0
  9
$PELEVATION
 40
0.0
  9
$THICKNESS
 40
0.0
  9
$LIMCHECK
 70
     0
  9
$BLIPMODE
 70
     0
  9
$CHAMFERA
 40
0.0
  9
$CHAMFERB
 40
0.0
  9
$SKPOLY
 70
     0
  9
$TDCREATE
 40
2458060.468368056230247
  9
$TDUPDATE
 40
2460998.7779861111193895
  9
$TDINDWG
 40
0.4156552083
  9
$TDUSRTIMER
 40
0.4156552083
  9
$USRTIMER
 70
     1
  9
$ANGBASE
 50
0.0
  9
$ANGDIR
 70
     0
  9
$PDMODE
 70
     0
  9
$PDSIZE
 40
0.3125
  9
$PLINEWID
 40
0.0
  9
$COORDS
 70
     1
  9
$SPLFRAME
 70
     0
  9
$SPLINETYPE
 70
     6
  9
$SPLINESEGS
 70
     8
  9
$ATTDIA
 70
     1
  9
$ATTREQ
 70
     1
  9
$HANDLING
 70
     1
  9
$HANDSEED
  5
C79C
  9
$SURFTAB1
 70
     6
  9
$SURFTAB2
 70
     6
  9
$SURFTYPE
 70
     6
  9
$SURFU
 70
     6
  9
$SURFV
 70
     6
  9
$UCSNAME
  2

  9
$UCSORG
 10
0.0
 20
0.0
 30
0.0
  9
$UCSXDIR
 10
1.0
 20
0.0
 30
0.0
  9
$UCSYDIR
 10
0.0
 20
1.0
 30
0.0
  9
$PUCSNAME
  2

  9
$PUCSORG
 10
0.0
 20
0.0
 30
0.0
  9
$PUCSXDIR
 10
1.0
 20
0.0
 30
0.0
  9
$PUCSYDIR
 10
0.0
 20
1.0
 30
0.0
  9
$USERI1
 70
     0
  9
$USERI2
 70
     0
  9
$USERI3
 70
     0
  9
$USERI4
 70
     0
  9
$USERI5
 70
     0
  9
$USERR1
 40
0.0
  9
$USERR2
 40
0.0
  9
$USERR3
 40
0.0
  9
$USERR4
 40
0.0
  9
$USERR5
 40
0.0
  9
$WORLDVIEW
 70
     1
  9
$SHADEDGE
 70
     3
  9
$SHADEDIF
 70
    70
  9
$TILEMODE
 70
     1
  9
$MAXACTVP
 70
    64
  9
$PLIMCHECK
 70
     0
  9
$PEXTMIN
 10
1.0000000000000000E+20
 20
1.0000000000000000E+20
 30
1.0000000000000000E+20
  9
$PEXTMAX
 10
-1.0000000000000000E+20
 20
-1.0000000000000000E+20
 30
-1.0000000000000000E+20
  9
$PLIMMIN
 10
0.0
 20
0.0
  9
$PLIMMAX
 10
12.0
 20
9.0
  9
$UNITMODE
 70
     0
  9
$VISRETAIN
 70
     1
  9
$PLINEGEN
 70
     0
  9
$PSLTSCALE
 70
     1
  0
ENDSEC
  0
SECTION
  2
TABLES
  0
TABLE
  2
VPORT
 70
     1
  0
VPORT
  2
*ACTIVE
 70
     0
 10
0.0
 20
0.0
 11
1.0
 21
1.0
 12
1223.4164684498121005
 22
104.5939682530580939
 13
0.0
 23
0.0
 14
1.0
 24
1.0
 15
0.0
 25
0.0
 16
0.0
 26
0.0
 36
17.1152628219792007
 17
3803.5440673828129547
 27
125.9952621967499056
 37
0.0
 40
82.2474192262526032
 41
2.2182448036951499
 42
50.0
 43
0.0
 44
0.0
 50
0.0
 51
0.0
 71
     0
 72
   100
 73
     1
 74
     1
 75
     0
 76
     0
 77
     0
 78
     0
  0
ENDTAB
  0
TABLE
  2
LTYPE
 70
     2
  0
LTYPE
  2
CONTINUOUS
 70
     0
  3
Solid line
 72
    65
 73
     0
 40
0.0
  0
LTYPE
  2
PHANTOM2
 70
     0
  3
___ _ _ ___ _ _ ___ _ _ ___ _ _
 72
    65
 73
     6
 40
1.25
 49
0.625
 49
-0.125
 49
0.125
 49
-0.125
 49
0.125
 49
-0.125
  0
ENDTAB
  0
TABLE
  2
LAYER
 70
     2
  0
LAYER
  2
0
 70
     0
 62
   255
  6
CONTINUOUS
  0
LAYER
  2
DEFPOINTS
 70
     0
 62
     7
  6
CONTINUOUS
  0
ENDTAB
  0
TABLE
  2
STYLE
 70
     1
  0
STYLE
  2
STANDARD
 70
     0
 40
0.0
 41
0.8
 50
0.0
 71
     0
 42
0.2
  3
txt
  4

  0
ENDTAB
  0
TABLE
  2
VIEW
 70
     0
  0
ENDTAB
  0
TABLE
  2
UCS
 70
     0
  0
ENDTAB
  0
TABLE
  2
APPID
 70
     9
  0
APPID
  2
ACAD
 70
     0
  0
APPID
  2
ACAD_MLEADERVER
 70
     0
  0
APPID
  2
ACAD_EXEMPT_FROM_CAD_STANDARDS
 70
     0
  0
APPID
  2
ACAD_NAV_VCDISPLAY
 70
     0
  0
APPID
  2
ACAECLAYERSTANDARD
 70
     0
  0
APPID
  2
ACCMTRANSPARENCY
 70
     0
  0
APPID
  2
ACAD_DSTYLE_DIMJAG
 70
     0
  0
APPID
  2
ACAD_DSTYLE_DIMTALN
 70
     0
  0
APPID
  2
ACDBATTR
 70
     0
  0
ENDTAB
  0
TABLE
  2
DIMSTYLE
 70
     1
  0
DIMSTYLE
  2
STANDARD
 70
     0
  3

  4

  5

  6

  7

 40
1.0
 41
0.1875
 42
0.0625
 43
0.38
 44
0.125
 45
0.0
 46
0.0
 47
0.01
 48
0.01
140
0.15625
141
0.09
142
0.0
143
25.3999999999999986
144
1.0
145
0.0
146
1.0
147
0.09
 71
     1
 72
     0
 73
     1
 74
     1
 75
     0
 76
     0
 77
     0
 78
     4
170
     0
171
     2
172
     0
173
     0
174
     0
175
     0
176
     0
177
     0
178
     0
  0
ENDTAB
  0
ENDSEC
  0
SECTION
  2
BLOCKS
  0
BLOCK
  8
0
  2
$MODEL_SPACE
 70
     0
 10
0.0
 20
0.0
 30
0.0
  3
$MODEL_SPACE
  1

  0
ENDBLK
  5
21
  8
0
  0
BLOCK
 67
     1
  8
0
  2
$PAPER_SPACE
 70
     0
 10
0.0
 20
0.0
 30
0.0
  3
$PAPER_SPACE
  1

  0
ENDBLK
  5
1D
 67
     1
  8
0
  0
BLOCK
  8
0
  2
_FILLED
 70
     0
 10
0.0
 20
0.0
 30
0.0
  3
_FILLED
  1

  0
SOLID
  5
A5FC
  8
0
  6
BYBLOCK
 62
     0
 10
0.0
 20
0.0
 30
0.0
 11
-1.0
 21
0.1666666667
 31
0.0
 12
-1.0
 22
-0.1666666667
 32
0.0
 13
-1.0
 23
-0.1666666667
 33
0.0
  0
ENDBLK
  5
A5FD
  8
0
  6
BYBLOCK
 62
     0
  0
ENDSEC
  0
SECTION
  2
ENTITIES
  0
ATTDEF
  5
3930
  8
DEFPOINTS
 10
5025.3552968597296058
 20
189.7688962597391935
 30
0.0
 40
0.001
  1
K-702427-L
  3

  2
MODELNUMBER
 70
     0
1001
ACDBATTR
1070
     0
1070
     1
  0
ATTDEF
  5
3931
  8
DEFPOINTS
 10
5025.3552968597296058
 20
189.7672295930724999
 30
0.0
 40
0.001
  1
KOHLER
  3

  2
BRANDNAME
 70
     0
1001
ACDBATTR
1070
     0
1070
     1
  0
ATTDEF
  5
3932
  8
DEFPOINTS
 10
5025.3552968597296058
 20
189.7655629264058064
 30
0.0
 40
0.001
  1
SHOWER DOOR
  3

  2
PRODUCT
 70
     0
1001
ACDBATTR
1070
     0
1070
     1
  0
LINE
  5
C281
  8
0
 10
5028.1489106156368507
 20
189.7702626539598896
 30
0.0
 11
5028.0936920394970002
 21
190.8238958534599021
 31
0.0
  0
LINE
  5
C282
  8
0
 10
5027.7367730777368706
 20
268.1899105063563979
 30
0.0
 11
5025.7274773734370683
 21
268.1899105063563979
 31
0.0
  0
LINE
  5
C283
  8
0
 10
5025.0442587755369459
 20
189.8482626539598925
 30
0.0
 11
5025.8302502255382933
 21
189.8482626539598925
 31
0.0
  0
LINE
  5
C284
  8
0
 10
5025.1552502255372019
 20
189.7782626539598994
 30
0.0
 11
5025.1552502255372019
 21
190.7657626539599107
 31
0.0
  0
ARC
  5
C285
  8
0
 10
5025.1632502255370127
 20
189.7782626539598994
 30
0.0
 40
0.008
 50
179.9999999998468923
 51
269.999999999895806
  0
LINE
  5
C286
  8
0
 10
5025.0442587755369459
 20
189.8482626539598925
 30
0.0
 11
5025.0442587755369459
 21
268.094262654159877
 31
0.0
  0
LINE
  5
C287
  8
0
 10
5025.9322771543038471
 20
189.8126951912134075
 30
0.0
 11
5026.3269458683653284
 21
189.7702626539598896
 31
0.0
  0
LINE
  5
C288
  8
0
 10
5025.8898580846880577
 20
189.913280537794293
 30
0.0
 11
5025.8903235417310498
 21
189.8580214332951073
 31
0.0
  0
LINE
  5
C289
  8
0
 10
5025.8544305773757515
 20
189.9616942886378013
 30
0.0
 11
5025.6760898203374381
 21
189.9616942886378013
 31
0.0
  0
LINE
  5
C28A
  8
0
 10
5025.8595605620375864
 20
189.9312626539598909
 30
0.0
 11
5025.6760898203374381
 21
189.9312626539598909
 31
0.0
  0
ARC
  5
C28B
  8
0
 10
5025.8401830663669898
 20
189.9105136866110968
 30
0.0
 40
0.0497520141352377
 50
3.1880262155680912
 51
49.852097521769231
  0
ARC
  5
C28C
  8
0
 10
5025.7626824346552894
 20
189.8186347444876958
 30
0.0
 40
0.1699522134756777
 50
49.852097521769231
 51
57.3267951626296224
  0
ARC
  5
C28D
  8
0
 10
5025.8589776988083031
 20
189.8995035843030905
 30
0.0
 40
0.0317644177501913
 50
13.1164225699241399
 51
88.9485883960339834
  0
ARC
  5
C28E
  8
0
 10
5025.9373025571376274
 20
189.8594257521598934
 30
0.0
 40
0.0470000000000153
 50
181.712202575009087
 51
263.8620030714865266
  0
LINE
  5
C28F
  8
0
 10
5025.8462502255370055
 20
189.8322626539599014
 30
0.0
 11
5025.8462502255370055
 21
189.7702626539598896
 31
0.0
  0
ARC
  5
C290
  8
0
 10
5025.8302502255382933
 20
189.8322626539599014
 30
0.0
 40
0.016
 50
0.0000000000504818
 51
90.0
  0
LINE
  5
C291
  8
0
 10
5025.8243584091369485
 20
189.8482626539598925
 30
0.0
 11
5025.8243584091369485
 21
189.9312626539598909
 31
0.0
  0
LINE
  5
C292
  8
0
 10
5025.6760898203374381
 20
189.8482626539598925
 30
0.0
 11
5025.6760898203374381
 21
190.8238958534599021
 31
0.0
  0
LINE
  5
C293
  8
0
 10
5025.1002502255369109
 20
190.7657626539599107
 30
0.0
 11
5025.6202502255382569
 21
190.7657626539599107
 31
0.0
  0
LINE
  5
C294
  8
0
 10
5025.6202502255382569
 20
190.7657626539599107
 30
0.0
 11
5025.6202502255382569
 21
189.8482626539598925
 31
0.0
  0
LINE
  5
C295
  8
0
 10
5025.1492203941370462
 20
190.8238958534599021
 30
0.0
 11
5028.2816170261376101
 21
190.8238958534599021
 31
0.0
  0
LINE
  5
C296
  8
0
 10
5025.1484038594480808
 20
190.8263474494270895
 30
0.0
 11
5025.1492203941370462
 21
190.8238958534599021
 31
0.0
  0
LINE
  5
C297
  8
0
 10
5025.0945894811366088
 20
190.8271713396599125
 30
0.0
 11
5025.1391229708133324
 21
190.8271713396599125
 31
0.0
  0
LINE
  5
C298
  8
0
 10
5025.086589481136798
 20
190.8351713396598939
 30
0.0
 11
5025.086589481136798
 21
268.094262654159877
 31
0.0
  0
ARC
  5
C299
  8
0
 10
5025.0945894811366088
 20
190.8351713396598939
 30
0.0
 40
0.008
 50
179.9999999998468923
 51
270.000000000104194
  0
LINE
  5
C29A
  8
0
 10
5025.1484038594480808
 20
190.8263474494270895
 30
0.0
 11
5025.1391229708133324
 21
190.8271713396599125
 31
0.0
  0
LINE
  5
C29B
  8
0
 10
5025.1627502255360014
 20
190.8238958534599021
 30
0.0
 11
5025.1627502255360014
 21
190.9207626539599119
 31
0.0
  0
LINE
  5
C29C
  8
0
 10
5025.1619336908479454
 20
190.8238958534599021
 30
0.0
 11
5025.1619336908479454
 21
190.9215791886489058
 31
0.0
  0
LINE
  5
C29D
  8
0
 10
5025.1002502255369109
 20
190.7657626539599107
 30
0.0
 11
5025.1002502255369109
 21
189.8482626539598925
 31
0.0
  0
LINE
  5
C29E
  8
0
 10
5025.1154494180382244
 20
190.7657626539599107
 30
0.0
 11
5025.1154494180382244
 21
190.8271713396599125
 31
0.0
  0
LINE
  5
C29F
  8
0
 10
5025.357188758137454
 20
189.8482626539598925
 30
0.0
 11
5025.357188758137454
 21
190.7657626539599107
 31
0.0
  0
LINE
  5
C2A0
  8
0
 10
5025.3633116930368487
 20
189.8482626539598925
 30
0.0
 11
5025.3633116930368487
 21
190.7657626539599107
 31
0.0
  0
LINE
  5
C2A1
  8
0
 10
5025.3768415245358483
 20
189.8482626539598925
 30
0.0
 11
5025.3768415245358483
 21
190.7657626539599107
 31
0.0
  0
LINE
  5
C2A2
  8
0
 10
5025.3436589266384544
 20
189.8482626539598925
 30
0.0
 11
5025.3436589266384544
 21
190.7657626539599107
 31
0.0
  0
ARC
  5
C2A3
  8
0
 10
5025.2376625348333619
 20
189.7782626539662942
 30
0.0
 40
0.0080000000073903
 50
270.0
 51
23.4158538203563502
  0
ARC
  5
C2A4
  8
0
 10
5025.124792237775182
 20
189.7293822305898061
 30
0.0
 40
0.1309999989810586
 50
23.4158538203533695
 51
50.4769638272444894
  0
LINE
  5
C2A5
  8
0
 10
5025.2052502255373838
 20
189.8366024904194944
 30
0.0
 11
5025.2052502255373838
 21
189.8482626539598925
 31
0.0
  0
ARC
  5
C2A6
  8
0
 10
5025.2132502255399231
 20
189.836602490420205
 30
0.0
 40
0.008
 50
180.0000000051392988
 51
230.4769638227191138
  0
ARC
  5
C2A7
  8
0
 10
5025.1956555115375522
 20
189.6342128683616011
 30
0.0
 40
0.2299999999980624
 50
61.7244552387413421
 51
68.5365602432568153
  0
ARC
  5
C2A8
  8
0
 10
5025.310255353064349
 20
189.8433212781741872
 30
0.0
 40
0.0086491196667729
 50
229.2482310694707905
 51
308.6490683689675052
  0
ARC
  5
C2A9
  8
0
 10
5025.4784279424766282
 20
189.6639601451836938
 30
0.0
 40
0.2372493695839153
 50
129.0272274038543117
 51
133.3201859964397045
  0
ARC
  5
C2AA
  8
0
 10
5025.3858379163375503
 20
189.7782626539598994
 30
0.0
 40
0.007999999999981
 50
161.7921850087151086
 51
270.0
  0
ARC
  5
C2AB
  8
0
 10
5025.4975629540185764
 20
189.730203566015291
 30
0.0
 40
0.1295936825412438
 50
140.5855234059515055
 51
157.0372094734111101
  0
ARC
  5
C2AC
  8
0
 10
5025.3924505051945744
 20
189.8192905923218063
 30
0.0
 40
0.0084393100334314
 50
306.263475830986124
 51
52.9299658014878602
  0
ARC
  5
C2AD
  8
0
 10
5025.501530337774966
 20
190.0011435099735877
 30
0.0
 40
0.2036693743104376
 50
228.6451986051424967
 51
239.2964868664664095
  0
LINE
  5
C2AE
  8
0
 10
5025.6618182715383227
 20
189.8482626539598925
 30
0.0
 11
5025.6618182715383227
 21
190.8238958534599021
 31
0.0
  0
LINE
  5
C2AF
  8
0
 10
5025.6316977750366277
 20
189.8482626539598925
 30
0.0
 11
5025.6316977750366277
 21
190.8238958534599021
 31
0.0
  0
LINE
  5
C2B0
  8
0
 10
5025.6050510330369434
 20
190.7657626539599107
 30
0.0
 11
5025.6050510330369434
 21
190.8238958534599021
 31
0.0
  0
LINE
  5
C2B1
  8
0
 10
5025.5910823420372253
 20
190.7657626539599107
 30
0.0
 11
5025.5910823420372253
 21
190.8238958534599021
 31
0.0
  0
LINE
  5
C2B2
  8
0
 10
5025.0888026761367655
 20
189.8482626539598925
 30
0.0
 11
5025.0888026761367655
 21
190.8296474924595998
 31
0.0
  0
LINE
  5
C2B3
  8
0
 10
5025.05868217963598
 20
189.8482626539598925
 30
0.0
 11
5025.05868217963598
 21
268.094262654159877
 31
0.0
  0
LINE
  5
C2B4
  8
0
 10
5025.305500225536889
 20
190.9207626539599119
 30
0.0
 11
5025.1627502255360014
 21
190.9207626539599119
 31
0.0
  0
LINE
  5
C2B5
  8
0
 10
5025.3215002255374202
 20
190.936762653959903
 30
0.0
 11
5025.3215002255374202
 21
191.0122626539599082
 31
0.0
  0
LINE
  5
C2B6
  8
0
 10
5025.305500225536889
 20
191.0282626539598994
 30
0.0
 11
5025.086589481136798
 21
191.0282626539598994
 31
0.0
  0
ARC
  5
C2B7
  8
0
 10
5025.305500225536889
 20
190.936762653959903
 30
0.0
 40
0.016
 50
269.999999999895806
 51
0.0
  0
ARC
  5
C2B8
  8
0
 10
5025.305500225536889
 20
191.0122626539599082
 30
0.0
 40
0.016
 50
0.0000000000260551
 51
90.0000000001042082
  0
LINE
  5
C2B9
  8
0
 10
5025.1903725918373311
 20
190.9397174340599008
 30
0.0
 11
5025.1903725918373311
 21
191.0253078738599015
 31
0.0
  0
LINE
  5
C2BA
  8
0
 10
5025.302545445438227
 20
190.9237174340599097
 30
0.0
 11
5025.2063725918369528
 21
190.9237174340599097
 31
0.0
  0
LINE
  5
C2BB
  8
0
 10
5025.3185454454360297
 20
191.0093078738599104
 30
0.0
 11
5025.3185454454360297
 21
190.9397174340599008
 31
0.0
  0
LINE
  5
C2BC
  8
0
 10
5025.302545445438227
 20
191.0253078738599015
 30
0.0
 11
5025.086589481136798
 21
191.0253078738599015
 31
0.0
  0
ARC
  5
C2BD
  8
0
 10
5025.302545445438227
 20
191.0093078738599104
 30
0.0
 40
0.016
 50
0.0000000000521102
 51
90.0000000000521254
  0
ARC
  5
C2BE
  8
0
 10
5025.302545445438227
 20
190.9397174340599008
 30
0.0
 40
0.016
 50
269.9999999999478746
 51
0.0000000000260551
  0
ARC
  5
C2BF
  8
0
 10
5025.2063725918369528
 20
190.9397174340599008
 30
0.0
 40
0.016
 50
180.0
 51
270.0
  0
LINE
  5
C2C0
  8
0
 10
5025.2063725918369528
 20
190.9237174340599097
 30
0.0
 11
5025.0946253864813116
 21
190.9218535955598952
 31
0.0
  0
LINE
  5
C2C1
  8
0
 10
5025.1627502255360014
 20
190.9207626539599119
 30
0.0
 11
5025.1619336908479454
 21
190.9215791886489058
 31
0.0
  0
LINE
  5
C2C2
  8
0
 10
5025.1619336908479454
 20
190.9215791886489058
 30
0.0
 11
5025.155248257005951
 21
190.9218535955598952
 31
0.0
  0
LINE
  5
C2C3
  8
0
 10
5025.086589481136798
 20
190.9218535955598952
 30
0.0
 11
5025.155248257005951
 21
190.9218535955598952
 31
0.0
  0
LINE
  5
C2C4
  8
0
 10
5028.5311170261365987
 20
191.073395853459914
 30
0.0
 11
5028.5311170261365987
 21
191.6481294545598928
 31
0.0
  0
LINE
  5
C2C5
  8
0
 10
5028.2816170261376101
 20
191.8976294545599046
 30
0.0
 11
5025.086589481136798
 21
191.8976294545599046
 31
0.0
  0
ARC
  5
C2C6
  8
0
 10
5028.2816170261376101
 20
191.073395853459914
 30
0.0
 40
0.2495
 50
270.0
 51
0.0
  0
ARC
  5
C2C7
  8
0
 10
5028.2816170261376101
 20
191.6481294545598928
 30
0.0
 40
0.2495
 50
359.9999999999984084
 51
90.0
  0
LINE
  5
C2C8
  8
0
 10
5025.305500225536889
 20
191.8007626539599073
 30
0.0
 11
5025.1627502255360014
 21
191.8007626539599073
 31
0.0
  0
LINE
  5
C2C9
  8
0
 10
5025.3215002255374202
 20
191.7847626539598878
 30
0.0
 11
5025.3215002255374202
 21
191.7092626539599109
 31
0.0
  0
LINE
  5
C2CA
  8
0
 10
5025.305500225536889
 20
191.6932626539598914
 30
0.0
 11
5025.1627502255360014
 21
191.6932626539598914
 31
0.0
  0
ARC
  5
C2CB
  8
0
 10
5025.305500225536889
 20
191.7847626539598878
 30
0.0
 40
0.016
 50
0.0
 51
90.0000000001042082
  0
ARC
  5
C2CC
  8
0
 10
5025.305500225536889
 20
191.7092626539599109
 30
0.0
 40
0.016
 50
269.999999999895806
 51
359.9999999999740226
  0
LINE
  5
C2CD
  8
0
 10
5025.1903725918373311
 20
191.7818078738598899
 30
0.0
 11
5025.1903725918373311
 21
191.6962174340598892
 31
0.0
  0
LINE
  5
C2CE
  8
0
 10
5025.302545445438227
 20
191.7978078738599095
 30
0.0
 11
5025.2063725918369528
 21
191.7978078738599095
 31
0.0
  0
LINE
  5
C2CF
  8
0
 10
5025.3185454454360297
 20
191.7122174340599088
 30
0.0
 11
5025.3185454454360297
 21
191.7818078738598899
 31
0.0
  0
LINE
  5
C2D0
  8
0
 10
5025.302545445438227
 20
191.6962174340598892
 30
0.0
 11
5025.086589481136798
 21
191.6962174340598892
 31
0.0
  0
ARC
  5
C2D1
  8
0
 10
5025.302545445438227
 20
191.7122174340599088
 30
0.0
 40
0.016
 50
269.9999999999478746
 51
359.9999999999478746
  0
ARC
  5
C2D2
  8
0
 10
5025.302545445438227
 20
191.7818078738598899
 30
0.0
 40
0.016
 50
359.9999999999740226
 51
90.0000000000521254
  0
ARC
  5
C2D3
  8
0
 10
5025.2063725918369528
 20
191.7818078738598899
 30
0.0
 40
0.016
 50
90.0
 51
180.0
  0
LINE
  5
C2D4
  8
0
 10
5025.2063725918369528
 20
191.7978078738599095
 30
0.0
 11
5025.0946253864813116
 21
191.7996717123598955
 31
0.0
  0
LINE
  5
C2D5
  8
0
 10
5025.1627502255360014
 20
191.8007626539599073
 30
0.0
 11
5025.1619336908479454
 21
191.7999461192709134
 31
0.0
  0
LINE
  5
C2D6
  8
0
 10
5025.1619336908479454
 20
191.7999461192709134
 30
0.0
 11
5025.155248257005951
 21
191.7996717123598955
 31
0.0
  0
LINE
  5
C2D7
  8
0
 10
5025.086589481136798
 20
191.7996717123598955
 30
0.0
 11
5025.155248257005951
 21
191.7996717123598955
 31
0.0
  0
LINE
  5
C2D8
  8
0
 10
5027.8721239956339559
 20
189.9948067891506867
 30
0.0
 11
5027.8819715218996862
 21
190.5589711932231012
 31
0.0
  0
LINE
  5
C2D9
  8
0
 10
5027.8865957990283277
 20
190.8238958534599021
 30
0.0
 11
5027.8865965852419322
 21
190.823940895598696
 31
0.0
  0
LINE
  5
C2DA
  8
0
 10
5027.7861370938508117
 20
189.9103076960986982
 30
0.0
 11
5027.5224792130247806
 21
189.9103076960986982
 31
0.0
  0
ARC
  5
C2DB
  8
0
 10
5027.7861370938508117
 20
189.9963076960987109
 30
0.0
 40
0.086
 50
270.0
 51
359.0000000037525751
  0
LINE
  5
C2DC
  8
0
 10
5026.4087823748486699
 20
189.9920705822954972
 30
0.0
 11
5026.4479280026598644
 21
190.7941852220803867
 31
0.0
  0
ARC
  5
C2DD
  8
0
 10
5026.3228846069187057
 20
189.9962626539598887
 30
0.0
 40
0.086
 50
270.0
 51
357.2060089166118928
  0
LINE
  5
C2DE
  8
0
 10
5026.3228846069187057
 20
189.9102626539599044
 30
0.0
 11
5026.0598759858539779
 21
189.9102626539599044
 31
0.0
  0
ARC
  5
C2DF
  8
0
 10
5026.0565671711574396
 20
189.9964001055126062
 30
0.0
 40
0.0862009791979743
 50
181.068320038936605
 51
272.1998323537645774
  0
LINE
  5
C2E0
  8
0
 10
5028.454446273762187
 20
265.5994922456612812
 30
0.0
 11
5028.454446273762187
 21
267.393791049961294
 31
0.0
  0
LINE
  5
C2E1
  8
0
 10
5028.1991398501068034
 20
191.1083059595798943
 30
0.0
 11
5027.7311398501069561
 21
191.104221785411994
 31
0.0
  0
LINE
  5
C2E2
  8
0
 10
5027.7150002255366417
 20
191.1202211761811043
 30
0.0
 11
5027.7150002255366417
 21
191.6013041318387877
 31
0.0
  0
LINE
  5
C2E3
  8
0
 10
5027.7311398501069561
 20
191.6173035226078127
 30
0.0
 11
5028.1991398501068034
 21
191.6132193484399977
 31
0.0
  0
LINE
  5
C2E4
  8
0
 10
5028.2150002255375512
 20
191.1243053503488909
 30
0.0
 11
5028.2150002255375512
 21
191.5972199576710011
 31
0.0
  0
ARC
  5
C2E5
  8
0
 10
5028.19900022553702
 20
191.1243053503488909
 30
0.0
 40
0.016
 50
270.5000000051246047
 51
0.0000000000130276
  0
ARC
  5
C2E6
  8
0
 10
5027.7310002255371728
 20
191.1202211761811043
 30
0.0
 40
0.016
 50
180.0000000000634941
 51
270.5000000049681717
  0
ARC
  5
C2E7
  8
0
 10
5027.7310002255371728
 20
191.6013041318387877
 30
0.0
 40
0.016
 50
89.4999999948232841
 51
180.000000000037403
  0
ARC
  5
C2E8
  8
0
 10
5028.19900022553702
 20
191.5972199576710011
 30
0.0
 40
0.016
 50
359.9999999999869829
 51
89.4999999949796319
  0
LINE
  5
C2E9
  8
0
 10
5025.086589481136798
 20
191.6945271921375138
 30
0.0
 11
5025.1619336908370315
 21
191.6940791887085993
 31
0.0
  0
LINE
  5
C2EA
  8
0
 10
5025.1619336908370315
 20
191.6940791887085993
 30
0.0
 11
5025.1627502255360014
 21
191.6932626539598914
 31
0.0
  0
LINE
  5
C2EB
  8
0
 10
5025.1627502255360014
 20
191.6932626539598914
 30
0.0
 11
5025.1627502255360014
 21
191.6397175192599036
 31
0.0
  0
LINE
  5
C2EC
  8
0
 10
5025.1627502255360014
 20
191.6397175192599036
 30
0.0
 11
5025.1619336908370315
 21
191.6389080793599078
 31
0.0
  0
LINE
  5
C2ED
  8
0
 10
5025.1619336908370315
 20
191.6389080793599078
 30
0.0
 11
5025.086589481136798
 21
191.6392082694428893
 31
0.0
  0
LINE
  5
C2EE
  8
0
 10
5025.8502502255369109
 20
191.6178568183536868
 30
0.0
 11
5025.8502502255369109
 21
191.1036684897489124
 31
0.0
  0
LINE
  5
C2EF
  8
0
 10
5025.086589481136798
 20
191.0811431440112074
 30
0.0
 11
5025.8343898501052536
 21
191.0876690989798874
 31
0.0
  0
LINE
  5
C2F0
  8
0
 10
5025.8343898501034346
 20
191.6338562091227118
 30
0.0
 11
5025.1627502255360014
 21
191.6397175192599036
 31
0.0
  0
ARC
  5
C2F1
  8
0
 10
5025.8342502255372892
 20
191.6178568183536868
 30
0.0
 40
0.016
 50
359.9999999999478746
 51
89.5000000058710867
  0
ARC
  5
C2F2
  8
0
 10
5025.8342502255372892
 20
191.1036684897489124
 30
0.0
 40
0.016
 50
270.5000000012162218
 51
359.9999999999234888
  0
LINE
  5
C2F3
  8
0
 10
5025.1253609185359892
 20
191.1107626539599096
 30
0.0
 11
5025.8502502255369109
 21
191.1107626539599096
 31
0.0
  0
LINE
  5
C2F4
  8
0
 10
5025.1253609185359892
 20
191.6107626539599096
 30
0.0
 11
5025.1253609185359892
 21
191.1107626539599096
 31
0.0
  0
LINE
  5
C2F5
  8
0
 10
5025.1253609185359892
 20
191.6107626539599096
 30
0.0
 11
5025.8502502255369109
 21
191.6107626539599096
 31
0.0
  0
CIRCLE
  5
C2F6
  8
0
 10
5025.3602502255380386
 20
191.3282626539599107
 30
0.0
 40
0.0820000000000018
  0
ARC
  5
C2F7
  8
0
 10
5025.3615741471658112
 20
191.3569809068843028
 30
0.0
 40
0.0728850325450638
 50
5.3887818581932194
 51
169.3322442771820988
  0
ARC
  5
C2F8
  8
0
 10
5025.3520939060335877
 20
191.3601847285081021
 30
0.0
 40
0.0714000440102233
 50
20.9293916091807795
 51
75.9080815213712725
  0
LINE
  5
C2F9
  8
0
 10
5025.7938601937366911
 20
191.1107626539599096
 30
0.0
 11
5025.7938601937366911
 21
191.6107626539599096
 31
0.0
  0
LINE
  5
C2FA
  8
0
 10
5025.7450864931370234
 20
191.1107626539599096
 30
0.0
 11
5025.7450864931370234
 21
191.6107626539599096
 31
0.0
  0
LINE
  5
C2FB
  8
0
 10
5025.5708127417383366
 20
191.1107626539599096
 30
0.0
 11
5025.5708127417383366
 21
191.6107626539599096
 31
0.0
  0
LINE
  5
C2FC
  8
0
 10
5025.5222821730367286
 20
191.1107626539599096
 30
0.0
 11
5025.5222821730367286
 21
191.6107626539599096
 31
0.0
  0
LINE
  5
C2FD
  8
0
 10
5025.4597923191367954
 20
191.1107626539599096
 30
0.0
 11
5025.4597923191367954
 21
191.6107626539599096
 31
0.0
  0
LINE
  5
C2FE
  8
0
 10
5025.2719195672370915
 20
191.1107626539599096
 30
0.0
 11
5025.2719195672370915
 21
191.6107626539599096
 31
0.0
  0
LINE
  5
C2FF
  8
0
 10
5025.1546446769380054
 20
191.1107626539599096
 30
0.0
 11
5025.1546446769380054
 21
191.6107626539599096
 31
0.0
  0
LINE
  5
C300
  8
0
 10
5025.5933154072372417
 20
189.8482626539598925
 30
0.0
 11
5025.5933154072372417
 21
190.7657626539599107
 31
0.0
  0
LINE
  5
C301
  8
0
 10
5025.5652502255370564
 20
189.8482626539598925
 30
0.0
 11
5025.5652502255370564
 21
190.7657626539599107
 31
0.0
  0
LINE
  5
C302
  8
0
 10
5025.5492502255374347
 20
189.8482626539598925
 30
0.0
 11
5025.5492502255374347
 21
190.7657626539599107
 31
0.0
  0
LINE
  5
C303
  8
0
 10
5025.1712502255368236
 20
189.8482626539598925
 30
0.0
 11
5025.1712502255368236
 21
190.7657626539599107
 31
0.0
  0
LINE
  5
C304
  8
0
 10
5025.127185043937061
 20
189.8482626539598925
 30
0.0
 11
5025.127185043937061
 21
190.7657626539599107
 31
0.0
  0
CIRCLE
  5
C305
  8
0
 10
5025.3602502255380386
 20
193.8482626539598925
 30
0.0
 40
0.0944999999999965
  0
LINE
  5
C306
  8
0
 10
5025.6760898203374381
 20
191.8976294545599046
 30
0.0
 11
5025.6760898203374381
 21
265.4652626541599147
 31
0.0
  0
LINE
  5
C307
  8
0
 10
5025.6618182715383227
 20
191.8976294545599046
 30
0.0
 11
5025.6618182715383227
 21
265.4652626541599147
 31
0.0
  0
LINE
  5
C308
  8
0
 10
5025.6316977750366277
 20
191.8976294545599046
 30
0.0
 11
5025.6316977750366277
 21
265.4652626541599147
 31
0.0
  0
LINE
  5
C309
  8
0
 10
5025.618606345336957
 20
191.8976294545599046
 30
0.0
 11
5025.618606345336957
 21
265.4652626541599147
 31
0.0
  0
LINE
  5
C30A
  8
0
 10
5025.5933154072372417
 20
191.8976294545599046
 30
0.0
 11
5025.5933154072372417
 21
265.4652626541599147
 31
0.0
  0
LINE
  5
C30B
  8
0
 10
5025.5652502255370564
 20
191.8976294545599046
 30
0.0
 11
5025.5652502255370564
 21
265.4652626541599147
 31
0.0
  0
LINE
  5
C30C
  8
0
 10
5025.5492502255374347
 20
191.8976294545599046
 30
0.0
 11
5025.5492502255374347
 21
263.991262654159982
 31
0.0
  0
LINE
  5
C30D
  8
0
 10
5025.3633116930368487
 20
191.8976294545599046
 30
0.0
 11
5025.3633116930368487
 21
193.7538122573660075
 31
0.0
  0
LINE
  5
C30E
  8
0
 10
5025.3633116930368487
 20
193.9427130505538059
 30
0.0
 11
5025.3633116930368487
 21
227.5623122573659884
 31
0.0
  0
LINE
  5
C30F
  8
0
 10
5025.3633116930368487
 20
227.7512130505539005
 30
0.0
 11
5025.3633116930368487
 21
261.3708122574627737
 31
0.0
  0
LINE
  5
C310
  8
0
 10
5025.3633116930368487
 20
261.5597130506570807
 30
0.0
 11
5025.3633116930368487
 21
263.991262654159982
 31
0.0
  0
LINE
  5
C311
  8
0
 10
5025.357188758137454
 20
191.8976294545599046
 30
0.0
 11
5025.357188758137454
 21
193.7538122573627106
 31
0.0
  0
LINE
  5
C312
  8
0
 10
5025.357188758137454
 20
193.9427130505571029
 30
0.0
 11
5025.357188758137454
 21
227.5623122573628052
 31
0.0
  0
LINE
  5
C313
  8
0
 10
5025.357188758137454
 20
227.7512130505571122
 30
0.0
 11
5025.357188758137454
 21
261.3708122574661274
 31
0.0
  0
LINE
  5
C314
  8
0
 10
5025.357188758137454
 20
261.5597130506538974
 30
0.0
 11
5025.357188758137454
 21
263.991262654159982
 31
0.0
  0
LINE
  5
C315
  8
0
 10
5025.3737800570370382
 20
191.8976294545599046
 30
0.0
 11
5025.3737800570370382
 21
193.7547362210140136
 31
0.0
  0
LINE
  5
C316
  8
0
 10
5025.3737800570370382
 20
193.9417890869057999
 30
0.0
 11
5025.3737800570370382
 21
227.5632362210139945
 31
0.0
  0
LINE
  5
C317
  8
0
 10
5025.3737800570370382
 20
227.7502890869058092
 30
0.0
 11
5025.3737800570370382
 21
261.3717362210995816
 31
0.0
  0
LINE
  5
C318
  8
0
 10
5025.3737800570370382
 20
261.5587890870202727
 30
0.0
 11
5025.3737800570370382
 21
263.991262654159982
 31
0.0
  0
LINE
  5
C319
  8
0
 10
5025.3467203941372645
 20
191.8976294545599046
 30
0.0
 11
5025.3467203941372645
 21
193.7547362209996038
 31
0.0
  0
LINE
  5
C31A
  8
0
 10
5025.3467203941372645
 20
193.9417890869202949
 30
0.0
 11
5025.3467203941372645
 21
227.5632362209996131
 31
0.0
  0
LINE
  5
C31B
  8
0
 10
5025.3467203941372645
 20
227.7502890869203043
 30
0.0
 11
5025.3467203941372645
 21
261.3717362211140767
 31
0.0
  0
LINE
  5
C31C
  8
0
 10
5025.3467203941372645
 20
261.5587890870057777
 30
0.0
 11
5025.3467203941372645
 21
263.991262654159982
 31
0.0
  0
LINE
  5
C31D
  8
0
 10
5025.1712502255368236
 20
191.8976294545599046
 30
0.0
 11
5025.1712502255368236
 21
263.991262654159982
 31
0.0
  0
LINE
  5
C31E
  8
0
 10
5025.1552502255372019
 20
191.8976294545599046
 30
0.0
 11
5025.1552502255372019
 21
265.4652626541599147
 31
0.0
  0
LINE
  5
C31F
  8
0
 10
5025.127185043937061
 20
191.8976294545599046
 30
0.0
 11
5025.127185043937061
 21
265.4652626541599147
 31
0.0
  0
LINE
  5
C320
  8
0
 10
5025.1018941058373457
 20
191.8976294545599046
 30
0.0
 11
5025.1018941058373457
 21
267.991262654159982
 31
0.0
  0
LINE
  5
C321
  8
0
 10
5025.159062625538354
 20
263.991262654159982
 30
0.0
 11
5025.561250225537151
 21
263.991262654159982
 31
0.0
  0
LINE
  5
C322
  8
0
 10
5025.159062625538354
 20
263.991262654159982
 30
0.0
 11
5025.159062625538354
 21
265.4652626541599147
 31
0.0
  0
LINE
  5
C323
  8
0
 10
5025.561250225537151
 20
263.991262654159982
 30
0.0
 11
5025.561250225537151
 21
265.4652626541599147
 31
0.0
  0
LINE
  5
C324
  8
0
 10
5025.5052502255366562
 20
265.4652626541599147
 30
0.0
 11
5027.676125225537362
 21
265.4652626541599147
 31
0.0
  0
LINE
  5
C325
  8
0
 10
5025.5052502255366562
 20
265.4652626541599147
 30
0.0
 11
5025.5052502255366562
 21
267.991262654159982
 31
0.0
  0
LINE
  5
C326
  8
0
 10
5025.2152502255376021
 20
265.4652626541599147
 30
0.0
 11
5025.1018941058373457
 21
265.4652626541599147
 31
0.0
  0
LINE
  5
C327
  8
0
 10
5025.2152502255376021
 20
265.4652626541599147
 30
0.0
 11
5025.2152502255376021
 21
267.991262654159982
 31
0.0
  0
LINE
  5
C328
  8
0
 10
5025.1018941058373457
 20
267.991262654159982
 30
0.0
 11
5027.676125225537362
 21
267.991262654159982
 31
0.0
  0
LINE
  5
C329
  8
0
 10
5025.7274773734370683
 20
268.0547852690256718
 30
0.0
 11
5027.6824682342376036
 21
268.0547852690256718
 31
0.0
  0
LINE
  5
C32A
  8
0
 10
5025.7074773734366318
 20
268.1699105063564161
 30
0.0
 11
5025.7074773734366318
 21
268.0747852690257105
 31
0.0
  0
LINE
  5
C32B
  8
0
 10
5027.7567730777373072
 20
268.1699105063564161
 30
0.0
 11
5027.7567730777373072
 21
265.2106148020599221
 31
0.0
  0
ARC
  5
C32C
  8
0
 10
5027.7367730777368706
 20
268.1699105063564161
 30
0.0
 40
0.02
 50
359.9999999999380975
 51
90.0000000000521254
  0
ARC
  5
C32D
  8
0
 10
5025.7274773734370683
 20
268.1699105063564161
 30
0.0
 40
0.02
 50
90.0
 51
180.0000000000194973
  0
ARC
  5
C32E
  8
0
 10
5025.7274773734370683
 20
268.0747852690257105
 30
0.0
 40
0.02
 50
179.9999999999787974
 51
270.0000000000521254
  0
ARC
  5
C32F
  8
0
 10
5027.6824682342376036
 20
268.03478526902569
 30
0.0
 40
0.02
 50
0.0
 51
90.0000000000521254
  0
LINE
  5
C330
  8
0
 10
5027.0499413417446704
 20
268.0024392134599793
 30
0.0
 11
5027.2752769065464236
 21
268.0024392134599793
 31
0.0
  0
ARC
  5
C331
  8
0
 10
5027.0499413417446704
 20
267.9624462248028749
 30
0.0
 40
0.0399929887014773
 50
90.0
 51
133.9011634384378908
  0
ARC
  5
C332
  8
0
 10
5027.2752923904072304
 20
267.9624044394258817
 30
0.0
 40
0.0400347770294804
 50
46.1229386969562114
 51
90.0221597317575259
  0
LINE
  5
C333
  8
0
 10
5025.0402502255374202
 20
268.094262654159877
 30
0.0
 11
5025.6802502255368381
 21
268.094262654159877
 31
0.0
  0
LINE
  5
C334
  8
0
 10
5025.6788046461397244
 20
268.1356586339587125
 30
0.0
 11
5025.6802502255368381
 21
268.094262654159877
 31
0.0
  0
LINE
  5
C335
  8
0
 10
5025.081671438117155
 20
268.1742626541599748
 30
0.0
 11
5025.6388290130580572
 21
268.1742626541599748
 31
0.0
  0
LINE
  5
C336
  8
0
 10
5025.0402502255374202
 20
268.094262654159877
 30
0.0
 11
5025.0416958050373069
 21
268.1356586340552894
 31
0.0
  0
ARC
  5
C337
  8
0
 10
5025.081671438117155
 20
268.1342626541598975
 30
0.0
 40
0.04
 50
90.0000000000521254
 51
177.9999999608540975
  0
ARC
  5
C338
  8
0
 10
5025.6388290130580572
 20
268.1342626541598975
 30
0.0
 40
0.04
 50
1.9999999005619651
 51
90.0
  0
LINE
  5
C339
  8
0
 10
5025.2226564255370249
 20
263.991262654159982
 30
0.0
 11
5025.2226564255370249
 21
267.991262654159982
 31
0.0
  0
LINE
  5
C33A
  8
0
 10
5025.2386564255366466
 20
263.991262654159982
 30
0.0
 11
5025.2386564255366466
 21
267.991262654159982
 31
0.0
  0
LINE
  5
C33B
  8
0
 10
5025.4816564255370395
 20
263.991262654159982
 30
0.0
 11
5025.4816564255370395
 21
267.991262654159982
 31
0.0
  0
LINE
  5
C33C
  8
0
 10
5025.4976564255375706
 20
263.991262654159982
 30
0.0
 11
5025.4976564255375706
 21
267.991262654159982
 31
0.0
  0
LINE
  5
C33D
  8
0
 10
5025.7274773734370683
 20
265.1906148020599971
 30
0.0
 11
5027.7367730777368706
 21
265.1906148020599971
 31
0.0
  0
LINE
  5
C33E
  8
0
 10
5025.7074773734366318
 20
265.4178652176598803
 30
0.0
 11
5025.7074773734366318
 21
265.2106148020599221
 31
0.0
  0
LINE
  5
C33F
  8
0
 10
5025.7274773734370683
 20
265.4378652176599189
 30
0.0
 11
5026.296205175038267
 21
265.4378652176599189
 31
0.0
  0
ARC
  5
C340
  8
0
 10
5025.7274773734370683
 20
265.4178652176598803
 30
0.0
 40
0.02
 50
90.0000000000521254
 51
180.0000000000406999
  0
LINE
  5
C341
  8
0
 10
5026.3162051750368846
 20
265.4178652176598803
 30
0.0
 11
5026.3162051750368846
 21
265.4153426036600081
 31
0.0
  0
LINE
  5
C342
  8
0
 10
5026.3362051750382307
 20
265.3953426036600263
 30
0.0
 11
5027.2780452761371635
 21
265.3953426036600263
 31
0.0
  0
ARC
  5
C343
  8
0
 10
5026.296205175038267
 20
265.4178652176598803
 30
0.0
 40
0.02
 50
359.9999999999593001
 51
90.0000000000521254
  0
ARC
  5
C344
  8
0
 10
5026.3362051750382307
 20
265.4153426036600081
 30
0.0
 40
0.02
 50
180.0
 51
269.9999999999478746
  0
LINE
  5
C345
  8
0
 10
5026.3331252255366053
 20
265.4282626541598802
 30
0.0
 11
5026.3331252255366053
 21
265.4652626541599147
 31
0.0
  0
LINE
  5
C346
  8
0
 10
5026.3491252255371364
 20
265.4122626541599175
 30
0.0
 11
5027.2611252255373984
 21
265.4122626541599175
 31
0.0
  0
LINE
  5
C347
  8
0
 10
5026.3491252255371364
 20
265.4222626541599084
 30
0.0
 11
5027.2511252255371801
 21
265.4222626541599084
 31
0.0
  0
ARC
  5
C348
  8
0
 10
5026.3491252255371364
 20
265.4382626541599848
 30
0.0
 40
0.016
 50
180.0000000000765112
 51
270.0
  0
ARC
  5
C349
  8
0
 10
5026.3491252255371364
 20
265.4282626541599939
 30
0.0
 40
0.016
 50
180.0000000000243858
 51
270.0
  0
ARC
  5
C34A
  8
0
 10
5025.7274773734370683
 20
265.2106148020599221
 30
0.0
 40
0.02
 50
179.9999999999787974
 51
270.0
  0
LINE
  5
C34B
  8
0
 10
5027.3180452761371271
 20
265.4378652176599189
 30
0.0
 11
5027.6845226621380789
 21
265.4378652176599189
 31
0.0
  0
LINE
  5
C34C
  8
0
 10
5027.2980452761366905
 20
265.4153426036600081
 30
0.0
 11
5027.2980452761366905
 21
265.4178652176598803
 31
0.0
  0
ARC
  5
C34D
  8
0
 10
5027.2780452761371635
 20
265.4153426036600081
 30
0.0
 40
0.02
 50
270.0
 51
0.0
  0
ARC
  5
C34E
  8
0
 10
5027.3180452761371271
 20
265.4178652176598803
 30
0.0
 40
0.02
 50
90.0000000001042082
 51
179.9999999999787974
  0
LINE
  5
C34F
  8
0
 10
5027.2811252255369254
 20
265.4322626541598993
 30
0.0
 11
5027.2811252255369254
 21
265.4652626541599147
 31
0.0
  0
LINE
  5
C350
  8
0
 10
5027.2711252255376166
 20
265.4422626541598902
 30
0.0
 11
5027.2711252255376166
 21
265.4652626541599147
 31
0.0
  0
ARC
  5
C351
  8
0
 10
5027.2511252255371801
 20
265.4422626541598902
 30
0.0
 40
0.02
 50
269.9999999999478746
 51
0.0
  0
ARC
  5
C352
  8
0
 10
5027.2611252255373984
 20
265.4322626541598993
 30
0.0
 40
0.02
 50
270.0
 51
0.0000000000195413
  0
ARC
  5
C353
  8
0
 10
5027.7367730777368706
 20
265.2106148020599221
 30
0.0
 40
0.02
 50
270.0000000000521254
 51
359.9999999999789111
  0
LINE
  5
C354
  8
0
 10
5027.7045226621366965
 20
265.4578652176599007
 30
0.0
 11
5027.7045226621366965
 21
268.0371827047600277
 31
0.0
  0
ARC
  5
C355
  8
0
 10
5027.6845226621380789
 20
265.4578652176599007
 30
0.0
 40
0.02
 50
269.9999999999478746
 51
359.9999999999789111
  0
LINE
  5
C356
  8
0
 10
5027.6824682342376036
 20
265.4399196455598826
 30
0.0
 11
5027.3161642462710006
 21
265.4399196455598826
 31
0.0
  0
LINE
  5
C357
  8
0
 10
5027.7024682342371307
 20
265.4599196455599213
 30
0.0
 11
5027.7024682342371307
 21
268.03478526902569
 31
0.0
  0
ARC
  5
C358
  8
0
 10
5027.6824682342376036
 20
265.4599196455599213
 30
0.0
 40
0.02
 50
269.9999999999478746
 51
359.9999999999789111
  0
ARC
  5
C359
  8
0
 10
5027.3160031523366342
 20
265.419908247559988
 30
0.0
 40
0.0200120463999783
 50
89.5387726975161939
 51
179.9586449127237131
  0
LINE
  5
C35A
  8
0
 10
5027.2959911111493057
 20
265.4199226919021726
 30
0.0
 11
5027.2980455506340149
 21
265.4178682637598854
 31
0.0
  0
LINE
  5
C35B
  8
0
 10
5027.676125225537362
 20
265.4652626541599147
 30
0.0
 11
5027.676125225537362
 21
267.991262654159982
 31
0.0
  0
CIRCLE
  5
C35C
  8
0
 10
5026.4161877255373838
 20
266.2532626541599257
 30
0.0
 40
0.1299999999999955
  0
CIRCLE
  5
C35D
  8
0
 10
5026.9390627255370418
 20
266.2532626541599257
 30
0.0
 40
0.1300000000000042
  0
CIRCLE
  5
C35E
  8
0
 10
5026.9390627255370418
 20
267.203262654160028
 30
0.0
 40
0.1299999999999968
  0
CIRCLE
  5
C35F
  8
0
 10
5026.4161877255373838
 20
267.203262654160028
 30
0.0
 40
0.1299999999999954
  0
LINE
  5
C360
  8
0
 10
5025.7542502255382715
 20
265.4652626541599147
 30
0.0
 11
5025.7542502255382715
 21
267.991262654159982
 31
0.0
  0
LINE
  5
C361
  8
0
 10
5025.7702502255369836
 20
265.4652626541599147
 30
0.0
 11
5025.7702502255369836
 21
267.991262654159982
 31
0.0
  0
LINE
  5
C362
  8
0
 10
5025.7862502255384243
 20
265.4652626541599147
 30
0.0
 11
5025.7862502255384243
 21
267.991262654159982
 31
0.0
  0
LINE
  5
C363
  8
0
 10
5026.0071252255384024
 20
265.4652626541599147
 30
0.0
 11
5026.0071252255384024
 21
267.991262654159982
 31
0.0
  0
LINE
  5
C364
  8
0
 10
5025.9911252255369618
 20
265.4652626541599147
 30
0.0
 11
5025.9911252255369618
 21
267.991262654159982
 31
0.0
  0
LINE
  5
C365
  8
0
 10
5026.0231252255371146
 20
265.4652626541599147
 30
0.0
 11
5026.0231252255371146
 21
267.991262654159982
 31
0.0
  0
LINE
  5
C366
  8
0
 10
5026.0511252255382715
 20
265.4652626541599147
 30
0.0
 11
5026.0511252255382715
 21
267.991262654159982
 31
0.0
  0
LINE
  5
C367
  8
0
 10
5026.0671252255369836
 20
265.4652626541599147
 30
0.0
 11
5026.0671252255369836
 21
267.991262654159982
 31
0.0
  0
LINE
  5
C368
  8
0
 10
5026.0831252255384243
 20
265.4652626541599147
 30
0.0
 11
5026.0831252255384243
 21
267.991262654159982
 31
0.0
  0
LINE
  5
C369
  8
0
 10
5027.6010002255370637
 20
265.4652626541599147
 30
0.0
 11
5027.6010002255370637
 21
267.991262654159982
 31
0.0
  0
LINE
  5
C36A
  8
0
 10
5027.5850002255383515
 20
265.4652626541599147
 30
0.0
 11
5027.5850002255383515
 21
267.991262654159982
 31
0.0
  0
LINE
  5
C36B
  8
0
 10
5027.5690002255369109
 20
265.4652626541599147
 30
0.0
 11
5027.5690002255369109
 21
267.991262654159982
 31
0.0
  0
LINE
  5
C36C
  8
0
 10
5027.3481252255369327
 20
265.4652626541599147
 30
0.0
 11
5027.3481252255369327
 21
267.991262654159982
 31
0.0
  0
LINE
  5
C36D
  8
0
 10
5027.3641252255365544
 20
265.4652626541599147
 30
0.0
 11
5027.3641252255365544
 21
267.991262654159982
 31
0.0
  0
LINE
  5
C36E
  8
0
 10
5027.3321252255373111
 20
265.4652626541599147
 30
0.0
 11
5027.3321252255373111
 21
267.991262654159982
 31
0.0
  0
LINE
  5
C36F
  8
0
 10
5027.3041252255370637
 20
265.4652626541599147
 30
0.0
 11
5027.3041252255370637
 21
267.991262654159982
 31
0.0
  0
LINE
  5
C370
  8
0
 10
5027.288125225537442
 20
265.4652626541599147
 30
0.0
 11
5027.288125225537442
 21
267.991262654159982
 31
0.0
  0
LINE
  5
C371
  8
0
 10
5027.2721252255369109
 20
265.4652626541599147
 30
0.0
 11
5027.2721252255369109
 21
267.991262654159982
 31
0.0
  0
LINE
  5
C372
  8
0
 10
5026.9664571970370162
 20
268.0183332325755146
 30
0.0
 11
5026.9664571970370162
 21
267.991262654159982
 31
0.0
  0
LINE
  5
C373
  8
0
 10
5026.926457197037962
 20
268.0183332305026056
 30
0.0
 11
5026.926457197037962
 21
267.991262654159982
 31
0.0
  0
LINE
  5
C374
  8
0
 10
5026.9122775916366663
 20
268.0202626541599784
 30
0.0
 11
5026.9122775916366663
 21
267.991262654159982
 31
0.0
  0
LINE
  5
C375
  8
0
 10
5026.9806368023373579
 20
268.0202626541599784
 30
0.0
 11
5026.9806368023373579
 21
267.991262654159982
 31
0.0
  0
ARC
  5
C376
  8
0
 10
5026.9464571969883764
 20
268.0202626541599784
 30
0.0
 40
0.0341796053499906
 50
0.0
 51
180.0
  0
ARC
  5
C377
  8
0
 10
5026.9464571969883764
 20
268.0192979431786853
 30
0.0
 40
0.0200232532141236
 50
357.2384481155768867
 51
182.7615578228472941
  0
LINE
  5
C378
  8
0
 10
5026.8115689412370557
 20
268.0222289838599181
 30
0.0
 11
5026.8115689412370557
 21
267.991262654159982
 31
0.0
  0
LINE
  5
C379
  8
0
 10
5026.8237822169367064
 20
267.991262654159982
 30
0.0
 11
5026.8237822169367064
 21
268.0344519138673718
 31
0.0
  0
LINE
  5
C37A
  8
0
 10
5026.5094682342369197
 20
267.991262654159982
 30
0.0
 11
5026.5094682342369197
 21
268.0340334489677048
 31
0.0
  0
LINE
  5
C37B
  8
0
 10
5026.5216815099383894
 20
268.0222289838599181
 30
0.0
 11
5026.5216815099383894
 21
267.991262654159982
 31
0.0
  0
LINE
  5
C37C
  8
0
 10
5026.5416815099370069
 20
268.0422289838598999
 30
0.0
 11
5026.7915689412384381
 21
268.0422289838598999
 31
0.0
  0
ARC
  5
C37D
  8
0
 10
5026.5416815099370069
 20
268.0222289838599181
 30
0.0
 40
0.02
 50
89.9999999999478888
 51
180.0000000000406999
  0
ARC
  5
C37E
  8
0
 10
5026.7915689412384381
 20
268.0222289838599181
 30
0.0
 40
0.02
 50
359.9999999999789111
 51
90.0000000000521254
  0
ARC
  5
C37F
  8
0
 10
5026.5300186222020784
 20
268.0342393776048766
 30
0.0
 40
0.020551419704207
 50
91.3289896524397733
 51
180.5741228298724081
  0
ARC
  5
C380
  8
0
 10
5026.8029799690511936
 20
268.0339888146592102
 30
0.0
 40
0.0208074019795636
 50
1.2753043272047859
 51
88.1413078520274667
  0
LINE
  5
C381
  8
0
 10
5026.4251317749631198
 20
268.0024392134599793
 30
0.0
 11
5026.338748215220221
 21
268.0024392134599793
 31
0.0
  0
ARC
  5
C382
  8
0
 10
5026.4230668460431843
 20
267.9620317971055101
 30
0.0
 40
0.0404601436920716
 50
46.2580021919986706
 51
87.0745746737306234
  0
ARC
  5
C383
  8
0
 10
5026.3389421947922528
 20
267.9624446239432132
 30
0.0
 40
0.0399950599247314
 50
90.2778895318910344
 51
133.9009393570449049
  0
LINE
  5
C384
  8
0
 10
5025.3857502255541476
 20
268.094262654159877
 30
0.0
 11
5025.3821533863374498
 21
267.991262654159982
 31
0.0
  0
LINE
  5
C385
  8
0
 10
5025.3347502256210646
 20
268.094262654159877
 30
0.0
 11
5025.338347064836853
 21
267.991262654159982
 31
0.0
  0
LINE
  5
C386
  8
0
 10
5025.1814488521367821
 20
267.991262654159982
 30
0.0
 11
5025.1810055170481064
 21
268.094262654159877
 31
0.0
  0
LINE
  5
C387
  8
0
 10
5025.1701850615036165
 20
267.991262654159982
 30
0.0
 11
5025.1697417264513206
 21
268.094262654159877
 31
0.0
  0
LINE
  5
C388
  8
0
 10
5025.1549567362962989
 20
267.991262654159982
 30
0.0
 11
5025.1498893939306072
 21
268.094262654159877
 31
0.0
  0
LINE
  5
C389
  8
0
 10
5025.1154494180382244
 20
267.991262654159982
 30
0.0
 11
5025.1154494180382244
 21
268.094262654159877
 31
0.0
  0
LINE
  5
C38A
  8
0
 10
5025.5390515990384301
 20
267.991262654159982
 30
0.0
 11
5025.5394949341261963
 21
268.094262654159877
 31
0.0
  0
LINE
  5
C38B
  8
0
 10
5025.5503153896706863
 20
267.991262654159982
 30
0.0
 11
5025.5507587247229822
 21
268.094262654159877
 31
0.0
  0
LINE
  5
C38C
  8
0
 10
5025.5655437148780038
 20
267.991262654159982
 30
0.0
 11
5025.5706110572436955
 21
268.094262654159877
 31
0.0
  0
LINE
  5
C38D
  8
0
 10
5025.6050510331378973
 20
267.991262654159982
 30
0.0
 11
5025.6050510331378973
 21
268.094262654159877
 31
0.0
  0
LINE
  5
C38E
  8
0
 10
5025.6365274041372686
 20
267.991262654159982
 30
0.0
 11
5025.6365274041372686
 21
268.094262654159877
 31
0.0
  0
LINE
  5
C38F
  8
0
 10
5025.6568199848370568
 20
267.991262654159982
 30
0.0
 11
5025.6568199848370568
 21
268.094262654159877
 31
0.0
  0
LINE
  5
C390
  8
0
 10
5025.6760898203374381
 20
267.991262654159982
 30
0.0
 11
5025.6760898203374381
 21
268.094262654159877
 31
0.0
  0
LINE
  5
C391
  8
0
 10
5025.7102178186369201
 20
267.991262654159982
 30
0.0
 11
5025.7102178186369201
 21
268.0646804301795783
 31
0.0
  0
LINE
  5
C392
  8
0
 10
5027.6845226621380789
 20
268.0571827047600095
 30
0.0
 11
5025.7274773734370683
 21
268.0571827047600095
 31
0.0
  0
ARC
  5
C393
  8
0
 10
5027.6845226621380789
 20
268.0371827047600277
 30
0.0
 40
0.02
 50
359.9999999999789111
 51
90.0
  0
ARC
  5
C394
  8
0
 10
5025.7274773734370683
 20
268.0771827047598777
 30
0.0
 40
0.02
 50
179.9999999999787974
 51
270.0
  0
LINE
  5
C395
  8
0
 10
5028.4140956759620167
 20
265.5591416477612938
 30
0.0
 11
5028.2877968716620671
 21
265.5591416477612938
 31
0.0
  0
LINE
  5
C396
  8
0
 10
5028.4140956759620167
 20
265.5591416477612938
 30
0.0
 11
5028.454446273762187
 21
265.5994922456612812
 31
0.0
  0
LINE
  5
C397
  8
0
 10
5028.2877968716620671
 20
265.5591416477612938
 30
0.0
 11
5028.2474462737618524
 21
265.5994922456613949
 31
0.0
  0
LINE
  5
C398
  8
0
 10
5028.2474462737618524
 20
267.393791049961294
 30
0.0
 11
5028.2474462737618524
 21
265.5994922456613949
 31
0.0
  0
LINE
  5
C399
  8
0
 10
5028.2877968716620671
 20
267.4341416477612938
 30
0.0
 11
5028.4140956759620167
 21
267.4341416477612938
 31
0.0
  0
LINE
  5
C39A
  8
0
 10
5028.4140956759620167
 20
267.4341416477612938
 30
0.0
 11
5028.454446273762187
 21
267.393791049961294
 31
0.0
  0
LINE
  5
C39B
  8
0
 10
5028.2474462737618524
 20
267.393791049961294
 30
0.0
 11
5028.2877968716620671
 21
267.4341416477612938
 31
0.0
  0
LINE
  5
C39C
  8
0
 10
5028.2474462737618524
 20
265.8353631616614052
 30
0.0
 11
5027.9545582366208691
 21
265.8353631616614052
 31
0.0
  0
LINE
  5
C39D
  8
0
 10
5028.2474462737618524
 20
267.1582028472145112
 30
0.0
 11
5027.9545791984701282
 21
267.1582028472145112
 31
0.0
  0
LINE
  5
C39E
  8
0
 10
5028.2877968716620671
 20
267.4341416477612938
 30
0.0
 11
5028.2877968716620671
 21
265.5591416477612938
 31
0.0
  0
LINE
  5
C39F
  8
0
 10
5028.4140956759620167
 20
267.4341416477612938
 30
0.0
 11
5028.4140956759620167
 21
265.5591416477612938
 31
0.0
  0
LINE
  5
C3A0
  8
0
 10
5025.1943782235166509
 20
268.1742348157440006
 30
0.0
 11
5025.1944054022605997
 21
269.5218727979831783
 31
0.0
  0
LINE
  5
C3A1
  8
0
 10
5025.4014054022609344
 20
269.5218727979831783
 30
0.0
 11
5025.4013782235160761
 21
268.1742348157440006
 31
0.0
  0
LINE
  5
C3A2
  8
0
 10
5025.3610548043607196
 20
269.5622233957831781
 30
0.0
 11
5025.2347560000598605
 21
269.5622233957831781
 31
0.0
  0
LINE
  5
C3A3
  8
0
 10
5025.2347560000598605
 20
269.5622233957831781
 30
0.0
 11
5025.1944054022605997
 21
269.5218727979831783
 31
0.0
  0
LINE
  5
C3A4
  8
0
 10
5025.4014054022609344
 20
269.5218727979831783
 30
0.0
 11
5025.3610548043607196
 21
269.5622233957831781
 31
0.0
  0
LINE
  5
C3A5
  8
0
 10
5025.4013586714490884
 20
269.2876779205701041
 30
0.0
 11
5025.6943586714487537
 21
269.2876779205701041
 31
0.0
  0
LINE
  5
C3A6
  8
0
 10
5025.3610548043607196
 20
269.5622233957831781
 30
0.0
 11
5025.3610276256167708
 21
268.1742348157440006
 31
0.0
  0
LINE
  5
C3A7
  8
0
 10
5025.2347560000598605
 20
269.5622233957831781
 30
0.0
 11
5025.2347288213168213
 21
268.1742348157440006
 31
0.0
  0
LINE
  5
C3A8
  8
0
 10
5026.2812026795063503
 20
268.0547852690256718
 30
0.0
 11
5026.2811911520311696
 21
268.0571827047598958
 31
0.0
  0
LINE
  5
C3A9
  8
0
 10
5026.2805529633369588
 20
268.1899105063563979
 30
0.0
 11
5026.2749444408646013
 21
269.3563474317526243
 31
0.0
  0
LINE
  5
C3AA
  8
0
 10
5026.0799842935812194
 20
269.3567463892597971
 30
0.0
 11
5026.2749444408646013
 21
269.3563474317526243
 31
0.0
  0
LINE
  5
C3AB
  8
0
 10
5026.2757898916170234
 20
269.1805141387649201
 30
0.0
 11
5026.3481406250220971
 21
269.1806960323452813
 31
0.0
  0
ARC
  5
C3AC
  8
0
 10
5026.595314358851283
 20
269.1484711525155262
 30
0.0
 40
0.2952755904550293
 50
50.7035197365128383
 51
129.2964802375084048
  0
LINE
  5
C3AD
  8
0
 10
5026.4083064849028233
 20
269.3769787659551866
 30
0.0
 11
5026.4135105826462677
 21
268.1899105063563979
 31
0.0
  0
LINE
  5
C3AE
  8
0
 10
5026.3652970634821031
 20
268.0547852690256718
 30
0.0
 11
5026.3652855378541062
 21
268.0571827047598958
 31
0.0
  0
LINE
  5
C3AF
  8
0
 10
5026.3646474514371221
 20
268.1899105063563979
 30
0.0
 11
5026.3599350188769677
 21
269.1701395114617981
 31
0.0
  0
ARC
  5
C3B0
  8
0
 10
5026.3482458072921872
 20
269.1689465771946175
 30
0.0
 40
0.0117499259423068
 50
5.8271064370979353
 51
90.5129037119882867
  0
LINE
  5
C3B1
  8
0
 10
5026.7823222329498094
 20
269.3769787659169879
 30
0.0
 11
5026.7875294014602332
 21
268.1899105063563979
 31
0.0
  0
LINE
  5
C3B2
  8
0
 10
5026.8408133560033093
 20
269.3557428357705135
 30
0.0
 11
5026.8460223322899765
 21
268.1899105063563979
 31
0.0
  0
LINE
  5
C3B3
  8
0
 10
5027.1479789087916288
 20
269.3094043556042152
 30
0.0
 11
5027.1530260745357737
 21
268.1899105063563979
 31
0.0
  0
LINE
  5
C3B4
  8
0
 10
5026.8243309298659369
 20
268.3122170781692262
 30
0.0
 11
5026.8246828017381631
 21
268.2087536046598757
 31
0.0
  0
ARC
  5
C3B5
  8
0
 10
5026.8083309298654058
 20
268.3122170781692262
 30
0.0
 40
0.016
 50
0.0
 51
90.0
  0
LINE
  5
C3B6
  8
0
 10
5026.786922708777638
 20
268.3282170781691889
 30
0.0
 11
5026.8083309298654058
 21
268.3282170781691889
 31
0.0
  0
LINE
  5
C3B7
  8
0
 10
5026.8167188689358227
 20
268.2007536860604091
 30
0.0
 11
5026.8147188890379766
 21
268.2007446692595067
 31
0.0
  0
ARC
  5
C3B8
  8
0
 10
5026.8166828019038803
 20
268.2087536045909246
 30
0.0
 40
0.00799999983288
 50
270.2583119695744927
 51
0.0000004942327531
  0
ARC
  5
C3B9
  8
0
 10
5026.8147872371682752
 20
268.1926678005943927
 30
0.0
 40
0.008077157847929
 50
90.4848371436911378
 51
186.3242294537832038
  0
LINE
  5
C3BA
  8
0
 10
5026.8067592331735796
 20
268.1917780642506273
 30
0.0
 11
5026.806767652936287
 21
268.1899105063563979
 31
0.0
  0
LINE
  5
C3BB
  8
0
 10
5026.8408133560033093
 20
269.355754616870513
 30
0.0
 11
5027.1015962468018188
 21
269.3557735609600172
 31
0.0
  0
ARC
  5
C3BC
  8
0
 10
5027.1014866727982735
 20
269.3405446709300008
 30
0.0
 40
0.0152292842251644
 50
45.4943070225309327
 51
89.587756043353636
  0
LINE
  5
C3BD
  8
0
 10
5027.1121620984031324
 20
269.3514059041089013
 30
0.0
 11
5027.1435922394675799
 21
269.3199367508843238
 31
0.0
  0
ARC
  5
C3BE
  8
0
 10
5027.1329790612371653
 20
269.3093367297598775
 30
0.0
 40
0.0150000000000281
 50
0.2583125724533852
 51
44.9644633245166219
  0
LINE
  5
C3BF
  8
0
 10
5027.101596246770896
 20
269.3557735609601878
 30
0.0
 11
5027.1068524651363987
 21
268.1899105063563979
 31
0.0
  0
LINE
  5
C3C0
  8
0
 10
5026.7842637188696244
 20
268.9343819287599899
 30
0.0
 11
5026.8304115260370963
 21
268.9343819287599899
 31
0.0
  0
LINE
  5
C3C1
  8
0
 10
5026.8302507173875711
 20
268.780489665560026
 30
0.0
 11
5026.8302507173875711
 21
268.8290727999599881
 31
0.0
  0
ARC
  5
C3C2
  8
0
 10
5026.8459987488859042
 20
268.8290727999599881
 30
0.0
 40
0.0157480314999958
 50
100.6166599797974044
 51
180.0000000001546994
  0
ARC
  5
C3C3
  8
0
 10
5026.845998749262435
 20
268.7804896656651863
 30
0.0
 40
0.0157480318742955
 50
180.0000003826029058
 51
260.6971825448400182
  0
ARC
  5
C3C4
  8
0
 10
5026.8304115260370963
 20
268.9503819287597821
 30
0.0
 40
0.015999999999945
 50
270.0
 51
320.0123943965257922
  0
ARC
  5
C3C5
  8
0
 10
5026.8296968659124104
 20
269.0518372838961909
 30
0.0
 40
0.015999999999984
 50
39.0284555136147873
 51
90.0
  0
LINE
  5
C3C6
  8
0
 10
5026.8186968659119884
 20
269.1178372838962218
 30
0.0
 11
5026.8419517685133542
 21
269.1178372838962218
 31
0.0
  0
LINE
  5
C3C7
  8
0
 10
5026.8026968659123668
 20
269.0838372838961732
 30
0.0
 11
5026.8026968659123668
 21
269.1018372838962023
 31
0.0
  0
LINE
  5
C3C8
  8
0
 10
5026.8296968659124104
 20
269.0678372838962105
 30
0.0
 11
5026.8186968659119884
 21
269.0678372838962105
 31
0.0
  0
ARC
  5
C3C9
  8
0
 10
5026.8186968659119884
 20
269.0838372838961732
 30
0.0
 40
0.016
 50
180.0000000000243858
 51
269.9999999999478746
  0
ARC
  5
C3CA
  8
0
 10
5026.8186968659119884
 20
269.1018372838962023
 30
0.0
 40
0.016
 50
90.0000000000521254
 51
180.0000000000505054
  0
LINE
  5
C3CB
  8
0
 10
5026.9497791708381556
 20
266.3828202004477816
 30
0.0
 11
5026.9497791708381556
 21
266.1237051078721265
 31
0.0
  0
LINE
  5
C3CC
  8
0
 10
5026.9497791708381556
 20
267.0737051078721151
 30
0.0
 11
5026.9497791708381556
 21
267.3328202004478271
 31
0.0
  0
LINE
  5
C3CD
  8
0
 10
5026.9297822169382925
 20
266.3829309701052921
 30
0.0
 11
5026.9297822169382925
 21
266.1235943382145024
 31
0.0
  0
LINE
  5
C3CE
  8
0
 10
5026.9297822169382925
 20
267.073594338214491
 30
0.0
 11
5026.9297822169382925
 21
267.3329309701053944
 31
0.0
  0
LINE
  5
C3CF
  8
0
 10
5026.9217951274367806
 20
266.3821107432254962
 30
0.0
 11
5026.9217951274367806
 21
266.1244145650942983
 31
0.0
  0
LINE
  5
C3D0
  8
0
 10
5026.9217951274367806
 20
267.0744145650942869
 30
0.0
 11
5026.9217951274367806
 21
267.3321107432254848
 31
0.0
  0
LINE
  5
C3D1
  8
0
 10
5026.8754553236367428
 20
266.3666385705774928
 30
0.0
 11
5026.8754553236367428
 21
266.1398867377424153
 31
0.0
  0
LINE
  5
C3D2
  8
0
 10
5026.8754553236367428
 20
267.0898867377422903
 30
0.0
 11
5026.8754553236367428
 21
267.3166385705774815
 31
0.0
  0
LINE
  5
C3D3
  8
0
 10
5026.8674682342370943
 20
266.3617717727420882
 30
0.0
 11
5026.8674682342370943
 21
266.1447535355777063
 31
0.0
  0
LINE
  5
C3D4
  8
0
 10
5026.8674682342370943
 20
267.0947535355776949
 30
0.0
 11
5026.8674682342370943
 21
267.3117717727421905
 31
0.0
  0
LINE
  5
C3D5
  8
0
 10
5026.8474712803372313
 20
266.3455177741597026
 30
0.0
 11
5026.8474712803372313
 21
266.1610075341600918
 31
0.0
  0
LINE
  5
C3D6
  8
0
 10
5026.8474712803372313
 20
267.1110075341601942
 30
0.0
 11
5026.8474712803372313
 21
267.2955177741596913
 31
0.0
  0
LINE
  5
C3D7
  8
0
 10
5026.4131252255383515
 20
267.3332265764374256
 30
0.0
 11
5026.4131252255383515
 21
267.0732987318825167
 31
0.0
  0
LINE
  5
C3D8
  8
0
 10
5026.4131252255383515
 20
266.3832265764373801
 30
0.0
 11
5026.4131252255383515
 21
266.1232987318824144
 31
0.0
  0
LINE
  5
C3D9
  8
0
 10
5026.3331252255366053
 20
267.3032657595804267
 30
0.0
 11
5026.3331252255366053
 21
267.1032595487394019
 31
0.0
  0
LINE
  5
C3DA
  8
0
 10
5026.3331252255366053
 20
266.3532657595804949
 30
0.0
 11
5026.3331252255366053
 21
266.1532595487392996
 31
0.0
  0
LINE
  5
C3DB
  8
0
 10
5026.3212303211366816
 20
267.2920494287923248
 30
0.0
 11
5026.3212303211366816
 21
267.1144758795276175
 31
0.0
  0
LINE
  5
C3DC
  8
0
 10
5026.3212303211366816
 20
266.3420494287922793
 30
0.0
 11
5026.3212303211366816
 21
266.164475879527572
 31
0.0
  0
LINE
  5
C3DD
  8
0
 10
5026.312237398608886
 20
267.2813288410250721
 30
0.0
 11
5026.312237398608886
 21
267.1251964672948134
 31
0.0
  0
LINE
  5
C3DE
  8
0
 10
5026.312237398608886
 20
266.3313288410250834
 30
0.0
 11
5026.312237398608886
 21
266.1751964672948247
 31
0.0
  0
LINE
  5
C3DF
  8
0
 10
5026.5392461526707848
 20
266.2113505614966016
 30
0.0
 11
5026.4131252255383515
 21
266.2239626541598909
 31
0.0
  0
LINE
  5
C3E0
  8
0
 10
5026.483327868172637
 20
266.3645829184736158
 30
0.0
 11
5026.4131252255383515
 21
266.3575626541598922
 31
0.0
  0
LINE
  5
C3E1
  8
0
 10
5026.4833278682453965
 20
267.0919423898891978
 30
0.0
 11
5026.4131252255383515
 21
267.0989626541598909
 31
0.0
  0
LINE
  5
C3E2
  8
0
 10
5026.5392461526480474
 20
267.2451747468909957
 30
0.0
 11
5026.4131252255383515
 21
267.2325626541598922
 31
0.0
  0
LINE
  5
C3E3
  8
0
 10
5026.4891830844371725
 20
267.2401684400599038
 30
0.0
 11
5026.4862484013374342
 21
267.2685915168598854
 31
0.0
  0
LINE
  5
C3E4
  8
0
 10
5026.4862484013374342
 20
267.2685915168598854
 30
0.0
 11
5026.5220973166051408
 21
267.2786493805763257
 31
0.0
  0
ARC
  5
C3E5
  8
0
 10
5026.5922161952357783
 20
266.2907394084601265
 30
0.0
 40
0.2359376027010732
 50
340.9864226701481016
 51
352.6470147841872063
  0
LINE
  5
C3E6
  8
0
 10
5026.8262135682198277
 20
266.2605436835131059
 30
0.0
 11
5026.8115797422469768
 21
266.2620600195514271
 31
0.0
  0
LINE
  5
C3E7
  8
0
 10
5026.8115797422469768
 20
266.2620600195514271
 30
0.0
 11
5026.8133141222288032
 21
266.2862367161769725
 31
0.0
  0
LINE
  5
C3E8
  8
0
 10
5026.8129951709388479
 20
267.171871950235186
 30
0.0
 11
5026.811555404655337
 21
267.1946992016859213
 31
0.0
  0
LINE
  5
C3E9
  8
0
 10
5026.811555404655337
 20
267.1946992016859213
 30
0.0
 11
5026.8261302445698675
 21
267.1966204575729762
 31
0.0
  0
ARC
  5
C3EA
  8
0
 10
5026.5922161851967758
 20
267.1657858973858879
 30
0.0
 40
0.2359376130966299
 50
7.5094356068006016
 51
19.0551717225139008
  0
LINE
  5
C3EB
  8
0
 10
5025.5052546207371051
 20
267.241262654159982
 30
0.0
 11
5025.5652502255370564
 21
267.241262654159982
 31
0.0
  0
LINE
  5
C3EC
  8
0
 10
5025.5652502255370564
 20
267.241262654159982
 30
0.0
 11
5025.5652502255370564
 21
267.178762654159982
 31
0.0
  0
LINE
  5
C3ED
  8
0
 10
5025.5652502255370564
 20
267.178762654159982
 30
0.0
 11
5025.5052546207371051
 21
267.178762654159982
 31
0.0
  0
LINE
  5
C3EE
  8
0
 10
5025.2152458304371976
 20
267.178762654159982
 30
0.0
 11
5025.1552502255372019
 21
267.178762654159982
 31
0.0
  0
LINE
  5
C3EF
  8
0
 10
5025.1552502255372019
 20
267.178762654159982
 30
0.0
 11
5025.1552502255372019
 21
267.241262654159982
 31
0.0
  0
LINE
  5
C3F0
  8
0
 10
5025.1552502255372019
 20
267.241262654159982
 30
0.0
 11
5025.2152502255376021
 21
267.241262654159982
 31
0.0
  0
LINE
  5
C3F1
  8
0
 10
5025.526250225538206
 20
190.9207626539599119
 30
0.0
 11
5025.4000002255379513
 21
190.9207626539599119
 31
0.0
  0
LINE
  5
C3F2
  8
0
 10
5025.3840002255374202
 20
190.936762653959903
 30
0.0
 11
5025.3840002255374202
 21
191.0122626539599082
 31
0.0
  0
LINE
  5
C3F3
  8
0
 10
5025.526250225538206
 20
191.0282626539598994
 30
0.0
 11
5025.4000002255379513
 21
191.0282626539598994
 31
0.0
  0
LINE
  5
C3F4
  8
0
 10
5025.5422502255369182
 20
191.0122626539599082
 30
0.0
 11
5025.5422502255369182
 21
190.936762653959903
 31
0.0
  0
ARC
  5
C3F5
  8
0
 10
5025.526250225538206
 20
191.0122626539599082
 30
0.0
 40
0.016
 50
0.0000000001009635
 51
90.0000000000521254
  0
ARC
  5
C3F6
  8
0
 10
5025.526250225538206
 20
190.9367626539599883
 30
0.0
 40
0.016
 50
269.9999999999478746
 51
359.9999999999478746
  0
ARC
  5
C3F7
  8
0
 10
5025.4000002255379513
 20
190.936762653959903
 30
0.0
 40
0.016
 50
180.0
 51
270.0
  0
ARC
  5
C3F8
  8
0
 10
5025.4000002255379513
 20
191.0122626539599082
 30
0.0
 40
0.016
 50
90.0
 51
179.9999999999739089
  0
LINE
  5
C3F9
  8
0
 10
5025.9020002255383588
 20
190.9207626539599119
 30
0.0
 11
5025.7757502255381041
 21
190.9207626539599119
 31
0.0
  0
LINE
  5
C3FA
  8
0
 10
5025.759750225537573
 20
190.936762653959903
 30
0.0
 11
5025.759750225537573
 21
191.0122626539599082
 31
0.0
  0
LINE
  5
C3FB
  8
0
 10
5025.9020002255383588
 20
191.0282626539598994
 30
0.0
 11
5025.7757502255381041
 21
191.0282626539598994
 31
0.0
  0
LINE
  5
C3FC
  8
0
 10
5025.9180002255370709
 20
191.0122626539599082
 30
0.0
 11
5025.9180002255370709
 21
190.936762653959903
 31
0.0
  0
ARC
  5
C3FD
  8
0
 10
5025.9020002255383588
 20
191.0122626539599082
 30
0.0
 40
0.016
 50
0.0000000001009635
 51
90.0000000000521254
  0
ARC
  5
C3FE
  8
0
 10
5025.9020002255383588
 20
190.9367626539599883
 30
0.0
 40
0.016
 50
269.9999999999478746
 51
359.9999999999478746
  0
ARC
  5
C3FF
  8
0
 10
5025.7757502255381041
 20
190.936762653959903
 30
0.0
 40
0.016
 50
180.0
 51
270.0
  0
ARC
  5
C400
  8
0
 10
5025.7757502255381041
 20
191.0122626539599082
 30
0.0
 40
0.016
 50
90.0
 51
179.9999999999739089
  0
LINE
  5
C401
  8
0
 10
5026.1210002255365907
 20
190.9207626539599119
 30
0.0
 11
5025.9947502255372456
 21
190.9207626539599119
 31
0.0
  0
LINE
  5
C402
  8
0
 10
5025.9787502255367144
 20
190.936762653959903
 30
0.0
 11
5025.9787502255367144
 21
191.0122626539599082
 31
0.0
  0
LINE
  5
C403
  8
0
 10
5026.1210002255365907
 20
191.0282626539598994
 30
0.0
 11
5025.9947502255372456
 21
191.0282626539598994
 31
0.0
  0
LINE
  5
C404
  8
0
 10
5026.1370002255380314
 20
191.0122626539599082
 30
0.0
 11
5026.1370002255380314
 21
190.936762653959903
 31
0.0
  0
ARC
  5
C405
  8
0
 10
5026.1210002255365907
 20
191.0122626539599082
 30
0.0
 40
0.016
 50
0.0000000001009635
 51
90.0000000000521254
  0
ARC
  5
C406
  8
0
 10
5026.1210002255365907
 20
190.9367626539599883
 30
0.0
 40
0.016
 50
269.9999999999478746
 51
359.9999999999478746
  0
ARC
  5
C407
  8
0
 10
5025.9947502255372456
 20
190.936762653959903
 30
0.0
 40
0.016
 50
180.0
 51
270.0
  0
ARC
  5
C408
  8
0
 10
5025.9947502255372456
 20
191.0122626539599082
 30
0.0
 40
0.016
 50
90.0
 51
179.9999999999739089
  0
LINE
  5
C409
  8
0
 10
5028.309250225537653
 20
190.9207626539599119
 30
0.0
 11
5028.1865002255372019
 21
190.9207626539599119
 31
0.0
  0
LINE
  5
C40A
  8
0
 10
5028.1705002255375803
 20
190.936762653959903
 30
0.0
 11
5028.1705002255375803
 21
191.0122626539599082
 31
0.0
  0
LINE
  5
C40B
  8
0
 10
5028.2770002255374493
 20
191.0282626539598994
 30
0.0
 11
5028.1865002255372019
 21
191.0282626539598994
 31
0.0
  0
ARC
  5
C40C
  8
0
 10
5028.1865002255372019
 20
190.936762653959903
 30
0.0
 40
0.016
 50
180.0
 51
270.0
  0
ARC
  5
C40D
  8
0
 10
5028.1865002255372019
 20
191.0122626539599082
 30
0.0
 40
0.016
 50
90.0
 51
179.9999999999739089
  0
LINE
  5
C40E
  8
0
 10
5028.4182502255371219
 20
191.0795126539599949
 30
0.0
 11
5028.3090002255366926
 21
191.0795126539599949
 31
0.0
  0
LINE
  5
C40F
  8
0
 10
5028.4342502255367435
 20
191.06351265395989
 30
0.0
 11
5028.4342502255367435
 21
191.0457626539599971
 31
0.0
  0
LINE
  5
C410
  8
0
 10
5028.2930002255370709
 20
191.06351265395989
 30
0.0
 11
5028.2930002255370709
 21
191.0442626539598905
 31
0.0
  0
ARC
  5
C411
  8
0
 10
5028.4182502255371219
 20
191.06351265395989
 30
0.0
 40
0.016
 50
0.0000000000504818
 51
89.9999999999478888
  0
ARC
  5
C412
  8
0
 10
5028.3090002255366926
 20
191.06351265395989
 30
0.0
 40
0.016
 50
90.0
 51
179.9999999999739089
  0
ARC
  5
C413
  8
0
 10
5028.2770002255374493
 20
191.0442626539598905
 30
0.0
 40
0.016
 50
270.0
 51
359.9999999999234888
  0
ARC
  5
C414
  8
0
 10
5028.309250225537653
 20
191.0457626539599971
 30
0.0
 40
0.125
 50
270.0
 51
0.0000000000032569
  0
LINE
  5
C415
  8
0
 10
5028.4342502255367435
 20
191.31351265395989
 30
0.0
 11
5028.4342502255367435
 21
191.1580126539599007
 31
0.0
  0
LINE
  5
C416
  8
0
 10
5028.2930002255370709
 20
191.31351265395989
 30
0.0
 11
5028.2930002255370709
 21
191.1580126539599007
 31
0.0
  0
LINE
  5
C417
  8
0
 10
5028.4182502255371219
 20
191.1420126539599096
 30
0.0
 11
5028.3090002255366926
 21
191.1420126539599096
 31
0.0
  0
LINE
  5
C418
  8
0
 10
5028.3090002255366926
 20
191.3295126539599096
 30
0.0
 11
5028.4182502255371219
 21
191.3295126539599096
 31
0.0
  0
ARC
  5
C419
  8
0
 10
5028.3090002255366926
 20
191.31351265395989
 30
0.0
 40
0.016
 50
90.0
 51
179.9999999999870113
  0
ARC
  5
C41A
  8
0
 10
5028.4182502255371219
 20
191.31351265395989
 30
0.0
 40
0.016
 50
0.0000000000260551
 51
90.0000000001042082
  0
ARC
  5
C41B
  8
0
 10
5028.4182502255371219
 20
191.1580126539599007
 30
0.0
 40
0.016
 50
270.0
 51
0.0
  0
ARC
  5
C41C
  8
0
 10
5028.3090002255366926
 20
191.1580126539599007
 30
0.0
 40
0.016
 50
179.9999999999870113
 51
270.0
  0
LINE
  5
C41D
  8
0
 10
5026.3400002255375512
 20
190.9207626539599119
 30
0.0
 11
5026.2137502255372965
 21
190.9207626539599119
 31
0.0
  0
LINE
  5
C41E
  8
0
 10
5026.1977502255376749
 20
190.936762653959903
 30
0.0
 11
5026.1977502255376749
 21
191.0122626539599082
 31
0.0
  0
LINE
  5
C41F
  8
0
 10
5026.3400002255375512
 20
191.0282626539598994
 30
0.0
 11
5026.2137502255372965
 21
191.0282626539598994
 31
0.0
  0
LINE
  5
C420
  8
0
 10
5026.3560002255371728
 20
191.0122626539599082
 30
0.0
 11
5026.3560002255371728
 21
190.936762653959903
 31
0.0
  0
ARC
  5
C421
  8
0
 10
5026.3400002255375512
 20
191.0122626539599082
 30
0.0
 40
0.016
 50
0.0000000001009635
 51
90.0000000000521254
  0
ARC
  5
C422
  8
0
 10
5026.3400002255375512
 20
190.9367626539599883
 30
0.0
 40
0.016
 50
269.9999999999478746
 51
359.9999999999478746
  0
ARC
  5
C423
  8
0
 10
5026.2137502255372965
 20
190.936762653959903
 30
0.0
 40
0.016
 50
180.0
 51
270.0
  0
ARC
  5
C424
  8
0
 10
5026.2137502255372965
 20
191.0122626539599082
 30
0.0
 40
0.016
 50
90.0
 51
179.9999999999739089
  0
LINE
  5
C425
  8
0
 10
5026.5590002255376021
 20
190.9207626539599119
 30
0.0
 11
5026.4327502255382569
 21
190.9207626539599119
 31
0.0
  0
LINE
  5
C426
  8
0
 10
5026.4167502255368163
 20
190.936762653959903
 30
0.0
 11
5026.4167502255368163
 21
191.0122626539599082
 31
0.0
  0
LINE
  5
C427
  8
0
 10
5026.5590002255376021
 20
191.0282626539598994
 30
0.0
 11
5026.4327502255382569
 21
191.0282626539598994
 31
0.0
  0
LINE
  5
C428
  8
0
 10
5026.5750002255381332
 20
191.0122626539599082
 30
0.0
 11
5026.5750002255381332
 21
190.936762653959903
 31
0.0
  0
ARC
  5
C429
  8
0
 10
5026.5590002255376021
 20
191.0122626539599082
 30
0.0
 40
0.016
 50
0.0000000001009635
 51
90.0000000000521254
  0
ARC
  5
C42A
  8
0
 10
5026.5590002255376021
 20
190.9367626539599883
 30
0.0
 40
0.016
 50
269.9999999999478746
 51
359.9999999999478746
  0
ARC
  5
C42B
  8
0
 10
5026.4327502255382569
 20
190.936762653959903
 30
0.0
 40
0.016
 50
180.0
 51
270.0
  0
ARC
  5
C42C
  8
0
 10
5026.4327502255382569
 20
191.0122626539599082
 30
0.0
 40
0.016
 50
90.0
 51
179.9999999999739089
  0
LINE
  5
C42D
  8
0
 10
5026.778000225537653
 20
190.9207626539599119
 30
0.0
 11
5026.6517502255373984
 21
190.9207626539599119
 31
0.0
  0
LINE
  5
C42E
  8
0
 10
5026.6357502255377767
 20
190.936762653959903
 30
0.0
 11
5026.6357502255377767
 21
191.0122626539599082
 31
0.0
  0
LINE
  5
C42F
  8
0
 10
5026.778000225537653
 20
191.0282626539598994
 30
0.0
 11
5026.6517502255373984
 21
191.0282626539598994
 31
0.0
  0
LINE
  5
C430
  8
0
 10
5026.7940002255372747
 20
191.0122626539599082
 30
0.0
 11
5026.7940002255372747
 21
190.936762653959903
 31
0.0
  0
ARC
  5
C431
  8
0
 10
5026.778000225537653
 20
191.0122626539599082
 30
0.0
 40
0.016
 50
0.0000000001009635
 51
90.0000000000521254
  0
ARC
  5
C432
  8
0
 10
5026.778000225537653
 20
190.9367626539599883
 30
0.0
 40
0.016
 50
269.9999999999478746
 51
359.9999999999478746
  0
ARC
  5
C433
  8
0
 10
5026.6517502255373984
 20
190.936762653959903
 30
0.0
 40
0.016
 50
180.0
 51
270.0
  0
ARC
  5
C434
  8
0
 10
5026.6517502255373984
 20
191.0122626539599082
 30
0.0
 40
0.016
 50
90.0
 51
179.9999999999739089
  0
LINE
  5
C435
  8
0
 10
5026.997000225537704
 20
190.9207626539599119
 30
0.0
 11
5026.8707502255374493
 21
190.9207626539599119
 31
0.0
  0
LINE
  5
C436
  8
0
 10
5026.8547502255378276
 20
190.936762653959903
 30
0.0
 11
5026.8547502255378276
 21
191.0122626539599082
 31
0.0
  0
LINE
  5
C437
  8
0
 10
5026.997000225537704
 20
191.0282626539598994
 30
0.0
 11
5026.8707502255374493
 21
191.0282626539598994
 31
0.0
  0
LINE
  5
C438
  8
0
 10
5027.0130002255373256
 20
191.0122626539599082
 30
0.0
 11
5027.0130002255373256
 21
190.936762653959903
 31
0.0
  0
ARC
  5
C439
  8
0
 10
5026.997000225537704
 20
191.0122626539599082
 30
0.0
 40
0.016
 50
0.0000000001009635
 51
90.0000000000521254
  0
ARC
  5
C43A
  8
0
 10
5026.997000225537704
 20
190.9367626539599883
 30
0.0
 40
0.016
 50
269.9999999999478746
 51
359.9999999999478746
  0
ARC
  5
C43B
  8
0
 10
5026.8707502255374493
 20
190.936762653959903
 30
0.0
 40
0.016
 50
180.0
 51
270.0
  0
ARC
  5
C43C
  8
0
 10
5026.8707502255374493
 20
191.0122626539599082
 30
0.0
 40
0.016
 50
90.0
 51
179.9999999999739089
  0
LINE
  5
C43D
  8
0
 10
5027.2160002255368454
 20
190.9207626539599119
 30
0.0
 11
5027.0897502255365907
 21
190.9207626539599119
 31
0.0
  0
LINE
  5
C43E
  8
0
 10
5027.0737502255378786
 20
190.936762653959903
 30
0.0
 11
5027.0737502255378786
 21
191.0122626539599082
 31
0.0
  0
LINE
  5
C43F
  8
0
 10
5027.2160002255368454
 20
191.0282626539598994
 30
0.0
 11
5027.0897502255365907
 21
191.0282626539598994
 31
0.0
  0
LINE
  5
C440
  8
0
 10
5027.232000225538286
 20
191.0122626539599082
 30
0.0
 11
5027.232000225538286
 21
190.936762653959903
 31
0.0
  0
ARC
  5
C441
  8
0
 10
5027.2160002255368454
 20
191.0122626539599082
 30
0.0
 40
0.016
 50
0.0000000001009635
 51
90.0000000000521254
  0
ARC
  5
C442
  8
0
 10
5027.2160002255368454
 20
190.9367626539599883
 30
0.0
 40
0.016
 50
269.9999999999478746
 51
359.9999999999478746
  0
ARC
  5
C443
  8
0
 10
5027.0897502255365907
 20
190.936762653959903
 30
0.0
 40
0.016
 50
180.0
 51
270.0
  0
ARC
  5
C444
  8
0
 10
5027.0897502255365907
 20
191.0122626539599082
 30
0.0
 40
0.016
 50
90.0
 51
179.9999999999739089
  0
LINE
  5
C445
  8
0
 10
5027.4350002255378058
 20
190.9207626539599119
 30
0.0
 11
5027.3087502255375512
 21
190.9207626539599119
 31
0.0
  0
LINE
  5
C446
  8
0
 10
5027.29275022553702
 20
190.936762653959903
 30
0.0
 11
5027.29275022553702
 21
191.0122626539599082
 31
0.0
  0
LINE
  5
C447
  8
0
 10
5027.4350002255378058
 20
191.0282626539598994
 30
0.0
 11
5027.3087502255375512
 21
191.0282626539598994
 31
0.0
  0
LINE
  5
C448
  8
0
 10
5027.4510002255374275
 20
191.0122626539599082
 30
0.0
 11
5027.4510002255374275
 21
190.936762653959903
 31
0.0
  0
ARC
  5
C449
  8
0
 10
5027.4350002255378058
 20
191.0122626539599082
 30
0.0
 40
0.016
 50
0.0000000001009635
 51
90.0000000000521254
  0
ARC
  5
C44A
  8
0
 10
5027.4350002255378058
 20
190.9367626539599883
 30
0.0
 40
0.016
 50
269.9999999999478746
 51
359.9999999999478746
  0
ARC
  5
C44B
  8
0
 10
5027.3087502255375512
 20
190.936762653959903
 30
0.0
 40
0.016
 50
180.0
 51
270.0
  0
ARC
  5
C44C
  8
0
 10
5027.3087502255375512
 20
191.0122626539599082
 30
0.0
 40
0.016
 50
90.0
 51
179.9999999999739089
  0
LINE
  5
C44D
  8
0
 10
5027.6540002255369473
 20
190.9207626539599119
 30
0.0
 11
5027.5277502255366926
 21
190.9207626539599119
 31
0.0
  0
LINE
  5
C44E
  8
0
 10
5027.5117502255370709
 20
190.936762653959903
 30
0.0
 11
5027.5117502255370709
 21
191.0122626539599082
 31
0.0
  0
LINE
  5
C44F
  8
0
 10
5027.6540002255369473
 20
191.0282626539598994
 30
0.0
 11
5027.5277502255366926
 21
191.0282626539598994
 31
0.0
  0
LINE
  5
C450
  8
0
 10
5027.6700002255365689
 20
191.0122626539599082
 30
0.0
 11
5027.6700002255365689
 21
190.936762653959903
 31
0.0
  0
ARC
  5
C451
  8
0
 10
5027.6540002255369473
 20
191.0122626539599082
 30
0.0
 40
0.016
 50
0.0000000001009635
 51
90.0000000000521254
  0
ARC
  5
C452
  8
0
 10
5027.6540002255369473
 20
190.9367626539599883
 30
0.0
 40
0.016
 50
269.9999999999478746
 51
359.9999999999478746
  0
ARC
  5
C453
  8
0
 10
5027.5277502255366926
 20
190.936762653959903
 30
0.0
 40
0.016
 50
180.0
 51
270.0
  0
ARC
  5
C454
  8
0
 10
5027.5277502255366926
 20
191.0122626539599082
 30
0.0
 40
0.016
 50
90.0
 51
179.9999999999739089
  0
LINE
  5
C455
  8
0
 10
5027.8730002255369982
 20
190.9207626539599119
 30
0.0
 11
5027.7467502255367435
 21
190.9207626539599119
 31
0.0
  0
LINE
  5
C456
  8
0
 10
5027.7307502255371219
 20
190.936762653959903
 30
0.0
 11
5027.7307502255371219
 21
191.0122626539599082
 31
0.0
  0
LINE
  5
C457
  8
0
 10
5027.8730002255369982
 20
191.0282626539598994
 30
0.0
 11
5027.7467502255367435
 21
191.0282626539598994
 31
0.0
  0
LINE
  5
C458
  8
0
 10
5027.8890002255357103
 20
191.0122626539599082
 30
0.0
 11
5027.8890002255357103
 21
190.936762653959903
 31
0.0
  0
ARC
  5
C459
  8
0
 10
5027.8730002255369982
 20
191.0122626539599082
 30
0.0
 40
0.016
 50
0.0000000001009635
 51
90.0000000000521254
  0
ARC
  5
C45A
  8
0
 10
5027.8730002255369982
 20
190.9367626539599883
 30
0.0
 40
0.016
 50
269.9999999999478746
 51
359.9999999999478746
  0
ARC
  5
C45B
  8
0
 10
5027.7467502255367435
 20
190.936762653959903
 30
0.0
 40
0.016
 50
180.0
 51
270.0
  0
ARC
  5
C45C
  8
0
 10
5027.7467502255367435
 20
191.0122626539599082
 30
0.0
 40
0.016
 50
90.0
 51
179.9999999999739089
  0
LINE
  5
C45D
  8
0
 10
5028.0920002255370491
 20
190.9207626539599119
 30
0.0
 11
5027.965750225535885
 21
190.9207626539599119
 31
0.0
  0
LINE
  5
C45E
  8
0
 10
5027.9497502255380823
 20
190.936762653959903
 30
0.0
 11
5027.9497502255380823
 21
191.0122626539599082
 31
0.0
  0
LINE
  5
C45F
  8
0
 10
5028.0920002255370491
 20
191.0282626539598994
 30
0.0
 11
5027.965750225535885
 21
191.0282626539598994
 31
0.0
  0
LINE
  5
C460
  8
0
 10
5028.1080002255357613
 20
191.0122626539599082
 30
0.0
 11
5028.1080002255357613
 21
190.936762653959903
 31
0.0
  0
ARC
  5
C461
  8
0
 10
5028.0920002255370491
 20
191.0122626539599082
 30
0.0
 40
0.016
 50
0.0000000001009635
 51
90.0000000000521254
  0
ARC
  5
C462
  8
0
 10
5028.0920002255370491
 20
190.9367626539599883
 30
0.0
 40
0.016
 50
269.9999999999478746
 51
359.9999999999478746
  0
ARC
  5
C463
  8
0
 10
5027.965750225535885
 20
190.936762653959903
 30
0.0
 40
0.016
 50
180.0
 51
270.0
  0
ARC
  5
C464
  8
0
 10
5027.965750225535885
 20
191.0122626539599082
 30
0.0
 40
0.016
 50
90.0
 51
179.9999999999739089
  0
LINE
  5
C465
  8
0
 10
5025.526250225538206
 20
191.8007626540598949
 30
0.0
 11
5025.4000002255379513
 21
191.8007626540598949
 31
0.0
  0
LINE
  5
C466
  8
0
 10
5025.3840002255374202
 20
191.7847626540599038
 30
0.0
 11
5025.3840002255374202
 21
191.7092626540598985
 31
0.0
  0
LINE
  5
C467
  8
0
 10
5025.526250225538206
 20
191.6932626540599074
 30
0.0
 11
5025.4000002255379513
 21
191.6932626540599074
 31
0.0
  0
LINE
  5
C468
  8
0
 10
5025.5422502255369182
 20
191.7092626540598985
 30
0.0
 11
5025.5422502255369182
 21
191.7847626540599038
 31
0.0
  0
ARC
  5
C469
  8
0
 10
5025.526250225538206
 20
191.7092626540598985
 30
0.0
 40
0.016
 50
269.9999999999478746
 51
359.9999999998991029
  0
ARC
  5
C46A
  8
0
 10
5025.526250225538206
 20
191.7847626540599038
 30
0.0
 40
0.016
 50
0.0000000000521102
 51
90.0000000000521254
  0
ARC
  5
C46B
  8
0
 10
5025.4000002255379513
 20
191.7847626540599038
 30
0.0
 40
0.016
 50
90.0
 51
180.0
  0
ARC
  5
C46C
  8
0
 10
5025.4000002255379513
 20
191.7092626540598985
 30
0.0
 40
0.016
 50
180.0000000000260059
 51
270.0
  0
LINE
  5
C46D
  8
0
 10
5025.9020002255383588
 20
191.8007626540598949
 30
0.0
 11
5025.7757502255381041
 21
191.8007626540598949
 31
0.0
  0
LINE
  5
C46E
  8
0
 10
5025.759750225537573
 20
191.7847626540599038
 30
0.0
 11
5025.759750225537573
 21
191.7092626540598985
 31
0.0
  0
LINE
  5
C46F
  8
0
 10
5025.9020002255383588
 20
191.6932626540599074
 30
0.0
 11
5025.7757502255381041
 21
191.6932626540599074
 31
0.0
  0
LINE
  5
C470
  8
0
 10
5025.9180002255370709
 20
191.7092626540598985
 30
0.0
 11
5025.9180002255370709
 21
191.7847626540599038
 31
0.0
  0
ARC
  5
C471
  8
0
 10
5025.9020002255383588
 20
191.7092626540598985
 30
0.0
 40
0.016
 50
269.9999999999478746
 51
359.9999999998991029
  0
ARC
  5
C472
  8
0
 10
5025.9020002255383588
 20
191.7847626540599038
 30
0.0
 40
0.016
 50
0.0000000000521102
 51
90.0000000000521254
  0
ARC
  5
C473
  8
0
 10
5025.7757502255381041
 20
191.7847626540599038
 30
0.0
 40
0.016
 50
90.0
 51
180.0
  0
ARC
  5
C474
  8
0
 10
5025.7757502255381041
 20
191.7092626540598985
 30
0.0
 40
0.016
 50
180.0000000000260059
 51
270.0
  0
LINE
  5
C475
  8
0
 10
5026.1210002255365907
 20
191.8007626540598949
 30
0.0
 11
5025.9947502255372456
 21
191.8007626540598949
 31
0.0
  0
LINE
  5
C476
  8
0
 10
5025.9787502255367144
 20
191.7847626540599038
 30
0.0
 11
5025.9787502255367144
 21
191.7092626540598985
 31
0.0
  0
LINE
  5
C477
  8
0
 10
5026.1210002255365907
 20
191.6932626540599074
 30
0.0
 11
5025.9947502255372456
 21
191.6932626540599074
 31
0.0
  0
LINE
  5
C478
  8
0
 10
5026.1370002255380314
 20
191.7092626540598985
 30
0.0
 11
5026.1370002255380314
 21
191.7847626540599038
 31
0.0
  0
ARC
  5
C479
  8
0
 10
5026.1210002255365907
 20
191.7092626540598985
 30
0.0
 40
0.016
 50
269.9999999999478746
 51
359.9999999998991029
  0
ARC
  5
C47A
  8
0
 10
5026.1210002255365907
 20
191.7847626540599038
 30
0.0
 40
0.016
 50
0.0000000000521102
 51
90.0000000000521254
  0
ARC
  5
C47B
  8
0
 10
5025.9947502255372456
 20
191.7847626540599038
 30
0.0
 40
0.016
 50
90.0
 51
180.0
  0
ARC
  5
C47C
  8
0
 10
5025.9947502255372456
 20
191.7092626540598985
 30
0.0
 40
0.016
 50
180.0000000000260059
 51
270.0
  0
LINE
  5
C47D
  8
0
 10
5028.309250225537653
 20
191.8007626540598949
 30
0.0
 11
5028.1865002255372019
 21
191.8007626540598949
 31
0.0
  0
LINE
  5
C47E
  8
0
 10
5028.1705002255375803
 20
191.7847626540599038
 30
0.0
 11
5028.1705002255375803
 21
191.7092626540598985
 31
0.0
  0
LINE
  5
C47F
  8
0
 10
5028.2770002255374493
 20
191.6932626540599074
 30
0.0
 11
5028.1865002255372019
 21
191.6932626540599074
 31
0.0
  0
ARC
  5
C480
  8
0
 10
5028.1865002255372019
 20
191.7847626540599038
 30
0.0
 40
0.016
 50
90.0
 51
180.0
  0
ARC
  5
C481
  8
0
 10
5028.1865002255372019
 20
191.7092626540598985
 30
0.0
 40
0.016
 50
180.0000000000260059
 51
270.0
  0
LINE
  5
C482
  8
0
 10
5028.4182502255371219
 20
191.6420126540598972
 30
0.0
 11
5028.3090002255366926
 21
191.6420126540598972
 31
0.0
  0
LINE
  5
C483
  8
0
 10
5028.4342502255367435
 20
191.6580126540598883
 30
0.0
 11
5028.4342502255367435
 21
191.6757626540598949
 31
0.0
  0
LINE
  5
C484
  8
0
 10
5028.2930002255370709
 20
191.6580126540598883
 30
0.0
 11
5028.2930002255370709
 21
191.6772626540598878
 31
0.0
  0
ARC
  5
C485
  8
0
 10
5028.4182502255371219
 20
191.6580126540598883
 30
0.0
 40
0.016
 50
270.0000000000521254
 51
359.999999999949523
  0
ARC
  5
C486
  8
0
 10
5028.3090002255366926
 20
191.6580126540598883
 30
0.0
 40
0.016
 50
180.0000000000260059
 51
270.0
  0
ARC
  5
C487
  8
0
 10
5028.2770002255374493
 20
191.6772626540598878
 30
0.0
 40
0.016
 50
0.0000000000765369
 51
90.0
  0
ARC
  5
C488
  8
0
 10
5028.309250225537653
 20
191.6757626540598949
 30
0.0
 40
0.125
 50
359.9999999999968168
 51
90.0
  0
LINE
  5
C489
  8
0
 10
5028.4342502255367435
 20
191.4080126540598883
 30
0.0
 11
5028.4342502255367435
 21
191.563512654059906
 31
0.0
  0
LINE
  5
C48A
  8
0
 10
5028.2930002255370709
 20
191.4080126540598883
 30
0.0
 11
5028.2930002255370709
 21
191.563512654059906
 31
0.0
  0
LINE
  5
C48B
  8
0
 10
5028.4182502255371219
 20
191.5795126540598972
 30
0.0
 11
5028.3090002255366926
 21
191.5795126540598972
 31
0.0
  0
LINE
  5
C48C
  8
0
 10
5028.3090002255366926
 20
191.3920126540598972
 30
0.0
 11
5028.4182502255371219
 21
191.3920126540598972
 31
0.0
  0
ARC
  5
C48D
  8
0
 10
5028.3090002255366926
 20
191.4080126540598883
 30
0.0
 40
0.016
 50
180.0000000000129887
 51
270.0
  0
ARC
  5
C48E
  8
0
 10
5028.4182502255371219
 20
191.4080126540598883
 30
0.0
 40
0.016
 50
269.999999999895806
 51
359.9999999999740226
  0
ARC
  5
C48F
  8
0
 10
5028.4182502255371219
 20
191.563512654059906
 30
0.0
 40
0.016
 50
0.0
 51
90.0
  0
ARC
  5
C490
  8
0
 10
5028.3090002255366926
 20
191.563512654059906
 30
0.0
 40
0.016
 50
90.0
 51
180.0000000000129887
  0
LINE
  5
C491
  8
0
 10
5026.3400002255375512
 20
191.8007626540598949
 30
0.0
 11
5026.2137502255372965
 21
191.8007626540598949
 31
0.0
  0
LINE
  5
C492
  8
0
 10
5026.1977502255376749
 20
191.7847626540599038
 30
0.0
 11
5026.1977502255376749
 21
191.7092626540598985
 31
0.0
  0
LINE
  5
C493
  8
0
 10
5026.3400002255375512
 20
191.6932626540599074
 30
0.0
 11
5026.2137502255372965
 21
191.6932626540599074
 31
0.0
  0
LINE
  5
C494
  8
0
 10
5026.3560002255371728
 20
191.7092626540598985
 30
0.0
 11
5026.3560002255371728
 21
191.7847626540599038
 31
0.0
  0
ARC
  5
C495
  8
0
 10
5026.3400002255375512
 20
191.7092626540598985
 30
0.0
 40
0.016
 50
269.9999999999478746
 51
359.9999999998991029
  0
ARC
  5
C496
  8
0
 10
5026.3400002255375512
 20
191.7847626540599038
 30
0.0
 40
0.016
 50
0.0000000000521102
 51
90.0000000000521254
  0
ARC
  5
C497
  8
0
 10
5026.2137502255372965
 20
191.7847626540599038
 30
0.0
 40
0.016
 50
90.0
 51
180.0
  0
ARC
  5
C498
  8
0
 10
5026.2137502255372965
 20
191.7092626540598985
 30
0.0
 40
0.016
 50
180.0000000000260059
 51
270.0
  0
LINE
  5
C499
  8
0
 10
5026.5590002255376021
 20
191.8007626540598949
 30
0.0
 11
5026.4327502255382569
 21
191.8007626540598949
 31
0.0
  0
LINE
  5
C49A
  8
0
 10
5026.4167502255368163
 20
191.7847626540599038
 30
0.0
 11
5026.4167502255368163
 21
191.7092626540598985
 31
0.0
  0
LINE
  5
C49B
  8
0
 10
5026.5590002255376021
 20
191.6932626540599074
 30
0.0
 11
5026.4327502255382569
 21
191.6932626540599074
 31
0.0
  0
LINE
  5
C49C
  8
0
 10
5026.5750002255381332
 20
191.7092626540598985
 30
0.0
 11
5026.5750002255381332
 21
191.7847626540599038
 31
0.0
  0
ARC
  5
C49D
  8
0
 10
5026.5590002255376021
 20
191.7092626540598985
 30
0.0
 40
0.016
 50
269.9999999999478746
 51
359.9999999998991029
  0
ARC
  5
C49E
  8
0
 10
5026.5590002255376021
 20
191.7847626540599038
 30
0.0
 40
0.016
 50
0.0000000000521102
 51
90.0000000000521254
  0
ARC
  5
C49F
  8
0
 10
5026.4327502255382569
 20
191.7847626540599038
 30
0.0
 40
0.016
 50
90.0
 51
180.0
  0
ARC
  5
C4A0
  8
0
 10
5026.4327502255382569
 20
191.7092626540598985
 30
0.0
 40
0.016
 50
180.0000000000260059
 51
270.0
  0
LINE
  5
C4A1
  8
0
 10
5026.778000225537653
 20
191.8007626540598949
 30
0.0
 11
5026.6517502255373984
 21
191.8007626540598949
 31
0.0
  0
LINE
  5
C4A2
  8
0
 10
5026.6357502255377767
 20
191.7847626540599038
 30
0.0
 11
5026.6357502255377767
 21
191.7092626540598985
 31
0.0
  0
LINE
  5
C4A3
  8
0
 10
5026.778000225537653
 20
191.6932626540599074
 30
0.0
 11
5026.6517502255373984
 21
191.6932626540599074
 31
0.0
  0
LINE
  5
C4A4
  8
0
 10
5026.7940002255372747
 20
191.7092626540598985
 30
0.0
 11
5026.7940002255372747
 21
191.7847626540599038
 31
0.0
  0
ARC
  5
C4A5
  8
0
 10
5026.778000225537653
 20
191.7092626540598985
 30
0.0
 40
0.016
 50
269.9999999999478746
 51
359.9999999998991029
  0
ARC
  5
C4A6
  8
0
 10
5026.778000225537653
 20
191.7847626540599038
 30
0.0
 40
0.016
 50
0.0000000000521102
 51
90.0000000000521254
  0
ARC
  5
C4A7
  8
0
 10
5026.6517502255373984
 20
191.7847626540599038
 30
0.0
 40
0.016
 50
90.0
 51
180.0
  0
ARC
  5
C4A8
  8
0
 10
5026.6517502255373984
 20
191.7092626540598985
 30
0.0
 40
0.016
 50
180.0000000000260059
 51
270.0
  0
LINE
  5
C4A9
  8
0
 10
5026.997000225537704
 20
191.8007626540598949
 30
0.0
 11
5026.8707502255374493
 21
191.8007626540598949
 31
0.0
  0
LINE
  5
C4AA
  8
0
 10
5026.8547502255378276
 20
191.7847626540599038
 30
0.0
 11
5026.8547502255378276
 21
191.7092626540598985
 31
0.0
  0
LINE
  5
C4AB
  8
0
 10
5026.997000225537704
 20
191.6932626540599074
 30
0.0
 11
5026.8707502255374493
 21
191.6932626540599074
 31
0.0
  0
LINE
  5
C4AC
  8
0
 10
5027.0130002255373256
 20
191.7092626540598985
 30
0.0
 11
5027.0130002255373256
 21
191.7847626540599038
 31
0.0
  0
ARC
  5
C4AD
  8
0
 10
5026.997000225537704
 20
191.7092626540598985
 30
0.0
 40
0.016
 50
269.9999999999478746
 51
359.9999999998991029
  0
ARC
  5
C4AE
  8
0
 10
5026.997000225537704
 20
191.7847626540599038
 30
0.0
 40
0.016
 50
0.0000000000521102
 51
90.0000000000521254
  0
ARC
  5
C4AF
  8
0
 10
5026.8707502255374493
 20
191.7847626540599038
 30
0.0
 40
0.016
 50
90.0
 51
180.0
  0
ARC
  5
C4B0
  8
0
 10
5026.8707502255374493
 20
191.7092626540598985
 30
0.0
 40
0.016
 50
180.0000000000260059
 51
270.0
  0
LINE
  5
C4B1
  8
0
 10
5027.2160002255368454
 20
191.8007626540598949
 30
0.0
 11
5027.0897502255365907
 21
191.8007626540598949
 31
0.0
  0
LINE
  5
C4B2
  8
0
 10
5027.0737502255378786
 20
191.7847626540599038
 30
0.0
 11
5027.0737502255378786
 21
191.7092626540598985
 31
0.0
  0
LINE
  5
C4B3
  8
0
 10
5027.2160002255368454
 20
191.6932626540599074
 30
0.0
 11
5027.0897502255365907
 21
191.6932626540599074
 31
0.0
  0
LINE
  5
C4B4
  8
0
 10
5027.232000225538286
 20
191.7092626540598985
 30
0.0
 11
5027.232000225538286
 21
191.7847626540599038
 31
0.0
  0
ARC
  5
C4B5
  8
0
 10
5027.2160002255368454
 20
191.7092626540598985
 30
0.0
 40
0.016
 50
269.9999999999478746
 51
359.9999999998991029
  0
ARC
  5
C4B6
  8
0
 10
5027.2160002255368454
 20
191.7847626540599038
 30
0.0
 40
0.016
 50
0.0000000000521102
 51
90.0000000000521254
  0
ARC
  5
C4B7
  8
0
 10
5027.0897502255365907
 20
191.7847626540599038
 30
0.0
 40
0.016
 50
90.0
 51
180.0
  0
ARC
  5
C4B8
  8
0
 10
5027.0897502255365907
 20
191.7092626540598985
 30
0.0
 40
0.016
 50
180.0000000000260059
 51
270.0
  0
LINE
  5
C4B9
  8
0
 10
5027.4350002255378058
 20
191.8007626540598949
 30
0.0
 11
5027.3087502255375512
 21
191.8007626540598949
 31
0.0
  0
LINE
  5
C4BA
  8
0
 10
5027.29275022553702
 20
191.7847626540599038
 30
0.0
 11
5027.29275022553702
 21
191.7092626540598985
 31
0.0
  0
LINE
  5
C4BB
  8
0
 10
5027.4350002255378058
 20
191.6932626540599074
 30
0.0
 11
5027.3087502255375512
 21
191.6932626540599074
 31
0.0
  0
LINE
  5
C4BC
  8
0
 10
5027.4510002255374275
 20
191.7092626540598985
 30
0.0
 11
5027.4510002255374275
 21
191.7847626540599038
 31
0.0
  0
ARC
  5
C4BD
  8
0
 10
5027.4350002255378058
 20
191.7092626540598985
 30
0.0
 40
0.016
 50
269.9999999999478746
 51
359.9999999998991029
  0
ARC
  5
C4BE
  8
0
 10
5027.4350002255378058
 20
191.7847626540599038
 30
0.0
 40
0.016
 50
0.0000000000521102
 51
90.0000000000521254
  0
ARC
  5
C4BF
  8
0
 10
5027.3087502255375512
 20
191.7847626540599038
 30
0.0
 40
0.016
 50
90.0
 51
180.0
  0
ARC
  5
C4C0
  8
0
 10
5027.3087502255375512
 20
191.7092626540598985
 30
0.0
 40
0.016
 50
180.0000000000260059
 51
270.0
  0
LINE
  5
C4C1
  8
0
 10
5027.6540002255369473
 20
191.8007626540598949
 30
0.0
 11
5027.5277502255366926
 21
191.8007626540598949
 31
0.0
  0
LINE
  5
C4C2
  8
0
 10
5027.5117502255370709
 20
191.7847626540599038
 30
0.0
 11
5027.5117502255370709
 21
191.7092626540598985
 31
0.0
  0
LINE
  5
C4C3
  8
0
 10
5027.6540002255369473
 20
191.6932626540599074
 30
0.0
 11
5027.5277502255366926
 21
191.6932626540599074
 31
0.0
  0
LINE
  5
C4C4
  8
0
 10
5027.6700002255365689
 20
191.7092626540598985
 30
0.0
 11
5027.6700002255365689
 21
191.7847626540599038
 31
0.0
  0
ARC
  5
C4C5
  8
0
 10
5027.6540002255369473
 20
191.7092626540598985
 30
0.0
 40
0.016
 50
269.9999999999478746
 51
359.9999999998991029
  0
ARC
  5
C4C6
  8
0
 10
5027.6540002255369473
 20
191.7847626540599038
 30
0.0
 40
0.016
 50
0.0000000000521102
 51
90.0000000000521254
  0
ARC
  5
C4C7
  8
0
 10
5027.5277502255366926
 20
191.7847626540599038
 30
0.0
 40
0.016
 50
90.0
 51
180.0
  0
ARC
  5
C4C8
  8
0
 10
5027.5277502255366926
 20
191.7092626540598985
 30
0.0
 40
0.016
 50
180.0000000000260059
 51
270.0
  0
LINE
  5
C4C9
  8
0
 10
5027.8730002255369982
 20
191.8007626540598949
 30
0.0
 11
5027.7467502255367435
 21
191.8007626540598949
 31
0.0
  0
LINE
  5
C4CA
  8
0
 10
5027.7307502255371219
 20
191.7847626540599038
 30
0.0
 11
5027.7307502255371219
 21
191.7092626540598985
 31
0.0
  0
LINE
  5
C4CB
  8
0
 10
5027.8730002255369982
 20
191.6932626540599074
 30
0.0
 11
5027.7467502255367435
 21
191.6932626540599074
 31
0.0
  0
LINE
  5
C4CC
  8
0
 10
5027.8890002255357103
 20
191.7092626540598985
 30
0.0
 11
5027.8890002255357103
 21
191.7847626540599038
 31
0.0
  0
ARC
  5
C4CD
  8
0
 10
5027.8730002255369982
 20
191.7092626540598985
 30
0.0
 40
0.016
 50
269.9999999999478746
 51
359.9999999998991029
  0
ARC
  5
C4CE
  8
0
 10
5027.8730002255369982
 20
191.7847626540599038
 30
0.0
 40
0.016
 50
0.0000000000521102
 51
90.0000000000521254
  0
ARC
  5
C4CF
  8
0
 10
5027.7467502255367435
 20
191.7847626540599038
 30
0.0
 40
0.016
 50
90.0
 51
180.0
  0
ARC
  5
C4D0
  8
0
 10
5027.7467502255367435
 20
191.7092626540598985
 30
0.0
 40
0.016
 50
180.0000000000260059
 51
270.0
  0
LINE
  5
C4D1
  8
0
 10
5028.0920002255370491
 20
191.8007626540598949
 30
0.0
 11
5027.965750225535885
 21
191.8007626540598949
 31
0.0
  0
LINE
  5
C4D2
  8
0
 10
5027.9497502255380823
 20
191.7847626540599038
 30
0.0
 11
5027.9497502255380823
 21
191.7092626540598985
 31
0.0
  0
LINE
  5
C4D3
  8
0
 10
5028.0920002255370491
 20
191.6932626540599074
 30
0.0
 11
5027.965750225535885
 21
191.6932626540599074
 31
0.0
  0
LINE
  5
C4D4
  8
0
 10
5028.1080002255357613
 20
191.7092626540598985
 30
0.0
 11
5028.1080002255357613
 21
191.7847626540599038
 31
0.0
  0
ARC
  5
C4D5
  8
0
 10
5028.0920002255370491
 20
191.7092626540598985
 30
0.0
 40
0.016
 50
269.9999999999478746
 51
359.9999999998991029
  0
ARC
  5
C4D6
  8
0
 10
5028.0920002255370491
 20
191.7847626540599038
 30
0.0
 40
0.016
 50
0.0000000000521102
 51
90.0000000000521254
  0
ARC
  5
C4D7
  8
0
 10
5027.965750225535885
 20
191.7847626540599038
 30
0.0
 40
0.016
 50
90.0
 51
180.0
  0
ARC
  5
C4D8
  8
0
 10
5027.965750225535885
 20
191.7092626540598985
 30
0.0
 40
0.016
 50
180.0000000000260059
 51
270.0
  0
CIRCLE
  5
C4D9
  8
0
 10
5025.3602502256371736
 20
261.465262654059984
 30
0.0
 40
0.0944999999999965
  0
LINE
  5
C4DA
  8
0
 10
5027.4365970730368645
 20
189.9918068038599017
 30
0.0
 11
5027.3945136123684279
 21
190.7948070688360076
 31
0.0
  0
LINE
  5
C4DB
  8
0
 10
5027.392989133762967
 20
190.8238958534599021
 30
0.0
 11
5027.3929867732049388
 21
190.823940895598696
 31
0.0
  0
ARC
  5
C4DC
  8
0
 10
5027.5224792130247806
 20
189.9963076960987109
 30
0.0
 40
0.086
 50
183.0000000012707062
 51
270.0
  0
LINE
  5
C4DD
  8
0
 10
5027.5231828845371638
 20
190.5801825558598921
 30
0.0
 11
5027.5231828845371638
 21
190.8238958534599021
 31
0.0
  0
LINE
  5
C4DE
  8
0
 10
5027.5231828845371638
 20
268.1899105063563979
 30
0.0
 11
5027.5231828845371638
 21
271.3531825559599042
 31
0.0
  0
LINE
  5
C4DF
  8
0
 10
5027.9031828845372729
 20
190.5801825558598921
 30
0.0
 11
5027.9031828845372729
 21
190.8238958534599021
 31
0.0
  0
LINE
  5
C4E0
  8
0
 10
5027.9031828845372729
 20
191.8976294545599046
 30
0.0
 11
5027.9031828845372729
 21
271.3531825559599042
 31
0.0
  0
LINE
  5
C4E1
  8
0
 10
5027.5856828845371638
 20
190.5176825558598921
 30
0.0
 11
5027.8406828845372729
 21
190.5176825558598921
 31
0.0
  0
LINE
  5
C4E2
  8
0
 10
5027.8406828845372729
 20
190.5176825558598921
 30
0.0
 11
5027.9031828845372729
 21
190.5801825558598921
 31
0.0
  0
LINE
  5
C4E3
  8
0
 10
5027.5231828845371638
 20
190.5801825558598921
 30
0.0
 11
5027.5856828845371638
 21
190.5176825558598921
 31
0.0
  0
LINE
  5
C4E4
  8
0
 10
5027.8406828845372729
 20
271.4156825559600179
 30
0.0
 11
5027.5856828845371638
 21
271.4156825559600179
 31
0.0
  0
LINE
  5
C4E5
  8
0
 10
5026.003698151062963
 20
271.3772654946163243
 30
0.0
 11
5025.7486981512629427
 21
271.3772654946163243
 31
0.0
  0
LINE
  5
C4E6
  8
0
 10
5027.5231828845371638
 20
271.3531825559599042
 30
0.0
 11
5027.5856828845371638
 21
271.4156825559600179
 31
0.0
  0
LINE
  5
C4E7
  8
0
 10
5027.8406828845372729
 20
271.4156825559600179
 30
0.0
 11
5027.9031828845372729
 21
271.3531825559599042
 31
0.0
  0
LINE
  5
C4E8
  8
0
 10
5026.0661981511630074
 20
271.3147654945163936
 30
0.0
 11
5026.0802007545462402
 21
268.1899105063563979
 31
0.0
  0
LINE
  5
C4E9
  8
0
 10
5026.3387666643357079
 20
190.8250599932443095
 30
0.0
 11
5026.3387851469142333
 21
190.5425410896667984
 31
0.0
  0
LINE
  5
C4EA
  8
0
 10
5025.6861981511628983
 20
271.3147654945162799
 30
0.0
 11
5025.7010920102966338
 21
267.9912626541599252
 31
0.0
  0
LINE
  5
C4EB
  8
0
 10
5025.9578967629659019
 20
190.8238958534599021
 30
0.0
 11
5025.9597340431373595
 21
190.5420017613598986
 31
0.0
  0
LINE
  5
C4EC
  8
0
 10
5025.7486981512629427
 20
271.3772654946163243
 30
0.0
 11
5025.6861981511628983
 21
271.3147654945162799
 31
0.0
  0
LINE
  5
C4ED
  8
0
 10
5026.003698151062963
 20
271.3772654946163243
 30
0.0
 11
5026.0661981511630074
 21
271.3147654945163936
 31
0.0
  0
LINE
  5
C4EE
  8
0
 10
5025.7486981512629427
 20
271.3772654946163243
 30
0.0
 11
5025.7626901442663439
 21
268.1899105063563979
 31
0.0
  0
LINE
  5
C4EF
  8
0
 10
5026.0212549390553249
 20
190.8238958534599021
 30
0.0
 11
5026.0212851470141686
 21
190.4800410895668961
 31
0.0
  0
LINE
  5
C4F0
  8
0
 10
5026.003698151062963
 20
271.3772654946163243
 30
0.0
 11
5026.0176947538848253
 21
268.1899105063563979
 31
0.0
  0
LINE
  5
C4F1
  8
0
 10
5026.2762666642356635
 20
190.8250599932443095
 30
0.0
 11
5026.2762851468141889
 21
190.4800410895666971
 31
0.0
  0
LINE
  5
C4F2
  8
0
 10
5027.5856828845371638
 20
271.4156825559600179
 30
0.0
 11
5027.5856828845371638
 21
268.1899105063563979
 31
0.0
  0
LINE
  5
C4F3
  8
0
 10
5027.5856828845371638
 20
190.8238958534599021
 30
0.0
 11
5027.5856828845371638
 21
190.5176825558598921
 31
0.0
  0
LINE
  5
C4F4
  8
0
 10
5027.8406828845372729
 20
271.4156825559600179
 30
0.0
 11
5027.8406828845372729
 21
191.8976294545599046
 31
0.0
  0
LINE
  5
C4F5
  8
0
 10
5027.8406828845372729
 20
190.8238958534599021
 30
0.0
 11
5027.8406828845372729
 21
190.5176825558598921
 31
0.0
  0
LINE
  5
C4F6
  8
0
 10
5026.0212851469141242
 20
190.4800410896667984
 30
0.0
 11
5026.2762851469142333
 21
190.4800410896667984
 31
0.0
  0
LINE
  5
C4F7
  8
0
 10
5026.2762851469142333
 20
190.4800410896667984
 30
0.0
 11
5026.3387851469142333
 21
190.5425410896667984
 31
0.0
  0
LINE
  5
C4F8
  8
0
 10
5025.9597340431373595
 20
190.5420017613598986
 30
0.0
 11
5026.0212851469141242
 21
190.4800410896667984
 31
0.0
  0
LINE
  5
C4F9
  8
0
 10
5027.9545791984701282
 20
267.1582028472145112
 30
0.0
 11
5027.9545582366208691
 21
265.8353631616614052
 31
0.0
  0
LINE
  5
C4FA
  8
0
 10
5027.9545782252343997
 20
267.0967848269406204
 30
0.0
 11
5027.9431724261103227
 21
267.0967848269406204
 31
0.0
  0
LINE
  5
C4FB
  8
0
 10
5027.9431724261103227
 20
267.0967848269406204
 30
0.0
 11
5027.9431724261103227
 21
265.8959974253406244
 31
0.0
  0
LINE
  5
C4FC
  8
0
 10
5027.9431724261103227
 20
265.8959974253406244
 30
0.0
 11
5027.9545591974374474
 21
265.8959974253406244
 31
0.0
  0
LINE
  5
C4FD
  8
0
 10
5027.9031828845372729
 20
265.9063913086931734
 30
0.0
 11
5027.9323644026108013
 21
265.906900674040628
 31
0.0
  0
ARC
  5
C4FE
  8
0
 10
5027.9321724261180862
 20
265.9178989987296973
 30
0.0
 40
0.0110000000427084
 50
271.000000107547578
 51
0.0
  0
LINE
  5
C4FF
  8
0
 10
5027.9031828845372729
 20
267.0863909435997812
 30
0.0
 11
5027.9323644025889735
 21
267.0858815782872284
 31
0.0
  0
ARC
  5
C500
  8
0
 10
5027.9321724261108102
 20
267.074883253640678
 30
0.0
 40
0.0109999999999298
 50
0.0
 51
88.9999998481520151
  0
LINE
  5
C501
  8
0
 10
5026.3612555577283274
 20
268.8954553716337159
 30
0.0
 11
5026.4104165079443192
 21
268.8956770105359055
 31
0.0
  0
LINE
  5
C502
  8
0
 10
5025.6760898203374381
 20
190.6602626539599044
 30
0.0
 11
5025.9293358197373891
 21
190.6602626539599044
 31
0.0
  0
ARC
  5
C503
  8
0
 10
5025.9293358197373891
 20
190.6302626539599032
 30
0.0
 40
0.0300000000000047
 50
6.6120422094508386
 51
90.0
  0
LINE
  5
C504
  8
0
 10
5025.9703811759372911
 20
189.9947929208599078
 30
0.0
 11
5025.9609184760483913
 21
190.54080944709969
 31
0.0
  0
LINE
  5
C505
  8
0
 10
5025.1632502255370127
 20
189.7702626539598896
 30
0.0
 11
5025.2376625348333619
 21
189.7702626539598896
 31
0.0
  0
LINE
  5
C506
  8
0
 10
5025.3858379163375503
 20
189.7702626539598896
 30
0.0
 11
5025.8462502255370055
 21
189.7702626539598896
 31
0.0
  0
LINE
  5
C507
  8
0
 10
5026.3269458683653284
 20
189.7702626539598896
 30
0.0
 11
5028.1489106156368507
 21
189.7702626539598896
 31
0.0
  0
LINE
  5
C508
  8
0
 10
5025.6760898203374381
 20
190.7292516610598909
 30
0.0
 11
5025.8942557220370873
 21
190.7292516610598909
 31
0.0
  0
ARC
  5
C509
  8
0
 10
5025.8942557220370873
 20
190.7092571575599038
 30
0.0
 40
0.0199945034999978
 50
270.0
 51
90.0
  0
LINE
  5
C50A
  8
0
 10
5025.8942557220370873
 20
190.6892626540598883
 30
0.0
 11
5025.6760898203374381
 21
190.6892626540598883
 31
0.0
  0
LINE
  5
C50B
  8
0
 10
5026.5662759974384244
 20
190.8238958534599021
 30
0.0
 11
5026.5658265051242779
 21
190.8141564159826089
 31
0.0
  0
LINE
  5
C50C
  8
0
 10
5026.5658265051242779
 20
190.8141564159826089
 30
0.0
 11
5026.4776678602365791
 21
190.8141563993195007
 31
0.0
  0
ARC
  5
C50D
  8
0
 10
5026.4776678663092753
 20
190.7820274117580084
 30
0.0
 40
0.0321289875616137
 50
90.0000108296476071
 51
157.7650017992816061
  0
ARC
  5
C50E
  8
0
 10
5026.4776678841990361
 20
190.7868091175060954
 30
0.0
 40
0.030000044653856
 50
90.0000453825195024
 51
157.583734541530589
  0
LINE
  5
C50F
  8
0
 10
5026.477667860436668
 20
190.816809162159899
 30
0.0
 11
5026.5544188504372869
 21
190.8168092229524007
 31
0.0
  0
ARC
  5
C510
  8
0
 10
5026.5538630456630926
 20
190.788565021652289
 30
0.0
 40
0.0282496694862169
 50
64.9448617757606996
 51
88.8726479765913524
  0
ARC
  5
C511
  8
0
 10
5026.5668460336355565
 20
190.8062628092600903
 30
0.0
 40
0.0299999999995766
 50
144.0012119090661997
 51
159.4180519977159065
  0
LINE
  5
C512
  8
0
 10
5027.2764274869987275
 20
190.8238958534599021
 30
0.0
 11
5027.2768769794383843
 21
190.8141564132598944
 31
0.0
  0
LINE
  5
C513
  8
0
 10
5027.2768769794383843
 20
190.8141564132598944
 30
0.0
 11
5027.3650356243251736
 21
190.8141563965967862
 31
0.0
  0
ARC
  5
C514
  8
0
 10
5027.3650356182515679
 20
190.7820274090352086
 30
0.0
 40
0.0321289875616137
 50
23.4382852630520411
 51
89.9999891703523787
  0
ARC
  5
C515
  8
0
 10
5027.3650356003618072
 20
190.7868091147832956
 30
0.0
 40
0.030000044653856
 50
22.416265458469411
 51
89.9999546174804692
  0
LINE
  5
C516
  8
0
 10
5027.3650356241241752
 20
190.8168091594372129
 30
0.0
 11
5027.2882846341235563
 21
190.8168092202296009
 31
0.0
  0
ARC
  5
C517
  8
0
 10
5027.2888404388986601
 20
190.7885650189294893
 30
0.0
 40
0.0282496694862169
 50
91.1273520234086334
 51
115.0551382242393004
  0
ARC
  5
C518
  8
0
 10
5027.2758574509243772
 20
190.8062628065374042
 30
0.0
 40
0.0299999999995766
 50
20.5819480022840295
 51
35.9987945184442069
  0
LINE
  5
C519
  8
0
 10
5026.3387744566252877
 20
190.7059495067599073
 30
0.0
 11
5026.4436218320688567
 21
190.7059495067599073
 31
0.0
  0
LINE
  5
C51A
  8
0
 10
5026.3387782510226316
 20
190.6479495067598862
 30
0.0
 11
5026.4407912561127887
 21
190.6479495067598862
 31
0.0
  0
LINE
  5
C51B
  8
0
 10
5026.338775538723894
 20
190.6894088754598897
 30
0.0
 11
5026.4284307731368244
 21
190.6894088754598897
 31
0.0
  0
LINE
  5
C51C
  8
0
 10
5026.3387771689249348
 20
190.6644901380599038
 30
0.0
 11
5026.4284307731368244
 21
190.6644901380599038
 31
0.0
  0
LINE
  5
C51D
  8
0
 10
5026.4435098222693341
 20
190.703654366643093
 30
0.0
 11
5026.4284307731368244
 21
190.6894088754598897
 31
0.0
  0
ARC
  5
C51E
  8
0
 10
5026.4364575876252275
 20
190.6809123814836084
 30
0.0
 40
0.0116884627176759
 50
133.371790485136188
 51
179.2899938703716032
  0
ARC
  5
C51F
  8
0
 10
5026.4362593833875508
 20
190.6728997538872079
 30
0.0
 40
0.0114895072485688
 50
180.289040297658488
 51
227.0491753465149998
  0
LINE
  5
C520
  8
0
 10
5026.4284307731368244
 20
190.6644901380599038
 30
0.0
 11
5026.441026259553837
 21
190.652764851662198
 31
0.0
  0
LINE
  5
C521
  8
0
 10
5026.4247700223368156
 20
190.681057220559893
 30
0.0
 11
5026.4247700223368156
 21
190.6728417929599004
 31
0.0
  0
LINE
  5
C522
  8
0
 10
5027.5231828845371638
 20
190.7059495067599073
 30
0.0
 11
5027.3991704398713409
 21
190.7059495067599073
 31
0.0
  0
LINE
  5
C523
  8
0
 10
5027.5231828845371638
 20
190.6479495067598862
 30
0.0
 11
5027.4022100910706286
 21
190.6479495067598862
 31
0.0
  0
LINE
  5
C524
  8
0
 10
5027.5231828845371638
 20
190.6894088754598897
 30
0.0
 11
5027.4142727176367771
 21
190.6894088754598897
 31
0.0
  0
LINE
  5
C525
  8
0
 10
5027.5231828845371638
 20
190.6644901380599038
 30
0.0
 11
5027.4142727176367771
 21
190.6644901380599038
 31
0.0
  0
LINE
  5
C526
  8
0
 10
5027.3992957786122133
 20
190.7035579011017887
 30
0.0
 11
5027.4142727176367771
 21
190.6894088754598897
 31
0.0
  0
ARC
  5
C527
  8
0
 10
5027.4062459031511025
 20
190.6809123814836084
 30
0.0
 40
0.0116884627176759
 50
0.7100061296267294
 51
46.6282095148637623
  0
ARC
  5
C528
  8
0
 10
5027.4064441073869602
 20
190.6728997538872079
 30
0.0
 40
0.0114895072485688
 50
312.9508246534849718
 51
359.7109597023397782
  0
LINE
  5
C529
  8
0
 10
5027.4142727176367771
 20
190.6644901380599038
 30
0.0
 11
5027.4019446814390903
 21
190.653013824215293
 31
0.0
  0
LINE
  5
C52A
  8
0
 10
5027.4179334684367859
 20
190.681057220559893
 30
0.0
 11
5027.4179334684367859
 21
190.6728417929599004
 31
0.0
  0
LINE
  5
C52B
  8
0
 10
5028.1910002255372092
 20
191.6132903818682109
 30
0.0
 11
5028.1910002255372092
 21
191.1082349261515958
 31
0.0
  0
LINE
  5
C52C
  8
0
 10
5025.1627502255360014
 20
191.8007626539599073
 30
0.0
 11
5025.1627502255360014
 21
191.8976294545599046
 31
0.0
  0
LINE
  5
C52D
  8
0
 10
5025.1619336909370759
 20
191.8976294545599046
 30
0.0
 11
5025.1619336909370759
 21
191.7999461193599018
 31
0.0
  0
LINE
  5
C52E
  8
0
 10
5027.5856828845371638
 20
265.1906148020599971
 30
0.0
 11
5027.5856828845371638
 21
191.8976294545599046
 31
0.0
  0
LINE
  5
C52F
  8
0
 10
5027.5231828845371638
 20
265.1906148020599971
 30
0.0
 11
5027.5231828845371638
 21
191.8976294545599046
 31
0.0
  0
LINE
  5
C530
  8
0
 10
5026.0903110754388763
 20
265.1906148020599971
 30
0.0
 11
5026.3336261451368046
 21
191.8976294545599046
 31
0.0
  0
LINE
  5
C531
  8
0
 10
5026.0278107343483498
 20
265.1906148020599971
 30
0.0
 11
5026.2711255099366099
 21
191.8976294545599046
 31
0.0
  0
LINE
  5
C532
  8
0
 10
5025.7728092017314339
 20
265.1906148020599971
 30
0.0
 11
5026.0161229184368494
 21
191.8976294545599046
 31
0.0
  0
LINE
  5
C533
  8
0
 10
5025.7102762089998578
 20
265.2004108840862955
 30
0.0
 11
5025.9536222832366548
 21
191.8976294545599046
 31
0.0
  0
LINE
  5
C534
  8
0
 10
5027.4641828845369673
 20
236.1454620835598917
 30
0.0
 11
5027.2541828845360214
 21
236.1454620835598917
 31
0.0
  0
ARC
  5
C535
  8
0
 10
5027.2541828845360214
 20
236.1254620835599951
 30
0.0
 40
0.019999999999996
 50
90.0
 51
180.0000002864888984
  0
LINE
  5
C536
  8
0
 10
5027.2341828845374039
 20
236.1254620834598938
 30
0.0
 11
5027.2341828882763366
 21
235.3779030284599116
 31
0.0
  0
ARC
  5
C537
  8
0
 10
5027.2541828883749986
 20
235.3779030285598992
 30
0.0
 40
0.0200000000999978
 50
180.0000002865052124
 51
269.9999890051108764
  0
LINE
  5
C538
  8
0
 10
5027.2541828845360214
 20
235.3579030284599014
 30
0.0
 11
5027.3007901738437795
 21
235.357903019516101
 31
0.0
  0
LINE
  5
C539
  8
0
 10
5027.4176610092381452
 20
235.3579892727599088
 30
0.0
 11
5027.4641828845369673
 21
235.3579892727599088
 31
0.0
  0
ARC
  5
C53A
  8
0
 10
5027.4921828845372147
 20
235.381729800059901
 30
0.0
 40
0.0080000000000102
 50
180.0
 51
269.9999999999478746
  0
LINE
  5
C53B
  8
0
 10
5027.4921828845372147
 20
235.3737298000598912
 30
0.0
 11
5027.5151828845373529
 21
235.3737298000598912
 31
0.0
  0
ARC
  5
C53C
  8
0
 10
5027.5151828845373529
 20
235.381729800059901
 30
0.0
 40
0.007999999999968
 50
269.9999999999478746
 51
0.0
  0
LINE
  5
C53D
  8
0
 10
5027.4841828845383134
 20
235.3779892727598906
 30
0.0
 11
5027.4841828845383134
 21
236.1254620835599098
 31
0.0
  0
ARC
  5
C53E
  8
0
 10
5027.4641828845369673
 20
235.3779892727598906
 30
0.0
 40
0.02
 50
270.0
 51
0.0
  0
ARC
  5
C53F
  8
0
 10
5027.4641828845369673
 20
236.1254620835599098
 30
0.0
 40
0.02
 50
0.0
 51
90.0
  0
ARC
  5
C540
  8
0
 10
5027.3595071239078607
 20
234.9764773270173919
 30
0.0
 40
0.3859186949643808
 50
81.333115284811214
 51
98.751455787588327
  0
ARC
  5
C541
  8
0
 10
5027.4921828845372147
 20
236.1216353118599045
 30
0.0
 40
0.0080000000000102
 50
90.0000000000521254
 51
180.0
  0
LINE
  5
C542
  8
0
 10
5027.4921828845372147
 20
236.1296353118598859
 30
0.0
 11
5027.5151828845373529
 21
236.1296353118598859
 31
0.0
  0
ARC
  5
C543
  8
0
 10
5027.5151828845373529
 20
236.1216353118599045
 30
0.0
 40
0.007999999999968
 50
0.0
 51
90.0000000000521254
  0
ARC
  5
C544
  8
0
 10
5027.9111828845370837
 20
236.1216353118599045
 30
0.0
 40
0.0080000000000187
 50
90.0000000000521254
 51
180.0
  0
LINE
  5
C545
  8
0
 10
5027.9111828845370837
 20
236.1296353118598859
 30
0.0
 11
5027.934182884537222
 21
236.1296353118598859
 31
0.0
  0
ARC
  5
C546
  8
0
 10
5027.934182884537222
 20
236.1216353118599045
 30
0.0
 40
0.007999999999968
 50
0.0
 51
90.0000000000521254
  0
ARC
  5
C547
  8
0
 10
5027.9111828845370837
 20
235.3817298000599862
 30
0.0
 40
0.0080000000000187
 50
180.0
 51
269.9999999999478746
  0
LINE
  5
C548
  8
0
 10
5027.9111828845370837
 20
235.3737298000598912
 30
0.0
 11
5027.934182884537222
 21
235.3737298000598912
 31
0.0
  0
ARC
  5
C549
  8
0
 10
5027.934182884537222
 20
235.381729800059901
 30
0.0
 40
0.007999999999968
 50
269.9999999999478746
 51
0.0
  0
LINE
  5
C54A
  8
0
 10
5029.4645249009836334
 20
236.1266825559598885
 30
0.0
 11
5027.9421828845370328
 21
236.1266825559598885
 31
0.0
  0
LINE
  5
C54B
  8
0
 10
5027.9421828845370328
 20
236.1266825559598885
 30
0.0
 11
5027.9421828845370328
 21
235.3766825559598885
 31
0.0
  0
LINE
  5
C54C
  8
0
 10
5027.9421828845370328
 20
235.3766825559598885
 30
0.0
 11
5029.4645565772907503
 21
235.3766825559598885
 31
0.0
  0
LINE
  5
C54D
  8
0
 10
5029.5101828845372438
 20
237.7516825559598885
 30
0.0
 11
5029.4601828845370619
 21
237.7016825559599909
 31
0.0
  0
LINE
  5
C54E
  8
0
 10
5029.4601828845370619
 20
237.7016825559599909
 30
0.0
 11
5030.340182884537171
 21
237.7016825559599909
 31
0.0
  0
LINE
  5
C54F
  8
0
 10
5030.340182884537171
 20
237.7016825559599909
 30
0.0
 11
5030.2901828845369891
 21
237.7516825559598885
 31
0.0
  0
LINE
  5
C550
  8
0
 10
5030.2901828845369891
 20
237.7516825559598885
 30
0.0
 11
5029.5101828845372438
 21
237.7516825559598885
 31
0.0
  0
LINE
  5
C551
  8
0
 10
5029.4601828845370619
 20
237.7016825559599909
 30
0.0
 11
5029.4601828845370619
 21
236.1316825559599124
 31
0.0
  0
LINE
  5
C552
  8
0
 10
5030.340182884537171
 20
237.7016825559599909
 30
0.0
 11
5030.340182884537171
 21
220.8016825559598999
 31
0.0
  0
LINE
  5
C553
  8
0
 10
5030.340182884537171
 20
220.8016825559598999
 30
0.0
 11
5030.2901828845369891
 21
220.7516825559598885
 31
0.0
  0
LINE
  5
C554
  8
0
 10
5030.2901828845369891
 20
220.7516825559598885
 30
0.0
 11
5029.5101828845372438
 21
220.7516825559598885
 31
0.0
  0
LINE
  5
C555
  8
0
 10
5029.5101828845372438
 20
220.7516825559598885
 30
0.0
 11
5029.4601828845370619
 21
220.8016825559598999
 31
0.0
  0
LINE
  5
C556
  8
0
 10
5029.4601828845370619
 20
220.8016825559598999
 30
0.0
 11
5030.340182884537171
 21
220.8016825559598999
 31
0.0
  0
LINE
  5
C557
  8
0
 10
5029.4601828845370619
 20
220.8016825559598999
 30
0.0
 11
5029.4601828845370619
 21
222.3716825559598931
 31
0.0
  0
ARC
  5
C558
  8
0
 10
5027.7915119600893377
 20
223.835746261015089
 30
0.0
 40
2.219897562176357
 50
318.7368321167364229
 51
323.5999325456917859
  0
ARC
  5
C559
  8
0
 10
5028.9816347915875667
 20
222.9637938777115949
 30
0.0
 40
0.7445551539913556
 50
323.2602569608657745
 51
333.9682687070039719
  0
ARC
  5
C55A
  8
0
 10
5029.4299649182730718
 20
222.7509389220232094
 30
0.0
 40
0.2483530462315315
 50
332.6999763085307791
 51
23.1298536406653987
  0
ARC
  5
C55B
  8
0
 10
5028.9631458502999521
 20
222.5343028346958931
 30
0.0
 40
0.7629105904805628
 50
24.3201536539375986
 51
38.2815008103579189
  0
ARC
  5
C55C
  8
0
 10
5027.5475541239020458
 20
221.466364138018605
 30
0.0
 40
2.5360272492905862
 50
37.4073852732471224
 51
41.0459625789487816
  0
LINE
  5
C55D
  8
0
 10
5029.4601828845370619
 20
223.1316825559599124
 30
0.0
 11
5029.4601828845370619
 21
235.3716825559600068
 31
0.0
  0
ARC
  5
C55E
  8
0
 10
5027.7915119600893377
 20
236.835746261015089
 30
0.0
 40
2.219897562176357
 50
318.7368321167364229
 51
323.5999325456917859
  0
ARC
  5
C55F
  8
0
 10
5028.9816347915875667
 20
235.9637938777115949
 30
0.0
 40
0.7445551539913556
 50
323.2602569608657745
 51
333.9682687070039719
  0
ARC
  5
C560
  8
0
 10
5029.4299649182730718
 20
235.7509389220232094
 30
0.0
 40
0.2483530462315315
 50
332.6999763085307791
 51
23.1298536406653987
  0
ARC
  5
C561
  8
0
 10
5028.9631458502999521
 20
235.5343028346958931
 30
0.0
 40
0.7629105904805628
 50
24.3201536539375986
 51
38.2815008103579189
  0
ARC
  5
C562
  8
0
 10
5027.5475541239020458
 20
234.466364138018605
 30
0.0
 40
2.5360272492905862
 50
37.4073852732471224
 51
41.0459625789487816
  0
LINE
  5
C563
  8
0
 10
5027.4641828845369673
 20
223.1454620835598917
 30
0.0
 11
5027.2541828845360214
 21
223.1454620835598917
 31
0.0
  0
ARC
  5
C564
  8
0
 10
5027.2541828845360214
 20
223.1254620835599098
 30
0.0
 40
0.019999999999996
 50
90.0
 51
180.0000002864888984
  0
LINE
  5
C565
  8
0
 10
5027.2341828845374039
 20
223.1254620834598938
 30
0.0
 11
5027.2341828882763366
 21
222.3779030284599116
 31
0.0
  0
ARC
  5
C566
  8
0
 10
5027.2541828883749986
 20
222.3779030285598992
 30
0.0
 40
0.0200000000999978
 50
180.0000002865052124
 51
269.9999890051108764
  0
LINE
  5
C567
  8
0
 10
5027.2541828845360214
 20
222.3579030284599014
 30
0.0
 11
5027.3007901738437795
 21
222.357903019516101
 31
0.0
  0
LINE
  5
C568
  8
0
 10
5027.4176610092381452
 20
222.3579892727599088
 30
0.0
 11
5027.4641828845369673
 21
222.3579892727599088
 31
0.0
  0
ARC
  5
C569
  8
0
 10
5027.4921828845372147
 20
222.381729800059901
 30
0.0
 40
0.0080000000000102
 50
180.0
 51
269.9999999999478746
  0
LINE
  5
C56A
  8
0
 10
5027.4921828845372147
 20
222.3737298000598912
 30
0.0
 11
5027.5151828845373529
 21
222.3737298000598912
 31
0.0
  0
ARC
  5
C56B
  8
0
 10
5027.5151828845373529
 20
222.381729800059901
 30
0.0
 40
0.007999999999968
 50
269.9999999999478746
 51
0.0
  0
LINE
  5
C56C
  8
0
 10
5027.4841828845383134
 20
222.3779892727598906
 30
0.0
 11
5027.4841828845383134
 21
223.1254620835599098
 31
0.0
  0
ARC
  5
C56D
  8
0
 10
5027.4641828845369673
 20
222.3779892727598906
 30
0.0
 40
0.02
 50
270.0
 51
0.0
  0
ARC
  5
C56E
  8
0
 10
5027.4641828845369673
 20
223.1254620835599098
 30
0.0
 40
0.02
 50
0.0
 51
90.0
  0
ARC
  5
C56F
  8
0
 10
5027.3595071239078607
 20
221.9764773270173919
 30
0.0
 40
0.3859186949643808
 50
81.333115284811214
 51
98.751455787588327
  0
ARC
  5
C570
  8
0
 10
5027.4921828845372147
 20
223.1216353118599045
 30
0.0
 40
0.0080000000000102
 50
90.0000000000521254
 51
180.0
  0
LINE
  5
C571
  8
0
 10
5027.4921828845372147
 20
223.1296353118599995
 30
0.0
 11
5027.5151828845373529
 21
223.1296353118599995
 31
0.0
  0
ARC
  5
C572
  8
0
 10
5027.5151828845373529
 20
223.1216353118599898
 30
0.0
 40
0.007999999999968
 50
0.0
 51
90.0000000000521254
  0
ARC
  5
C573
  8
0
 10
5027.9111828845370837
 20
223.1216353118599045
 30
0.0
 40
0.0080000000000187
 50
90.0000000000521254
 51
180.0
  0
LINE
  5
C574
  8
0
 10
5027.9111828845370837
 20
223.1296353118598859
 30
0.0
 11
5027.934182884537222
 21
223.1296353118599995
 31
0.0
  0
ARC
  5
C575
  8
0
 10
5027.934182884537222
 20
223.1216353118599898
 30
0.0
 40
0.007999999999968
 50
0.0
 51
90.0000000000521254
  0
ARC
  5
C576
  8
0
 10
5027.9111828845370837
 20
222.3817298000599862
 30
0.0
 40
0.0080000000000187
 50
180.0
 51
269.9999999999478746
  0
LINE
  5
C577
  8
0
 10
5027.9111828845370837
 20
222.3737298000600049
 30
0.0
 11
5027.934182884537222
 21
222.3737298000598912
 31
0.0
  0
ARC
  5
C578
  8
0
 10
5027.934182884537222
 20
222.381729800059901
 30
0.0
 40
0.007999999999968
 50
269.9999999999478746
 51
0.0
  0
LINE
  5
C579
  8
0
 10
5029.4645249009836334
 20
223.1266825559598885
 30
0.0
 11
5027.9421828845370328
 21
223.1266825559598885
 31
0.0
  0
LINE
  5
C57A
  8
0
 10
5027.9421828845370328
 20
223.1266825559598885
 30
0.0
 11
5027.9421828845370328
 21
222.3766825559598885
 31
0.0
  0
LINE
  5
C57B
  8
0
 10
5027.9421828845370328
 20
222.3766825559598885
 30
0.0
 11
5029.4645565772907503
 21
222.3766825559598885
 31
0.0
  0
LINE
  5
C57C
  8
0
 10
5026.2458535800888058
 20
236.1093918214417045
 30
0.0
 11
5026.4558524088015474
 21
236.1100932053115002
 31
0.0
  0
ARC
  5
C57D
  8
0
 10
5026.455919207266561
 20
236.0900933168626921
 30
0.0
 40
0.019999999999996
 50
0.1913635719413202
 51
90.1913638584512967
  0
LINE
  5
C57E
  8
0
 10
5026.4759190957156534
 20
236.0901601152264107
 30
0.0
 11
5026.4784158818001742
 21
235.3426052297687079
 31
0.0
  0
ARC
  5
C57F
  8
0
 10
5026.4584159932519469
 20
235.3425384314045914
 30
0.0
 40
0.0200000000999978
 50
270.1913748532974751
 51
0.1913635719234075
  0
LINE
  5
C580
  8
0
 10
5026.4584827955541186
 20
235.3225385428686138
 30
0.0
 11
5026.4118757662308781
 21
235.3223828691585027
 31
0.0
  0
LINE
  5
C581
  8
0
 10
5026.2950052946125652
 20
235.3220787823078979
 30
0.0
 11
5026.2484836787907625
 21
235.321923402817788
 31
0.0
  0
ARC
  5
C582
  8
0
 10
5026.2204045434264117
 20
235.3455702798542859
 30
0.0
 40
0.0080000000000102
 50
270.1913638585033937
 51
0.1913638584284938
  0
LINE
  5
C583
  8
0
 10
5026.2204312628109619
 20
235.3375703244747115
 30
0.0
 11
5026.1974313910950514
 21
235.3374935062414011
 31
0.0
  0
ARC
  5
C584
  8
0
 10
5026.1974152945313108
 20
235.3455193516180088
 30
0.0
 40
0.0080258615181311
 50
180.6142650461218864
 51
270.1149117568054976
  0
LINE
  5
C585
  8
0
 10
5026.228416991879385
 20
235.3418564928028047
 30
0.0
 11
5026.2259204901047269
 21
236.0893251345291901
 31
0.0
  0
ARC
  5
C586
  8
0
 10
5026.2484168803275679
 20
235.3419232912665962
 30
0.0
 40
0.02
 50
180.1913638584285025
 51
270.1913638584513251
  0
ARC
  5
C587
  8
0
 10
5026.2459203785538193
 20
236.0893919329928963
 30
0.0
 40
0.02
 50
90.1913638584512967
 51
180.1913638584285025
  0
ARC
  5
C588
  8
0
 10
5026.3544330761778838
 20
234.9407631939808994
 30
0.0
 40
0.3859186949643807
 50
81.4399080708678298
 51
98.8582485736404237
  0
ARC
  5
C589
  8
0
 10
5026.2179333158492227
 20
236.0854716647876899
 30
0.0
 40
0.0080000000000102
 50
0.1913638584284938
 51
90.1913638583991855
  0
LINE
  5
C58A
  8
0
 10
5026.217906596463763
 20
236.0934716201672074
 30
0.0
 11
5026.1949067247469429
 21
236.0933948019338118
 31
0.0
  0
ARC
  5
C58B
  8
0
 10
5026.1949334441324027
 20
236.0853948465542942
 30
0.0
 40
0.007999999999968
 50
90.1913638583991855
 51
180.1913638584285025
  0
ARC
  5
C58C
  8
0
 10
5025.7995228565760044
 20
236.0840741863464132
 30
0.0
 40
0.0080000000000187
 50
22.2957290459752606
 51
90.1913638583991855
  0
LINE
  5
C58D
  8
0
 10
5025.7994961371914542
 20
236.0920741417259023
 30
0.0
 11
5025.7764962654746341
 21
236.0919973234925067
 31
0.0
  0
ARC
  5
C58E
  8
0
 10
5025.7765229848610034
 20
236.0839973681129891
 30
0.0
 40
0.007999999999968
 50
90.1913638583991855
 51
180.1913638584285025
  0
ARC
  5
C58F
  8
0
 10
5025.8019940841541029
 20
235.3441728014130092
 30
0.0
 40
0.0080000000000187
 50
270.1913638585033937
 51
337.8019056119943002
  0
LINE
  5
C590
  8
0
 10
5025.8020208035386531
 20
235.3361728460334916
 30
0.0
 11
5025.7790209318227426
 21
235.336096027800096
 31
0.0
  0
ARC
  5
C591
  8
0
 10
5025.7789942124372828
 20
235.3440959831796135
 30
0.0
 40
0.007999999999968
 50
180.1913638584285025
 51
270.1913638585033937
  0
LINE
  5
C592
  8
0
 10
5024.246172646578998
 20
236.0839333592732885
 30
0.0
 11
5025.0442587755369459
 21
236.086598920509914
 31
0.0
  0
LINE
  5
C593
  8
0
 10
5025.6760898203374381
 20
236.0887091994383979
 30
0.0
 11
5025.7685061720740123
 21
236.0890178646762081
 31
0.0
  0
LINE
  5
C594
  8
0
 10
5025.7685061720740123
 20
236.0890178646762081
 30
0.0
 11
5025.7710111144660914
 21
235.3390220478455035
 31
0.0
  0
LINE
  5
C595
  8
0
 10
5025.7710111144660914
 20
235.3390220478455035
 30
0.0
 11
5025.6760898203374381
 21
235.3387050162457967
 31
0.0
  0
LINE
  5
C596
  8
0
 10
5025.0442587755369459
 20
235.3365947373173128
 30
0.0
 11
5024.2486459128413117
 21
235.3339374366460959
 31
0.0
  0
LINE
  5
C597
  8
0
 10
5024.1950875425036429
 20
237.7087718015818893
 30
0.0
 11
5024.2452542597848151
 21
237.6589390766193048
 31
0.0
  0
LINE
  5
C598
  8
0
 10
5024.2452542597848151
 20
237.6589390766193048
 30
0.0
 11
5023.3652591680365731
 21
237.6559999442127094
 31
0.0
  0
LINE
  5
C599
  8
0
 10
5023.3652591680365731
 20
237.6559999442127094
 30
0.0
 11
5023.4150918929990439
 21
237.7061666614941942
 31
0.0
  0
LINE
  5
C59A
  8
0
 10
5023.4150918929990439
 20
237.7061666614941942
 30
0.0
 11
5024.1950875425036429
 21
237.7087718015818893
 31
0.0
  0
LINE
  5
C59B
  8
0
 10
5024.2452542597848151
 20
237.6589390766193048
 30
0.0
 11
5024.250497939192428
 21
236.0889478333870102
 31
0.0
  0
LINE
  5
C59C
  8
0
 10
5023.3652591680365731
 20
237.6559999442127094
 30
0.0
 11
5023.4217038699371187
 21
220.756094204959993
 31
0.0
  0
LINE
  5
C59D
  8
0
 10
5023.4217038699371187
 20
220.756094204959993
 30
0.0
 11
5023.4718705872192004
 21
220.7062614799974085
 31
0.0
  0
LINE
  5
C59E
  8
0
 10
5023.4718705872192004
 20
220.7062614799974085
 30
0.0
 11
5024.2518662367228899
 21
220.7088666200851037
 31
0.0
  0
LINE
  5
C59F
  8
0
 10
5024.2518662367228899
 20
220.7088666200851037
 30
0.0
 11
5024.3016989616862702
 21
220.7590333373665885
 31
0.0
  0
LINE
  5
C5A0
  8
0
 10
5024.3016989616862702
 20
220.7590333373665885
 30
0.0
 11
5023.4217038699371187
 21
220.756094204959993
 31
0.0
  0
LINE
  5
C5A1
  8
0
 10
5024.3016989616862702
 20
220.7590333373665885
 30
0.0
 11
5024.2964552822777478
 21
222.3290245805989116
 31
0.0
  0
ARC
  5
C5A2
  8
0
 10
5025.9602270392961145
 20
223.7986533524683068
 30
0.0
 40
2.219897562176357
 50
216.5914313127159119
 51
221.454531741684093
  0
ARC
  5
C5A3
  8
0
 10
5024.7730230997631224
 20
222.9227309136877011
 30
0.0
 40
0.7445551539913554
 50
206.2230951514150945
 51
216.931106897552695
  0
ARC
  5
C5A4
  8
0
 10
5024.3254063928679898
 20
222.7083797570236925
 30
0.0
 40
0.2483530462315314
 50
157.0615102177779931
 51
207.4913875498949949
  0
ARC
  5
C5A5
  8
0
 10
5024.7929464050221213
 20
222.4933040178273131
 30
0.0
 40
0.7629105904805626
 50
141.9098630480764029
 51
155.8712102044775065
  0
ARC
  5
C5A6
  8
0
 10
5026.2120970690912145
 20
221.4300992452747892
 30
0.0
 40
2.5360272492905862
 50
139.1454012793498123
 51
142.7839785851635099
  0
LINE
  5
C5A7
  8
0
 10
5024.2939169406572546
 20
223.0890203416579993
 30
0.0
 11
5024.2530362808111022
 21
235.3289520723369037
 31
0.0
  0
ARC
  5
C5A8
  8
0
 10
5025.9168080378340164
 20
236.7985808442012114
 30
0.0
 40
2.219897562176357
 50
216.5914313127159119
 51
221.4545317415150123
  0
ARC
  5
C5A9
  8
0
 10
5024.7296040983001149
 20
235.922658405420492
 30
0.0
 40
0.7445551539913554
 50
206.2230951514150945
 51
216.931106897552695
  0
ARC
  5
C5AA
  8
0
 10
5024.2819873914058917
 20
235.7083072487565119
 30
0.0
 40
0.2483530462315314
 50
157.0615102177779931
 51
207.4913875498949949
  0
ARC
  5
C5AB
  8
0
 10
5024.7495274035600232
 20
235.4932315095601894
 30
0.0
 40
0.7629105904805626
 50
141.9098630480764029
 51
155.8712102044775065
  0
ARC
  5
C5AC
  8
0
 10
5026.1686780676300259
 20
234.4300267370076085
 30
0.0
 40
2.5360272492905862
 50
139.1454012794845028
 51
142.7839785851635099
  0
LINE
  5
C5AD
  8
0
 10
5026.2898597852827152
 20
223.1094662790839038
 30
0.0
 11
5026.4998586139945473
 21
223.1101676629536996
 31
0.0
  0
ARC
  5
C5AE
  8
0
 10
5026.4999254124577419
 20
223.0901677745048914
 30
0.0
 40
0.019999999999996
 50
0.1913635719413202
 51
90.1913638584512967
  0
LINE
  5
C5AF
  8
0
 10
5026.5199253009077438
 20
223.09023457286861
 30
0.0
 11
5026.5224220869931742
 21
222.3426796874109073
 31
0.0
  0
ARC
  5
C5B0
  8
0
 10
5026.5024221984440373
 20
222.3426128890467908
 30
0.0
 40
0.0200000000999978
 50
270.1913748532974751
 51
0.1913635719234075
  0
LINE
  5
C5B1
  8
0
 10
5026.5024890007462091
 20
222.3226130005108132
 30
0.0
 11
5026.4558819714229685
 21
222.322457326800702
 31
0.0
  0
LINE
  5
C5B2
  8
0
 10
5026.3390114998055651
 20
222.3221532399500973
 30
0.0
 11
5026.2924898839846719
 21
222.3219978604599874
 31
0.0
  0
ARC
  5
C5B3
  8
0
 10
5026.2644107486194116
 20
222.3456447374965137
 30
0.0
 40
0.0080000000000102
 50
270.1913638585033937
 51
0.1913638584284938
  0
LINE
  5
C5B4
  8
0
 10
5026.2644374680039618
 20
222.3376447821169961
 30
0.0
 11
5026.2414375962880513
 21
222.3375679638836004
 31
0.0
  0
ARC
  5
C5B5
  8
0
 10
5026.2414108769016821
 20
222.3455679192630896
 30
0.0
 40
0.007999999999968
 50
180.1913638584285025
 51
270.1913638585033937
  0
LINE
  5
C5B6
  8
0
 10
5026.2724231970705659
 20
222.3419309504450041
 30
0.0
 11
5026.2699266952977268
 21
223.0893995921713042
 31
0.0
  0
ARC
  5
C5B7
  8
0
 10
5026.2924230855205678
 20
222.3419977489087955
 30
0.0
 40
0.02
 50
180.1913638584285025
 51
270.1913638584513251
  0
ARC
  5
C5B8
  8
0
 10
5026.2899265837459097
 20
223.0894663906350956
 30
0.0
 40
0.02
 50
90.1913638584512967
 51
180.1913638584285025
  0
ARC
  5
C5B9
  8
0
 10
5026.3984392813717932
 20
221.9408376516230987
 30
0.0
 40
0.3859186949643807
 50
81.4399080708678298
 51
98.8582485736404237
  0
ARC
  5
C5BA
  8
0
 10
5026.2619395210422226
 20
223.085546122429804
 30
0.0
 40
0.0080000000000102
 50
0.1913638584284938
 51
90.1913638583991855
  0
LINE
  5
C5BB
  8
0
 10
5026.2619128016558534
 20
223.0935460778094068
 30
0.0
 11
5026.2389129299399428
 21
223.0934692595760112
 31
0.0
  0
ARC
  5
C5BC
  8
0
 10
5026.2389396493254026
 20
223.0854693041964936
 30
0.0
 40
0.007999999999968
 50
90.1913638583991855
 51
180.1913638584285025
  0
ARC
  5
C5BD
  8
0
 10
5025.842941858039012
 20
223.0841466946135085
 30
0.0
 40
0.0080000000000187
 50
0.1913638584806037
 51
90.1913638583991855
  0
LINE
  5
C5BE
  8
0
 10
5025.8429151386526428
 20
223.0921466499929977
 30
0.0
 11
5025.8199152669367322
 21
223.092069831759602
 31
0.0
  0
ARC
  5
C5BF
  8
0
 10
5025.819941986322192
 20
223.0840698763801981
 30
0.0
 40
0.007999999999968
 50
90.1913638583991855
 51
180.1913638584285025
  0
ARC
  5
C5C0
  8
0
 10
5025.8454130856152915
 20
222.3442453096801898
 30
0.0
 40
0.0080000000000187
 50
270.1913638585033937
 51
0.1913638584789753
  0
LINE
  5
C5C1
  8
0
 10
5025.8454398049998417
 20
222.336245354300587
 30
0.0
 11
5025.8224399332848407
 21
222.3361685360671913
 31
0.0
  0
ARC
  5
C5C2
  8
0
 10
5025.8224132138993809
 20
222.3441684914467942
 30
0.0
 40
0.007999999999968
 50
180.1913638584285025
 51
270.1913638585033937
  0
LINE
  5
C5C3
  8
0
 10
5024.2895916480401866
 20
223.0840058675404123
 30
0.0
 11
5025.0224420297590768
 21
223.0864535451767949
 31
0.0
  0
LINE
  5
C5C4
  8
0
 10
5025.6542759717121953
 20
223.0885638337815919
 30
0.0
 11
5025.8119251735352009
 21
223.0890903729433035
 31
0.0
  0
LINE
  5
C5C5
  8
0
 10
5025.8119251735352009
 20
223.0890903729433035
 30
0.0
 11
5025.8144301159281895
 21
222.3390945561125989
 31
0.0
  0
LINE
  5
C5C6
  8
0
 10
5025.8144301159281895
 20
222.3390945561125989
 30
0.0
 11
5025.6533996063881204
 21
222.3385567235798135
 31
0.0
  0
LINE
  5
C5C7
  8
0
 10
5025.021565664435002
 20
222.3364464349749028
 30
0.0
 11
5024.2920649143015908
 21
222.3340099449133049
 31
0.0
  0
CIRCLE
  5
C5C9
  8
0
 10
5025.3602502255380386
 20
227.6567626539599019
 30
0.0
 40
0.0945000000000026
  0
LINE
  5
C5CA
  8
0
 10
5026.3638093595764076
 20
268.3642412666275732
 30
0.0
 11
5026.4127456014512063
 21
268.3644047108293762
 31
0.0
  0
LINE
  5
C5CB
  8
0
 10
5027.9031828845372729
 20
265.8265085406599155
 30
0.0
 11
5027.9545583090566652
 21
265.8399344072469717
 31
0.0
  0
LINE
  5
C5CC
  8
0
 10
5027.9031828845372729
 20
265.8678518376598845
 30
0.0
 11
5027.9545589641902552
 21
265.8812778753518842
 31
0.0
  0
ENDSEC
  0
EOF
