  0
SECTION
  2
HEADER
  9
$ACADVER
  1
AC1009
  9
$INSBASE
 10
5014.8252530854051656
 20
171.1469511876570948
 30
0.0
  9
$EXTMIN
 10
4992.4529558083277152
 20
171.1337546365872129
 30
-0.0000000349181948
  9
$EXTMAX
 10
5037.41753929782044
 20
252.7986907351152865
 30
0.0000000814935746
  9
$LIMMIN
 10
0.0
 20
0.0
  9
$LIMMAX
 10
11.6929133858000007
 20
8.2677165353999982
  9
$ORTHOMODE
 70
     0
  9
$REGENMODE
 70
     1
  9
$FILLMODE
 70
     1
  9
$QTEXTMODE
 70
     0
  9
$MIRRTEXT
 70
     0
  9
$DRAGMODE
 70
     2
  9
$LTSCALE
 40
0.6431102362
  9
$OSMODE
 70
  4095
  9
$ATTMODE
 70
     1
  9
$TEXTSIZE
 40
0.2
  9
$TRACEWID
 40
0.05
  9
$TEXTSTYLE
  7
STANDARD
  9
$CLAYER
  8
0
  9
$CELTYPE
  6
BYLAYER
  9
$CECOLOR
 62
   256
  9
$DIMSCALE
 40
1.0
  9
$DIMASZ
 40
0.1875
  9
$DIMEXO
 40
0.0625
  9
$DIMDLI
 40
0.4443307087
  9
$DIMRND
 40
0.0
  9
$DIMDLE
 40
0.0
  9
$DIMEXE
 40
0.125
  9
$DIMTP
 40
0.01
  9
$DIMTM
 40
0.01
  9
$DIMTXT
 40
2.0
  9
$DIMCEN
 40
0.1052362205
  9
$DIMTSZ
 40
0.0
  9
$DIMTOL
 70
     1
  9
$DIMLIM
 70
     0
  9
$DIMTIH
 70
     1
  9
$DIMTOH
 70
     1
  9
$DIMSE1
 70
     0
  9
$DIMSE2
 70
     0
  9
$DIMTAD
 70
     0
  9
$DIMZIN
 70
     0
  9
$DIMBLK
  1

  9
$DIMASO
 70
     1
  9
$DIMSHO
 70
     1
  9
$DIMPOST
  1
\X
  9
$DIMAPOST
  1

  9
$DIMALT
 70
     1
  9
$DIMALTD
 70
     2
  9
$DIMALTF
 40
25.3999999999999986
  9
$DIMLFAC
 40
1.0
  9
$DIMTOFL
 70
     0
  9
$DIMTVP
 40
0.0
  9
$DIMTIX
 70
     0
  9
$DIMSOXD
 70
     0
  9
$DIMSAH
 70
     0
  9
$DIMBLK1
  1

  9
$DIMBLK2
  1

  9
$DIMSTYLE
  2
STANDARD
  9
$DIMCLRD
 70
     0
  9
$DIMCLRE
 70
     0
  9
$DIMCLRT
 70
     0
  9
$DIMTFAC
 40
1.0
  9
$DIMGAP
 40
0.09
  9
$LUNITS
 70
     2
  9
$LUPREC
 70
     4
  9
$SKETCHINC
 40
0.1
  9
$FILLETRAD
 40
0.0
  9
$AUNITS
 70
     0
  9
$AUPREC
 70
     0
  9
$MENU
  1
.
  9
$ELEVATION
 40
0.0
  9
$PELEVATION
 40
0.0
  9
$THICKNESS
 40
0.0
  9
$LIMCHECK
 70
     0
  9
$BLIPMODE
 70
     0
  9
$CHAMFERA
 40
0.0
  9
$CHAMFERB
 40
0.0
  9
$SKPOLY
 70
     0
  9
$TDCREATE
 40
2458060.468368056230247
  9
$TDUPDATE
 40
2460998.7760763890109956
  9
$TDINDWG
 40
0.4148450231
  9
$TDUSRTIMER
 40
0.4148450231
  9
$USRTIMER
 70
     1
  9
$ANGBASE
 50
0.0
  9
$ANGDIR
 70
     0
  9
$PDMODE
 70
     0
  9
$PDSIZE
 40
0.3125
  9
$PLINEWID
 40
0.0
  9
$COORDS
 70
     1
  9
$SPLFRAME
 70
     0
  9
$SPLINETYPE
 70
     6
  9
$SPLINESEGS
 70
     8
  9
$ATTDIA
 70
     1
  9
$ATTREQ
 70
     1
  9
$HANDLING
 70
     1
  9
$HANDSEED
  5
B42F
  9
$SURFTAB1
 70
     6
  9
$SURFTAB2
 70
     6
  9
$SURFTYPE
 70
     6
  9
$SURFU
 70
     6
  9
$SURFV
 70
     6
  9
$UCSNAME
  2

  9
$UCSORG
 10
0.0
 20
0.0
 30
0.0
  9
$UCSXDIR
 10
1.0
 20
0.0
 30
0.0
  9
$UCSYDIR
 10
0.0
 20
1.0
 30
0.0
  9
$PUCSNAME
  2

  9
$PUCSORG
 10
0.0
 20
0.0
 30
0.0
  9
$PUCSXDIR
 10
1.0
 20
0.0
 30
0.0
  9
$PUCSYDIR
 10
0.0
 20
1.0
 30
0.0
  9
$USERI1
 70
     0
  9
$USERI2
 70
     0
  9
$USERI3
 70
     0
  9
$USERI4
 70
     0
  9
$USERI5
 70
     0
  9
$USERR1
 40
0.0
  9
$USERR2
 40
0.0
  9
$USERR3
 40
0.0
  9
$USERR4
 40
0.0
  9
$USERR5
 40
0.0
  9
$WORLDVIEW
 70
     1
  9
$SHADEDGE
 70
     3
  9
$SHADEDIF
 70
    70
  9
$TILEMODE
 70
     1
  9
$MAXACTVP
 70
    64
  9
$PLIMCHECK
 70
     0
  9
$PEXTMIN
 10
1.0000000000000000E+20
 20
1.0000000000000000E+20
 30
1.0000000000000000E+20
  9
$PEXTMAX
 10
-1.0000000000000000E+20
 20
-1.0000000000000000E+20
 30
-1.0000000000000000E+20
  9
$PLIMMIN
 10
0.0
 20
0.0
  9
$PLIMMAX
 10
12.0
 20
9.0
  9
$UNITMODE
 70
     0
  9
$VISRETAIN
 70
     1
  9
$PLINEGEN
 70
     0
  9
$PSLTSCALE
 70
     1
  0
ENDSEC
  0
SECTION
  2
TABLES
  0
TABLE
  2
VPORT
 70
     1
  0
VPORT
  2
*ACTIVE
 70
     0
 10
0.0
 20
0.0
 11
1.0
 21
1.0
 12
1211.3911801702608955
 22
85.9709604891013441
 13
0.0
 23
0.0
 14
1.0
 24
1.0
 15
0.0
 25
0.0
 16
0.0
 26
0.0
 36
17.1152628219792007
 17
3803.5440673828129547
 27
125.9952621967499056
 37
0.0
 40
82.2815923618316987
 41
2.2182448036951499
 42
50.0
 43
0.0
 44
0.0
 50
0.0
 51
0.0
 71
     0
 72
   100
 73
     1
 74
     1
 75
     0
 76
     0
 77
     0
 78
     0
  0
ENDTAB
  0
TABLE
  2
LTYPE
 70
     2
  0
LTYPE
  2
CONTINUOUS
 70
     0
  3
Solid line
 72
    65
 73
     0
 40
0.0
  0
LTYPE
  2
PHANTOM2
 70
     0
  3
___ _ _ ___ _ _ ___ _ _ ___ _ _
 72
    65
 73
     6
 40
1.25
 49
0.625
 49
-0.125
 49
0.125
 49
-0.125
 49
0.125
 49
-0.125
  0
ENDTAB
  0
TABLE
  2
LAYER
 70
     2
  0
LAYER
  2
0
 70
     0
 62
   255
  6
CONTINUOUS
  0
LAYER
  2
DEFPOINTS
 70
     0
 62
     7
  6
CONTINUOUS
  0
ENDTAB
  0
TABLE
  2
STYLE
 70
     1
  0
STYLE
  2
STANDARD
 70
     0
 40
0.0
 41
0.8
 50
0.0
 71
     0
 42
0.2
  3
txt
  4

  0
ENDTAB
  0
TABLE
  2
VIEW
 70
     0
  0
ENDTAB
  0
TABLE
  2
UCS
 70
     0
  0
ENDTAB
  0
TABLE
  2
APPID
 70
     9
  0
APPID
  2
ACAD
 70
     0
  0
APPID
  2
ACAD_MLEADERVER
 70
     0
  0
APPID
  2
ACAD_EXEMPT_FROM_CAD_STANDARDS
 70
     0
  0
APPID
  2
ACAD_NAV_VCDISPLAY
 70
     0
  0
APPID
  2
ACAECLAYERSTANDARD
 70
     0
  0
APPID
  2
ACCMTRANSPARENCY
 70
     0
  0
APPID
  2
ACAD_DSTYLE_DIMJAG
 70
     0
  0
APPID
  2
ACAD_DSTYLE_DIMTALN
 70
     0
  0
APPID
  2
ACDBATTR
 70
     0
  0
ENDTAB
  0
TABLE
  2
DIMSTYLE
 70
     1
  0
DIMSTYLE
  2
STANDARD
 70
     0
  3

  4

  5

  6

  7

 40
1.0
 41
0.1875
 42
0.0625
 43
0.38
 44
0.125
 45
0.0
 46
0.0
 47
0.01
 48
0.01
140
0.15625
141
0.09
142
0.0
143
25.3999999999999986
144
1.0
145
0.0
146
1.0
147
0.09
 71
     1
 72
     0
 73
     1
 74
     1
 75
     0
 76
     0
 77
     0
 78
     4
170
     0
171
     2
172
     0
173
     0
174
     0
175
     0
176
     0
177
     0
178
     0
  0
ENDTAB
  0
ENDSEC
  0
SECTION
  2
BLOCKS
  0
BLOCK
  8
0
  2
$MODEL_SPACE
 70
     0
 10
0.0
 20
0.0
 30
0.0
  3
$MODEL_SPACE
  1

  0
ENDBLK
  5
21
  8
0
  0
BLOCK
 67
     1
  8
0
  2
$PAPER_SPACE
 70
     0
 10
0.0
 20
0.0
 30
0.0
  3
$PAPER_SPACE
  1

  0
ENDBLK
  5
1D
 67
     1
  8
0
  0
BLOCK
  8
0
  2
_FILLED
 70
     0
 10
0.0
 20
0.0
 30
0.0
  3
_FILLED
  1

  0
SOLID
  5
A5FC
  8
0
  6
BYBLOCK
 62
     0
 10
0.0
 20
0.0
 30
0.0
 11
-1.0
 21
0.1666666667
 31
0.0
 12
-1.0
 22
-0.1666666667
 32
0.0
 13
-1.0
 23
-0.1666666667
 33
0.0
  0
ENDBLK
  5
A5FD
  8
0
  6
BYBLOCK
 62
     0
  0
BLOCK
  8
0
  2
A$C854D2D05
 70
     0
 10
0.0
 20
0.0
 30
0.0
  3
A$C854D2D05
  1

  0
LINE
  5
B163
  8
0
 10
62.5802977659767521
 20
37.7171134218237114
 30
0.0
 11
18.6072977659767389
 21
37.7171134218237114
 31
0.0
  0
LINE
  5
B164
  8
0
 10
18.6072977659767389
 20
37.7171134218237114
 30
0.0
 11
18.6072977659767389
 21
37.7951134218237215
 31
0.0
  0
LINE
  5
B165
  8
0
 10
19.0500019798767504
 20
37.7951134218237215
 30
0.0
 11
18.2812977659767206
 21
37.7951134218237215
 31
0.0
  0
LINE
  5
B166
  8
0
 10
18.2812977659767206
 20
37.7951134218237215
 30
0.0
 11
18.2812977659767206
 21
38.712613421823697
 31
0.0
  0
LINE
  5
B167
  8
0
 10
18.2812977659767206
 20
38.7707466213237169
 30
0.0
 11
18.2812977659767206
 21
39.0576134218237314
 31
0.0
  0
LINE
  5
B168
  8
0
 10
18.2812977659767206
 20
39.557613421823703
 30
0.0
 11
18.2812977659767206
 21
116.1167612742200959
 31
0.0
  0
LINE
  5
B169
  8
0
 10
19.0500019798767504
 20
37.7951134218237215
 30
0.0
 11
19.0500019798767504
 21
116.0411134220236988
 31
0.0
  0
LINE
  5
B16A
  8
0
 10
19.0138765534062983
 20
116.1211134220236971
 30
0.0
 11
18.284091427576751
 21
116.1211134220236971
 31
0.0
  0
LINE
  5
B16B
  8
0
 10
19.0552977659767215
 20
116.0411134220236988
 30
0.0
 11
18.2812977659767206
 21
116.0411134220236988
 31
0.0
  0
LINE
  5
B16C
  8
0
 10
19.0552977659767215
 20
116.0411134220236988
 30
0.0
 11
19.0538521864864414
 21
116.0825094019099026
 31
0.0
  0
ARC
  5
B16D
  8
0
 10
19.0138765534062486
 20
116.0811134220237051
 30
0.0
 40
0.04
 50
2.0000000260387938
 51
89.9999999999869686
  0
LINE
  5
B16E
  8
0
 10
18.3009487178749204
 20
116.0040334726237035
 30
0.0
 11
18.3412977659767193
 21
116.0033291774236943
 31
0.0
  0
LINE
  5
B16F
  8
0
 10
18.284091427576751
 20
116.1211134220236971
 30
0.0
 11
18.2812977659767206
 21
116.0411134220236988
 31
0.0
  0
ARC
  5
B170
  8
0
 10
18.3012977659766989
 20
116.0240304265273039
 30
0.0
 40
0.02
 50
179.9999999999787974
 51
269.0000000772046747
  0
LINE
  5
B171
  8
0
 10
18.301646814108441
 20
116.1367582281231989
 30
0.0
 11
18.6002977659767303
 21
116.131545256323605
 31
0.0
  0
ARC
  5
B172
  8
0
 10
18.3012977659767486
 20
116.1167612742200959
 30
0.0
 40
0.02
 50
88.9999999916071971
 51
180.0
  0
LINE
  5
B173
  8
0
 10
18.2812977659767206
 20
38.7707466213237169
 30
0.0
 11
18.3412977659767193
 21
38.7738910881236905
 31
0.0
  0
LINE
  5
B174
  8
0
 10
18.2812977659767206
 20
38.712613421823697
 30
0.0
 11
18.3412977659767193
 21
38.712613421823697
 31
0.0
  0
LINE
  5
B175
  8
0
 10
18.3412977659767193
 20
37.7951134218237215
 30
0.0
 11
18.3412977659767193
 21
116.0411134220236988
 31
0.0
  0
ARC
  5
B176
  8
0
 10
18.5802977659766917
 20
116.1118913111236992
 30
0.0
 40
0.0200000000000094
 50
27.4584693396840507
 51
88.9999999920730147
  0
LINE
  5
B177
  8
0
 10
18.6002977659767303
 20
116.1211134220236971
 30
0.0
 11
18.6002977659767303
 21
119.3251665047236969
 31
0.0
  0
LINE
  5
B178
  8
0
 10
18.6631589365767283
 20
116.1211134220236971
 30
0.0
 11
18.6631589365767283
 21
119.2612357262237026
 31
0.0
  0
LINE
  5
B179
  8
0
 10
18.2717704147767108
 20
39.0576134218237314
 30
0.0
 11
18.3412977659767193
 21
39.0576134218237314
 31
0.0
  0
LINE
  5
B17A
  8
0
 10
18.2717704147767108
 20
39.0576134218237314
 30
0.0
 11
18.2717704147767108
 21
39.557613421823703
 31
0.0
  0
LINE
  5
B17B
  8
0
 10
18.2717704147767108
 20
39.557613421823703
 30
0.0
 11
18.3412977659767193
 21
39.557613421823703
 31
0.0
  0
LINE
  5
B17C
  8
0
 10
18.3412977659767193
 20
39.051555045923692
 30
0.0
 11
18.2812977659767206
 21
39.0505168418237432
 31
0.0
  0
LINE
  5
B17D
  8
0
 10
18.3412977659767193
 20
39.0355580919237184
 30
0.0
 11
18.2812977659767206
 21
39.0345198879237216
 31
0.0
  0
LINE
  5
B17E
  8
0
 10
18.3412977659767193
 20
39.0296967606552201
 30
0.0
 11
18.2812977659767206
 21
39.0286585566236965
 31
0.0
  0
LINE
  5
B17F
  8
0
 10
18.3412977659767193
 20
38.8686607257237213
 30
0.0
 11
18.2812977659767206
 21
38.8676134218237266
 31
0.0
  0
LINE
  5
B180
  8
0
 10
18.3412977659767193
 20
38.8846582889237311
 30
0.0
 11
18.2812977659767206
 21
38.8836109850237222
 31
0.0
  0
LINE
  5
B181
  8
0
 10
18.3412977659767193
 20
38.9584872088457814
 30
0.0
 11
18.2812977659767206
 21
38.9584872088457814
 31
0.0
  0
LINE
  5
B182
  8
0
 10
18.3412977659767193
 20
38.9740661179237122
 30
0.0
 11
18.2812977659767206
 21
38.9751134218237212
 31
0.0
  0
LINE
  5
B183
  8
0
 10
18.3412977659767193
 20
39.5636717977236572
 30
0.0
 11
18.2812977659767206
 21
39.5647100018237268
 31
0.0
  0
LINE
  5
B184
  8
0
 10
18.3412977659767193
 20
39.5796687517237373
 30
0.0
 11
18.2812977659767206
 21
39.5807069558237004
 31
0.0
  0
LINE
  5
B185
  8
0
 10
18.3412977659767193
 20
39.585530083092209
 30
0.0
 11
18.2812977659767206
 21
39.586568287123761
 31
0.0
  0
LINE
  5
B186
  8
0
 10
18.3412977659767193
 20
39.6411607257237222
 30
0.0
 11
18.2812977659767206
 21
39.6401134218237203
 31
0.0
  0
LINE
  5
B187
  8
0
 10
18.3412977659767193
 20
39.6571582889237106
 30
0.0
 11
18.2812977659767206
 21
39.6561109850237301
 31
0.0
  0
LINE
  5
B188
  8
0
 10
18.3412977659767193
 20
39.8376134218237112
 30
0.0
 11
18.2812977659767206
 21
39.8376134218237112
 31
0.0
  0
LINE
  5
B189
  8
0
 10
18.3412977659767193
 20
39.7465661179237202
 30
0.0
 11
18.2812977659767206
 21
39.7476134218237291
 31
0.0
  0
LINE
  5
B18A
  8
0
 10
18.3412977659767193
 20
39.7305685548237193
 30
0.0
 11
18.2812977659767206
 21
39.7316158587237283
 31
0.0
  0
LINE
  5
B18B
  8
0
 10
18.3412977659767193
 20
115.9381134220237044
 30
0.0
 11
18.2812977659767206
 21
115.9381134220237044
 31
0.0
  0
LINE
  5
B18C
  8
0
 10
62.5802977659767521
 20
37.7171134218237114
 30
0.0
 11
62.5802977659767521
 21
37.7951134218237215
 31
0.0
  0
LINE
  5
B18D
  8
0
 10
62.1375935520767371
 20
37.7951134218237215
 30
0.0
 11
62.9062977659766602
 21
37.7951134218237215
 31
0.0
  0
LINE
  5
B18E
  8
0
 10
62.9062977659766602
 20
37.7951134218237215
 30
0.0
 11
62.9062977659766602
 21
38.712613421823697
 31
0.0
  0
LINE
  5
B18F
  8
0
 10
62.9062977659766602
 20
38.7707466213237169
 30
0.0
 11
62.9062977659767668
 21
39.0576134218237314
 31
0.0
  0
LINE
  5
B190
  8
0
 10
62.9062977659766602
 20
39.557613421823703
 30
0.0
 11
62.9062977659766602
 21
116.1167612742200959
 31
0.0
  0
LINE
  5
B191
  8
0
 10
62.1375935520767371
 20
37.7951134218237215
 30
0.0
 11
62.1375935520767371
 21
116.0411134220236988
 31
0.0
  0
LINE
  5
B192
  8
0
 10
62.1737189785471784
 20
116.1211134220236971
 30
0.0
 11
62.9035041043766725
 21
116.1211134220236971
 31
0.0
  0
LINE
  5
B193
  8
0
 10
62.1322977659766593
 20
116.0411134220236988
 30
0.0
 11
62.9062977659766602
 21
116.0411134220236988
 31
0.0
  0
LINE
  5
B194
  8
0
 10
62.1322977659766593
 20
116.0411134220236988
 30
0.0
 11
62.1337433454669892
 21
116.0825094019099026
 31
0.0
  0
ARC
  5
B195
  8
0
 10
62.1737189785471784
 20
116.0811134220237051
 30
0.0
 40
0.04
 50
90.0000000000097771
 51
177.9999999739611951
  0
LINE
  5
B196
  8
0
 10
62.8866468140785102
 20
116.0040334726237035
 30
0.0
 11
62.8462977659767219
 21
116.0033291774236943
 31
0.0
  0
LINE
  5
B197
  8
0
 10
62.9035041043766725
 20
116.1211134220236971
 30
0.0
 11
62.9062977659767668
 21
116.0411134220236988
 31
0.0
  0
ARC
  5
B198
  8
0
 10
62.8862977659766784
 20
116.0240304265273039
 30
0.0
 40
0.02
 50
270.9999999227919716
 51
0.0000000000195413
  0
LINE
  5
B199
  8
0
 10
62.8859487178450465
 20
116.1367582281231989
 30
0.0
 11
61.9369487178449774
 21
116.1201933713671934
 31
0.0
  0
ARC
  5
B19A
  8
0
 10
62.8862977659766784
 20
116.1167612742200959
 30
0.0
 40
0.02
 50
0.0
 51
91.0000000083895344
  0
LINE
  5
B19B
  8
0
 10
62.9062977659766602
 20
38.7707466213237169
 30
0.0
 11
62.8462977659767219
 21
38.7738910881236905
 31
0.0
  0
LINE
  5
B19C
  8
0
 10
62.9062977659766602
 20
38.712613421823697
 30
0.0
 11
62.8462977659767219
 21
38.712613421823697
 31
0.0
  0
LINE
  5
B19D
  8
0
 10
62.8462977659767219
 20
37.7951134218237215
 30
0.0
 11
62.8462977659767219
 21
116.0411134220236988
 31
0.0
  0
ARC
  5
B19E
  8
0
 10
62.6072977659766821
 20
116.1118913111236992
 30
0.0
 40
0.0200000000000094
 50
91.0000000079302538
 51
152.5415306603159138
  0
LINE
  5
B19F
  8
0
 10
62.5872977659767002
 20
116.131545256323605
 30
0.0
 11
62.5872977659767002
 21
119.3625333238236976
 31
0.0
  0
LINE
  5
B1A0
  8
0
 10
62.5244365953767485
 20
116.1304480105002028
 30
0.0
 11
62.5244365953767485
 21
119.3000333238236976
 31
0.0
  0
LINE
  5
B1A1
  8
0
 10
62.9158251171767233
 20
39.0576134218237314
 30
0.0
 11
62.8462977659767219
 21
39.0576134218237314
 31
0.0
  0
LINE
  5
B1A2
  8
0
 10
62.9158251171767233
 20
39.0576134218237314
 30
0.0
 11
62.9158251171767233
 21
39.557613421823703
 31
0.0
  0
LINE
  5
B1A3
  8
0
 10
62.9158251171767233
 20
39.557613421823703
 30
0.0
 11
62.8462977659767219
 21
39.557613421823703
 31
0.0
  0
LINE
  5
B1A4
  8
0
 10
62.8462977659767219
 20
39.051555045923692
 30
0.0
 11
62.9062977659766602
 21
39.0505168418237432
 31
0.0
  0
LINE
  5
B1A5
  8
0
 10
62.8462977659767219
 20
39.0355580919237184
 30
0.0
 11
62.9062977659766602
 21
39.0345198879237216
 31
0.0
  0
LINE
  5
B1A6
  8
0
 10
62.8462977659767219
 20
39.0296967606552201
 30
0.0
 11
62.9062977659766602
 21
39.0286585566236965
 31
0.0
  0
LINE
  5
B1A7
  8
0
 10
62.8462977659767219
 20
38.8686607257237213
 30
0.0
 11
62.9062977659766602
 21
38.8676134218237266
 31
0.0
  0
LINE
  5
B1A8
  8
0
 10
62.8462977659767219
 20
38.8846582889237311
 30
0.0
 11
62.9062977659766602
 21
38.8836109850237222
 31
0.0
  0
LINE
  5
B1A9
  8
0
 10
62.8462977659767219
 20
38.9584872088457814
 30
0.0
 11
62.9062977659766602
 21
38.9584872088457814
 31
0.0
  0
LINE
  5
B1AA
  8
0
 10
62.8462977659767219
 20
38.9740661179237122
 30
0.0
 11
62.9062977659766602
 21
38.9751134218237212
 31
0.0
  0
LINE
  5
B1AB
  8
0
 10
62.8462977659767219
 20
39.5636717977236572
 30
0.0
 11
62.9062977659766602
 21
39.5647100018237268
 31
0.0
  0
LINE
  5
B1AC
  8
0
 10
62.8462977659767219
 20
39.5796687517237373
 30
0.0
 11
62.9062977659766602
 21
39.5807069558237004
 31
0.0
  0
LINE
  5
B1AD
  8
0
 10
62.8462977659767219
 20
39.585530083092209
 30
0.0
 11
62.9062977659766602
 21
39.586568287123761
 31
0.0
  0
LINE
  5
B1AE
  8
0
 10
62.8462977659767219
 20
39.6411607257237222
 30
0.0
 11
62.9062977659766602
 21
39.6401134218237203
 31
0.0
  0
LINE
  5
B1AF
  8
0
 10
62.8462977659767219
 20
39.6571582889237106
 30
0.0
 11
62.9062977659766602
 21
39.6561109850237301
 31
0.0
  0
LINE
  5
B1B0
  8
0
 10
62.8462977659767219
 20
39.8376134218237112
 30
0.0
 11
62.9062977659766602
 21
39.8376134218237112
 31
0.0
  0
LINE
  5
B1B1
  8
0
 10
62.8462977659767219
 20
39.7465661179237202
 30
0.0
 11
62.9062977659766602
 21
39.7476134218237291
 31
0.0
  0
LINE
  5
B1B2
  8
0
 10
62.8462977659767219
 20
39.7305685548237193
 30
0.0
 11
62.9062977659766602
 21
39.7316158587237283
 31
0.0
  0
LINE
  5
B1B3
  8
0
 10
62.8462977659767219
 20
115.9381134220237044
 30
0.0
 11
62.9062977659766602
 21
115.9381134220237044
 31
0.0
  0
LINE
  5
B1B4
  8
0
 10
62.1375935520767371
 20
38.7611134218237225
 30
0.0
 11
19.0500019798767504
 21
38.7611134218237225
 31
0.0
  0
LINE
  5
B1B5
  8
0
 10
44.10029776597667
 20
38.7611134218237083
 30
0.0
 11
44.10029776597667
 21
119.3251665047236969
 31
0.0
  0
LINE
  5
B1B6
  8
0
 10
44.0374365953766684
 20
38.7611134218237083
 30
0.0
 11
44.0374365953766684
 21
119.2612357262237026
 31
0.0
  0
LINE
  5
B1B7
  8
0
 10
62.5244365953767485
 20
119.3000333238236976
 30
0.0
 11
44.10029776597667
 21
119.3000333238236976
 31
0.0
  0
LINE
  5
B1B8
  8
0
 10
61.9369487178446434
 20
113.1540334726242065
 30
0.0
 11
62.1375935520767371
 21
113.150531203981302
 31
0.0
  0
LINE
  5
B1B9
  8
0
 10
61.9172977659767412
 20
116.1001964174641046
 30
0.0
 11
61.9172977659767412
 21
113.1740304265272954
 31
0.0
  0
ARC
  5
B1BA
  8
0
 10
61.937297765976723
 20
116.1001964174641046
 30
0.0
 40
0.02
 50
91.0000000084221341
 51
180.0000000000194973
  0
ARC
  5
B1BB
  8
0
 10
61.937297765976723
 20
113.1740304265272954
 30
0.0
 40
0.02
 50
180.0000000000194973
 51
268.9999999903042749
  0
LINE
  5
B1BC
  8
0
 10
61.9172977659766772
 20
113.3691134220237018
 30
0.0
 11
44.10029776597667
 21
113.3691134220237018
 31
0.0
  0
LINE
  5
B1BD
  8
0
 10
61.9172977659766772
 20
115.9151134220236941
 30
0.0
 11
44.10029776597667
 21
115.9151134220236941
 31
0.0
  0
LINE
  5
B1BE
  8
0
 10
44.0374365953766684
 20
119.2612357262237026
 30
0.0
 11
44.10029776597667
 21
119.3251665047236969
 31
0.0
  0
LINE
  5
B1BF
  8
0
 10
44.0374365953766684
 20
119.2612357262237026
 30
0.0
 11
18.6631589365767283
 21
119.2612357262237026
 31
0.0
  0
LINE
  5
B1C0
  8
0
 10
62.5872977659767002
 20
119.3625333238236976
 30
0.0
 11
37.0872977659767002
 21
119.3625333238236976
 31
0.0
  0
LINE
  5
B1C1
  8
0
 10
62.5244365953767485
 20
119.3000333238236976
 30
0.0
 11
62.5872977659767002
 21
119.3625333238236976
 31
0.0
  0
LINE
  5
B1C2
  8
0
 10
44.10029776597667
 20
119.3251665047236969
 30
0.0
 11
18.6002977659767303
 21
119.3251665047236969
 31
0.0
  0
LINE
  5
B1C3
  8
0
 10
37.0872977659767002
 20
119.3625333238236976
 30
0.0
 11
37.0872977659767002
 21
119.3251665047236969
 31
0.0
  0
LINE
  5
B1C4
  8
0
 10
18.6631589365767283
 20
119.2612357262237026
 30
0.0
 11
18.6002977659767303
 21
119.3251665047236969
 31
0.0
  0
CIRCLE
  5
B1C5
  8
0
 10
20.60030717927674
 20
116.5713119956237023
 30
0.0
 40
0.9381757812926885
  0
CIRCLE
  5
B1C6
  8
0
 10
20.60030717927674
 20
116.5713119956237023
 30
0.0
 40
0.8971380783999975
  0
CIRCLE
  5
B1C7
  8
0
 10
42.100297553376663
 20
116.5707425913236932
 30
0.0
 40
0.9381757812926885
  0
CIRCLE
  5
B1C8
  8
0
 10
42.100297553376663
 20
116.5707425913236932
 30
0.0
 40
0.8971380783999975
  0
CIRCLE
  5
B1C9
  8
0
 10
58.8372977659767287
 20
75.6745333237236935
 30
0.0
 40
0.3945247403998919
  0
CIRCLE
  5
B1CA
  8
0
 10
58.8372977659767287
 20
75.6745333237236935
 30
0.0
 40
0.37452472617169
  0
LINE
  5
B1CB
  8
0
 10
20.4006209071124509
 20
75.1903369076237169
 30
0.0
 11
20.4006209071124509
 21
76.0703369076237124
 31
0.0
  0
LINE
  5
B1CC
  8
0
 10
20.4006209071124509
 20
76.0703369076237124
 30
0.0
 11
42.2999743928420031
 21
76.0703369076237124
 31
0.0
  0
LINE
  5
B1CD
  8
0
 10
42.2999743928420031
 20
76.0703369076237124
 30
0.0
 11
42.2999743928420031
 21
75.1903369076237169
 31
0.0
  0
LINE
  5
B1CE
  8
0
 10
42.2999743928420031
 20
75.1903369076237169
 30
0.0
 11
20.4006209071124509
 21
75.1903369076237169
 31
0.0
  0
LINE
  5
B1CF
  8
0
 10
20.4006209071124509
 20
75.1903369076237169
 30
0.0
 11
20.3503053796124398
 21
75.2403629916236838
 31
0.0
  0
LINE
  5
B1D0
  8
0
 10
20.3503053796124398
 20
75.2403629916236838
 30
0.0
 11
20.3502952405124695
 21
76.0202779848236929
 31
0.0
  0
LINE
  5
B1D1
  8
0
 10
20.3502952405124695
 20
76.0202779848236929
 30
0.0
 11
20.4006209071124509
 21
76.0703369076237124
 31
0.0
  0
LINE
  5
B1D2
  8
0
 10
42.2999743928420031
 20
75.1903369076237169
 30
0.0
 11
42.350289920342
 21
75.2403629916236838
 31
0.0
  0
LINE
  5
B1D3
  8
0
 10
42.350289920342
 20
75.2403629916236838
 30
0.0
 11
42.3503000594419916
 21
76.0202779848236929
 31
0.0
  0
LINE
  5
B1D4
  8
0
 10
42.3503000594419916
 20
76.0202779848236929
 30
0.0
 11
42.2999743928420031
 21
76.0703369076237124
 31
0.0
  0
LINE
  5
B1D5
  8
0
 10
37.124664748541818
 20
119.3251665047236969
 30
0.0
 11
37.0872977659767002
 21
119.3625333238236976
 31
0.0
  0
LINE
  5
B1D6
  8
0
 10
40.5937977659767171
 20
37.7171134218237114
 30
0.0
 11
-0.0000002788318625
 21
-0.0000000124735209
 31
0.0
  0
ENDBLK
  5
B1DA
  8
0
  0
ENDSEC
  0
SECTION
  2
ENTITIES
  0
ATTDEF
  5
3930
  8
DEFPOINTS
 10
5014.8202997195976423
 20
171.1455847934363987
 30
0.0
 40
0.001
  1
K-702428-L
  3

  2
MODELNUMBER
 70
     0
1001
ACDBATTR
1070
     0
1070
     1
  0
ATTDEF
  5
3931
  8
DEFPOINTS
 10
5014.8202997195976423
 20
171.1439181267697052
 30
0.0
 40
0.001
  1
KOHLER
  3

  2
BRANDNAME
 70
     0
1001
ACDBATTR
1070
     0
1070
     1
  0
ATTDEF
  5
3932
  8
DEFPOINTS
 10
5014.8202997195976423
 20
171.1422514601030116
 30
0.0
 40
0.001
  1
SHOWER DOOR
  3

  2
PRODUCT
 70
     0
1001
ACDBATTR
1070
     0
1070
     1
  0
LINE
  5
B0EE
  8
0
 10
5036.8117530854051438
 20
171.1469511876570948
 30
0.0
 11
4992.8387530854051874
 21
171.1469511876570948
 31
0.0
  0
LINE
  5
B0EF
  8
0
 10
4992.8387530854051874
 20
171.1469511876570948
 30
0.0
 11
4992.8387530854051874
 21
171.2249511876570978
 31
0.0
  0
LINE
  5
B0F0
  8
0
 10
4993.2814572993038382
 20
171.2249511876570978
 30
0.0
 11
4992.5127530854060751
 21
171.2249511876570978
 31
0.0
  0
LINE
  5
B0F1
  8
0
 10
4992.5127530854060751
 20
171.2249511876570978
 30
0.0
 11
4992.5127530854060751
 21
172.1424511876570875
 31
0.0
  0
LINE
  5
B0F2
  8
0
 10
4992.5127530854060751
 20
172.2005843871571074
 30
0.0
 11
4992.5127530854060751
 21
172.4874511876572001
 31
0.0
  0
LINE
  5
B0F3
  8
0
 10
4992.5127530854060751
 20
172.9874511876570864
 30
0.0
 11
4992.5127530854060751
 21
249.5465990400535929
 31
0.0
  0
LINE
  5
B0F4
  8
0
 10
4993.2814572993038382
 20
171.2249511876570978
 30
0.0
 11
4993.2814572993038382
 21
249.4709511878571107
 31
0.0
  0
LINE
  5
B0F5
  8
0
 10
4993.2453318728339582
 20
249.5509511878572084
 30
0.0
 11
4992.5155467470049189
 21
249.5509511878572084
 31
0.0
  0
LINE
  5
B0F6
  8
0
 10
4993.2867530854045981
 20
249.4709511878571107
 30
0.0
 11
4992.5127530854060751
 21
249.4709511878571107
 31
0.0
  0
LINE
  5
B0F7
  8
0
 10
4993.2867530854045981
 20
249.4709511878571107
 30
0.0
 11
4993.2853075059147159
 21
249.5123471677433997
 31
0.0
  0
ARC
  5
B0F8
  8
0
 10
4993.2453318728339582
 20
249.5109511878571027
 30
0.0
 40
0.04
 50
2.0000000260382969
 51
90.0
  0
LINE
  5
B0F9
  8
0
 10
4992.5324040373034222
 20
249.4338712384571863
 30
0.0
 11
4992.5727530854037468
 21
249.4331669432571061
 31
0.0
  0
LINE
  5
B0FA
  8
0
 10
4992.5155467470049189
 20
249.5509511878572084
 30
0.0
 11
4992.5127530854060751
 21
249.4709511878571107
 31
0.0
  0
ARC
  5
B0FB
  8
0
 10
4992.5327530854046927
 20
249.4538681923606873
 30
0.0
 40
0.02
 50
179.9999999999787974
 51
269.0000000772112116
  0
LINE
  5
B0FC
  8
0
 10
4992.533102133536886
 20
249.5665959939566108
 30
0.0
 11
4992.8317530854037614
 21
249.5613830221570879
 31
0.0
  0
ARC
  5
B0FD
  8
0
 10
4992.5327530854046927
 20
249.5465990400535929
 30
0.0
 40
0.02
 50
88.999999991581177
 51
180.0
  0
LINE
  5
B0FE
  8
0
 10
4992.5127530854060751
 20
172.2005843871571074
 30
0.0
 11
4992.5727530854037468
 21
172.2037288539571023
 31
0.0
  0
LINE
  5
B0FF
  8
0
 10
4992.5127530854060751
 20
172.1424511876570875
 30
0.0
 11
4992.5727530854037468
 21
172.1424511876570875
 31
0.0
  0
LINE
  5
B100
  8
0
 10
4992.5727530854037468
 20
171.2249511876570978
 30
0.0
 11
4992.5727530854037468
 21
249.4709511878571107
 31
0.0
  0
ARC
  5
B101
  8
0
 10
4992.8117530854051438
 20
249.5417290769572105
 30
0.0
 40
0.0200000000000094
 50
27.4584693396861503
 51
88.9999999920502205
  0
LINE
  5
B102
  8
0
 10
4992.8317530854037614
 20
249.5509511878572084
 30
0.0
 11
4992.8317530854037614
 21
252.7550042705572082
 31
0.0
  0
LINE
  5
B103
  8
0
 10
4992.8946142560052976
 20
249.5509511878572084
 30
0.0
 11
4992.8946142560052976
 21
252.6910734920571997
 31
0.0
  0
LINE
  5
B104
  8
0
 10
4992.5032257342036246
 20
172.4874511876572001
 30
0.0
 11
4992.5727530854037468
 21
172.4874511876572001
 31
0.0
  0
LINE
  5
B105
  8
0
 10
4992.5032257342036246
 20
172.4874511876572001
 30
0.0
 11
4992.5032257342036246
 21
172.9874511876570864
 31
0.0
  0
LINE
  5
B106
  8
0
 10
4992.5032257342036246
 20
172.9874511876570864
 30
0.0
 11
4992.5727530854037468
 21
172.9874511876570864
 31
0.0
  0
LINE
  5
B107
  8
0
 10
4992.5727530854037468
 20
172.4813928117571038
 30
0.0
 11
4992.5127530854060751
 21
172.4803546076572047
 31
0.0
  0
LINE
  5
B108
  8
0
 10
4992.5727530854037468
 20
172.4653958577571018
 30
0.0
 11
4992.5127530854060751
 21
172.464357653757105
 31
0.0
  0
LINE
  5
B109
  8
0
 10
4992.5727530854037468
 20
172.4595345264885964
 30
0.0
 11
4992.5127530854060751
 21
172.4584963224571084
 31
0.0
  0
LINE
  5
B10A
  8
0
 10
4992.5727530854037468
 20
172.2984984915570976
 30
0.0
 11
4992.5127530854060751
 21
172.2974511876572024
 31
0.0
  0
LINE
  5
B10B
  8
0
 10
4992.5727530854037468
 20
172.3144960547570861
 30
0.0
 11
4992.5127530854060751
 21
172.3134487508571056
 31
0.0
  0
LINE
  5
B10C
  8
0
 10
4992.5727530854037468
 20
172.3883249746791932
 30
0.0
 11
4992.5127530854060751
 21
172.3883249746791932
 31
0.0
  0
LINE
  5
B10D
  8
0
 10
4992.5727530854037468
 20
172.4039038837570956
 30
0.0
 11
4992.5127530854060751
 21
172.4049511876571898
 31
0.0
  0
LINE
  5
B10E
  8
0
 10
4992.5727530854037468
 20
172.9935095635570974
 30
0.0
 11
4992.5127530854060751
 21
172.9945477676571102
 31
0.0
  0
LINE
  5
B10F
  8
0
 10
4992.5727530854037468
 20
173.0095065175572131
 30
0.0
 11
4992.5127530854060751
 21
173.0105447216571122
 31
0.0
  0
LINE
  5
B110
  8
0
 10
4992.5727530854037468
 20
173.0153678489255924
 30
0.0
 11
4992.5127530854060751
 21
173.0164060529571941
 31
0.0
  0
LINE
  5
B111
  8
0
 10
4992.5727530854037468
 20
173.0709984915571056
 30
0.0
 11
4992.5127530854060751
 21
173.0699511876570966
 31
0.0
  0
LINE
  5
B112
  8
0
 10
4992.5727530854037468
 20
173.086996054757094
 30
0.0
 11
4992.5127530854060751
 21
173.0859487508571135
 31
0.0
  0
LINE
  5
B113
  8
0
 10
4992.5727530854037468
 20
173.2674511876570875
 30
0.0
 11
4992.5127530854060751
 21
173.2674511876570875
 31
0.0
  0
LINE
  5
B114
  8
0
 10
4992.5727530854037468
 20
173.1764038837571036
 30
0.0
 11
4992.5127530854060751
 21
173.1774511876571125
 31
0.0
  0
LINE
  5
B115
  8
0
 10
4992.5727530854037468
 20
173.1604063206571027
 30
0.0
 11
4992.5127530854060751
 21
173.1614536245571117
 31
0.0
  0
LINE
  5
B116
  8
0
 10
4992.5727530854037468
 20
249.3679511878571873
 30
0.0
 11
4992.5127530854060751
 21
249.3679511878571873
 31
0.0
  0
LINE
  5
B117
  8
0
 10
5036.8117530854051438
 20
171.1469511876570948
 30
0.0
 11
5036.8117530854051438
 21
171.2249511876570978
 31
0.0
  0
LINE
  5
B118
  8
0
 10
5036.369048871504674
 20
171.2249511876570978
 30
0.0
 11
5037.1377530854060751
 21
171.2249511876570978
 31
0.0
  0
LINE
  5
B119
  8
0
 10
5037.1377530854060751
 20
171.2249511876570978
 30
0.0
 11
5037.1377530854060751
 21
172.1424511876570875
 31
0.0
  0
LINE
  5
B11A
  8
0
 10
5037.1377530854060751
 20
172.2005843871571074
 30
0.0
 11
5037.1377530854060751
 21
172.4874511876572001
 31
0.0
  0
LINE
  5
B11B
  8
0
 10
5037.1377530854060751
 20
172.9874511876570864
 30
0.0
 11
5037.1377530854060751
 21
249.5465990400535929
 31
0.0
  0
LINE
  5
B11C
  8
0
 10
5036.369048871504674
 20
171.2249511876570978
 30
0.0
 11
5036.369048871504674
 21
249.4709511878571107
 31
0.0
  0
LINE
  5
B11D
  8
0
 10
5036.4051742979745541
 20
249.5509511878572084
 30
0.0
 11
5037.1349594238063219
 21
249.5509511878572084
 31
0.0
  0
LINE
  5
B11E
  8
0
 10
5036.3637530854048237
 20
249.4709511878571107
 30
0.0
 11
5037.1377530854060751
 21
249.4709511878571107
 31
0.0
  0
LINE
  5
B11F
  8
0
 10
5036.3637530854048237
 20
249.4709511878571107
 30
0.0
 11
5036.3651986648956154
 21
249.5123471677433997
 31
0.0
  0
ARC
  5
B120
  8
0
 10
5036.4051742979745541
 20
249.5109511878571027
 30
0.0
 40
0.04
 50
90.0
 51
177.9999999739617067
  0
LINE
  5
B121
  8
0
 10
5037.118102133506909
 20
249.4338712384571863
 30
0.0
 11
5037.0777530854047654
 21
249.4331669432571061
 31
0.0
  0
LINE
  5
B122
  8
0
 10
5037.1349594238063219
 20
249.5509511878572084
 30
0.0
 11
5037.1377530854060751
 21
249.4709511878571107
 31
0.0
  0
ARC
  5
B123
  8
0
 10
5037.1177530854038196
 20
249.4538681923606873
 30
0.0
 40
0.02
 50
270.9999999227886747
 51
0.0000000000195413
  0
LINE
  5
B124
  8
0
 10
5037.1174040372743548
 20
249.5665959939566108
 30
0.0
 11
5036.1684040372720119
 21
249.550031137200591
 31
0.0
  0
ARC
  5
B125
  8
0
 10
5037.1177530854038196
 20
249.5465990400535929
 30
0.0
 40
0.02
 50
0.0
 51
91.0000000083667402
  0
LINE
  5
B126
  8
0
 10
5037.1377530854060751
 20
172.2005843871571074
 30
0.0
 11
5037.0777530854047654
 21
172.2037288539571023
 31
0.0
  0
LINE
  5
B127
  8
0
 10
5037.1377530854060751
 20
172.1424511876570875
 30
0.0
 11
5037.0777530854047654
 21
172.1424511876570875
 31
0.0
  0
LINE
  5
B128
  8
0
 10
5037.0777530854047654
 20
171.2249511876570978
 30
0.0
 11
5037.0777530854047654
 21
249.4709511878571107
 31
0.0
  0
ARC
  5
B129
  8
0
 10
5036.8387530854051874
 20
249.5417290769572105
 30
0.0
 40
0.0200000000000094
 50
91.0000000079497653
 51
152.5415306603138106
  0
LINE
  5
B12A
  8
0
 10
5036.8187530854047509
 20
249.5613830221570879
 30
0.0
 11
5036.8187530854047509
 21
252.7923710896571095
 31
0.0
  0
LINE
  5
B12B
  8
0
 10
5036.7558919148050336
 20
249.5602857763335862
 30
0.0
 11
5036.7558919148050336
 21
252.7298710896571947
 31
0.0
  0
LINE
  5
B12C
  8
0
 10
5037.1472804366048877
 20
172.4874511876572001
 30
0.0
 11
5037.0777530854047654
 21
172.4874511876572001
 31
0.0
  0
LINE
  5
B12D
  8
0
 10
5037.1472804366048877
 20
172.4874511876572001
 30
0.0
 11
5037.1472804366048877
 21
172.9874511876570864
 31
0.0
  0
LINE
  5
B12E
  8
0
 10
5037.1472804366048877
 20
172.9874511876570864
 30
0.0
 11
5037.0777530854047654
 21
172.9874511876570864
 31
0.0
  0
LINE
  5
B12F
  8
0
 10
5037.0777530854047654
 20
172.4813928117571038
 30
0.0
 11
5037.1377530854060751
 21
172.4803546076572047
 31
0.0
  0
LINE
  5
B130
  8
0
 10
5037.0777530854047654
 20
172.4653958577571018
 30
0.0
 11
5037.1377530854060751
 21
172.464357653757105
 31
0.0
  0
LINE
  5
B131
  8
0
 10
5037.0777530854047654
 20
172.4595345264885964
 30
0.0
 11
5037.1377530854060751
 21
172.4584963224571084
 31
0.0
  0
LINE
  5
B132
  8
0
 10
5037.0777530854047654
 20
172.2984984915570976
 30
0.0
 11
5037.1377530854060751
 21
172.2974511876572024
 31
0.0
  0
LINE
  5
B133
  8
0
 10
5037.0777530854047654
 20
172.3144960547570861
 30
0.0
 11
5037.1377530854060751
 21
172.3134487508571056
 31
0.0
  0
LINE
  5
B134
  8
0
 10
5037.0777530854047654
 20
172.3883249746791932
 30
0.0
 11
5037.1377530854060751
 21
172.3883249746791932
 31
0.0
  0
LINE
  5
B135
  8
0
 10
5037.0777530854047654
 20
172.4039038837570956
 30
0.0
 11
5037.1377530854060751
 21
172.4049511876571898
 31
0.0
  0
LINE
  5
B136
  8
0
 10
5037.0777530854047654
 20
172.9935095635570974
 30
0.0
 11
5037.1377530854060751
 21
172.9945477676571102
 31
0.0
  0
LINE
  5
B137
  8
0
 10
5037.0777530854047654
 20
173.0095065175572131
 30
0.0
 11
5037.1377530854060751
 21
173.0105447216571122
 31
0.0
  0
LINE
  5
B138
  8
0
 10
5037.0777530854047654
 20
173.0153678489255924
 30
0.0
 11
5037.1377530854060751
 21
173.0164060529571941
 31
0.0
  0
LINE
  5
B139
  8
0
 10
5037.0777530854047654
 20
173.0709984915571056
 30
0.0
 11
5037.1377530854060751
 21
173.0699511876570966
 31
0.0
  0
LINE
  5
B13A
  8
0
 10
5037.0777530854047654
 20
173.086996054757094
 30
0.0
 11
5037.1377530854060751
 21
173.0859487508571135
 31
0.0
  0
LINE
  5
B13B
  8
0
 10
5037.0777530854047654
 20
173.2674511876570875
 30
0.0
 11
5037.1377530854060751
 21
173.2674511876570875
 31
0.0
  0
LINE
  5
B13C
  8
0
 10
5037.0777530854047654
 20
173.1764038837571036
 30
0.0
 11
5037.1377530854060751
 21
173.1774511876571125
 31
0.0
  0
LINE
  5
B13D
  8
0
 10
5037.0777530854047654
 20
173.1604063206571027
 30
0.0
 11
5037.1377530854060751
 21
173.1614536245571117
 31
0.0
  0
LINE
  5
B13E
  8
0
 10
5037.0777530854047654
 20
249.3679511878571873
 30
0.0
 11
5037.1377530854060751
 21
249.3679511878571873
 31
0.0
  0
LINE
  5
B13F
  8
0
 10
5036.369048871504674
 20
172.1909511876571059
 30
0.0
 11
4993.2814572993038382
 21
172.1909511876571059
 31
0.0
  0
LINE
  5
B140
  8
0
 10
5018.3317530854046709
 20
172.1909511876571059
 30
0.0
 11
5018.3317530854046709
 21
252.7550042705572082
 31
0.0
  0
LINE
  5
B141
  8
0
 10
5018.2688919148049536
 20
172.1909511876571059
 30
0.0
 11
5018.2688919148049536
 21
252.6910734920571997
 31
0.0
  0
LINE
  5
B142
  8
0
 10
5036.7558919148050336
 20
252.7298710896571947
 30
0.0
 11
5018.3317530854046709
 21
252.7298710896571947
 31
0.0
  0
LINE
  5
B143
  8
0
 10
5036.1684040372720119
 20
246.5838712384577036
 30
0.0
 11
5036.369048871504674
 21
246.5803689698147991
 31
0.0
  0
LINE
  5
B144
  8
0
 10
5036.1487530854046781
 20
249.5300341832976017
 30
0.0
 11
5036.1487530854046781
 21
246.6038681923608067
 31
0.0
  0
ARC
  5
B145
  8
0
 10
5036.1687530854051147
 20
249.5300341832976017
 30
0.0
 40
0.02
 50
91.0000000084188656
 51
180.0000000000194973
  0
ARC
  5
B146
  8
0
 10
5036.1687530854051147
 20
246.6038681923608067
 30
0.0
 40
0.02
 50
180.0000000000194973
 51
268.9999999902781838
  0
LINE
  5
B147
  8
0
 10
5036.1487530854046781
 20
246.7989511878571136
 30
0.0
 11
5018.3317530854046709
 21
246.7989511878571136
 31
0.0
  0
LINE
  5
B148
  8
0
 10
5036.1487530854046781
 20
249.3449511878571911
 30
0.0
 11
5018.3317530854046709
 21
249.3449511878571911
 31
0.0
  0
LINE
  5
B149
  8
0
 10
5018.2688919148049536
 20
252.6910734920571997
 30
0.0
 11
5018.3317530854046709
 21
252.7550042705572082
 31
0.0
  0
LINE
  5
B14A
  8
0
 10
5018.2688919148049536
 20
252.6910734920571997
 30
0.0
 11
4992.8946142560052976
 21
252.6910734920571997
 31
0.0
  0
LINE
  5
B14B
  8
0
 10
5036.8187530854047509
 20
252.7923710896571095
 30
0.0
 11
5011.3187530854038414
 21
252.7923710896571095
 31
0.0
  0
LINE
  5
B14C
  8
0
 10
5036.7558919148050336
 20
252.7298710896571947
 30
0.0
 11
5036.8187530854047509
 21
252.7923710896571095
 31
0.0
  0
LINE
  5
B14D
  8
0
 10
5018.3317530854046709
 20
252.7550042705572082
 30
0.0
 11
4992.8317530854037614
 21
252.7550042705572082
 31
0.0
  0
LINE
  5
B14E
  8
0
 10
5011.3187530854038414
 20
252.7923710896571095
 30
0.0
 11
5011.3187530854038414
 21
252.7550042705572082
 31
0.0
  0
LINE
  5
B14F
  8
0
 10
4992.8946142560052976
 20
252.6910734920571997
 30
0.0
 11
4992.8317530854037614
 21
252.7550042705572082
 31
0.0
  0
CIRCLE
  5
B150
  8
0
 10
4994.8317624987048475
 20
250.0011497614570999
 30
0.0
 40
0.9381757812926885
  0
CIRCLE
  5
B151
  8
0
 10
4994.8317624987048475
 20
250.0011497614570999
 30
0.0
 40
0.8971380783999975
  0
CIRCLE
  5
B152
  8
0
 10
5016.3317528728048273
 20
250.0005803571571903
 30
0.0
 40
0.9381757812926885
  0
CIRCLE
  5
B153
  8
0
 10
5016.3317528728048273
 20
250.0005803571571903
 30
0.0
 40
0.8971380783999975
  0
CIRCLE
  5
B154
  8
0
 10
5033.0687530854047509
 20
209.1043710895571905
 30
0.0
 40
0.3945247403998919
  0
CIRCLE
  5
B155
  8
0
 10
5033.0687530854047509
 20
209.1043710895571905
 30
0.0
 40
0.37452472617169
  0
LINE
  5
B156
  8
0
 10
4994.6320762265404483
 20
208.6201746734570861
 30
0.0
 11
4994.6320762265404483
 21
209.50017467345711
 31
0.0
  0
LINE
  5
B157
  8
0
 10
4994.6320762265404483
 20
209.50017467345711
 30
0.0
 11
5016.5314297122704374
 21
209.50017467345711
 31
0.0
  0
LINE
  5
B158
  8
0
 10
5016.5314297122704374
 20
209.50017467345711
 30
0.0
 11
5016.5314297122704374
 21
208.6201746734570861
 31
0.0
  0
LINE
  5
B159
  8
0
 10
5016.5314297122704374
 20
208.6201746734570861
 30
0.0
 11
4994.6320762265404483
 21
208.6201746734570861
 31
0.0
  0
LINE
  5
B15A
  8
0
 10
4994.6320762265404483
 20
208.6201746734570861
 30
0.0
 11
4994.5817606990403874
 21
208.6702007574571098
 31
0.0
  0
LINE
  5
B15B
  8
0
 10
4994.5817606990403874
 20
208.6702007574571098
 30
0.0
 11
4994.5817505599407014
 21
209.4501157506570905
 31
0.0
  0
LINE
  5
B15C
  8
0
 10
4994.5817505599407014
 20
209.4501157506570905
 30
0.0
 11
4994.6320762265404483
 21
209.50017467345711
 31
0.0
  0
LINE
  5
B15D
  8
0
 10
5016.5314297122704374
 20
208.6201746734570861
 30
0.0
 11
5016.5817452397695888
 21
208.6702007574571098
 31
0.0
  0
LINE
  5
B15E
  8
0
 10
5016.5817452397695888
 20
208.6702007574571098
 30
0.0
 11
5016.5817553788701844
 21
209.4501157506570905
 31
0.0
  0
LINE
  5
B15F
  8
0
 10
5016.5817553788701844
 20
209.4501157506570905
 30
0.0
 11
5016.5314297122704374
 21
209.50017467345711
 31
0.0
  0
LINE
  5
B160
  8
0
 10
5011.3561200679696412
 20
252.7550042705572082
 30
0.0
 11
5011.3187530854038414
 21
252.7923710896571095
 31
0.0
  0
ENDSEC
  0
EOF
