  0
SECTION
  2
HEADER
  9
$ACADVER
  1
AC1009
  9
$INSBASE
 10
5151.3411071264099519
 20
192.6765160359321953
 30
0.0
  9
$EXTMIN
 10
5149.0038907822636247
 20
192.6649494004595908
 30
-0.0015258207003583
  9
$EXTMAX
 10
5156.4784102212561265
 20
274.3303082177588976
 30
0.0000000349246037
  9
$LIMMIN
 10
0.0
 20
0.0
  9
$LIMMAX
 10
11.6929133858000007
 20
8.2677165353999982
  9
$ORTHOMODE
 70
     0
  9
$REGENMODE
 70
     1
  9
$FILLMODE
 70
     1
  9
$QTEXTMODE
 70
     0
  9
$MIRRTEXT
 70
     0
  9
$DRAGMODE
 70
     2
  9
$LTSCALE
 40
0.6431102362
  9
$OSMODE
 70
  4095
  9
$ATTMODE
 70
     1
  9
$TEXTSIZE
 40
0.2
  9
$TRACEWID
 40
0.05
  9
$TEXTSTYLE
  7
STANDARD
  9
$CLAYER
  8
0
  9
$CELTYPE
  6
BYLAYER
  9
$CECOLOR
 62
   256
  9
$DIMSCALE
 40
1.0
  9
$DIMASZ
 40
0.1875
  9
$DIMEXO
 40
0.0625
  9
$DIMDLI
 40
0.4443307087
  9
$DIMRND
 40
0.0
  9
$DIMDLE
 40
0.0
  9
$DIMEXE
 40
0.125
  9
$DIMTP
 40
0.01
  9
$DIMTM
 40
0.01
  9
$DIMTXT
 40
2.0
  9
$DIMCEN
 40
0.1052362205
  9
$DIMTSZ
 40
0.0
  9
$DIMTOL
 70
     1
  9
$DIMLIM
 70
     0
  9
$DIMTIH
 70
     1
  9
$DIMTOH
 70
     1
  9
$DIMSE1
 70
     0
  9
$DIMSE2
 70
     0
  9
$DIMTAD
 70
     0
  9
$DIMZIN
 70
     0
  9
$DIMBLK
  1

  9
$DIMASO
 70
     1
  9
$DIMSHO
 70
     1
  9
$DIMPOST
  1
\X
  9
$DIMAPOST
  1

  9
$DIMALT
 70
     1
  9
$DIMALTD
 70
     2
  9
$DIMALTF
 40
25.3999999999999986
  9
$DIMLFAC
 40
1.0
  9
$DIMTOFL
 70
     0
  9
$DIMTVP
 40
0.0
  9
$DIMTIX
 70
     0
  9
$DIMSOXD
 70
     0
  9
$DIMSAH
 70
     0
  9
$DIMBLK1
  1

  9
$DIMBLK2
  1

  9
$DIMSTYLE
  2
STANDARD
  9
$DIMCLRD
 70
     0
  9
$DIMCLRE
 70
     0
  9
$DIMCLRT
 70
     0
  9
$DIMTFAC
 40
1.0
  9
$DIMGAP
 40
0.09
  9
$LUNITS
 70
     2
  9
$LUPREC
 70
     4
  9
$SKETCHINC
 40
0.1
  9
$FILLETRAD
 40
0.0
  9
$AUNITS
 70
     0
  9
$AUPREC
 70
     0
  9
$MENU
  1
.
  9
$ELEVATION
 40
0.0
  9
$PELEVATION
 40
0.0
  9
$THICKNESS
 40
0.0
  9
$LIMCHECK
 70
     0
  9
$BLIPMODE
 70
     0
  9
$CHAMFERA
 40
0.0
  9
$CHAMFERB
 40
0.0
  9
$SKPOLY
 70
     0
  9
$TDCREATE
 40
2458060.468368056230247
  9
$TDUPDATE
 40
2460998.7770486110821366
  9
$TDINDWG
 40
0.4157015046
  9
$TDUSRTIMER
 40
0.4157015046
  9
$USRTIMER
 70
     1
  9
$ANGBASE
 50
0.0
  9
$ANGDIR
 70
     0
  9
$PDMODE
 70
     0
  9
$PDSIZE
 40
0.3125
  9
$PLINEWID
 40
0.0
  9
$COORDS
 70
     1
  9
$SPLFRAME
 70
     0
  9
$SPLINETYPE
 70
     6
  9
$SPLINESEGS
 70
     8
  9
$ATTDIA
 70
     1
  9
$ATTREQ
 70
     1
  9
$HANDLING
 70
     1
  9
$HANDSEED
  5
BD08
  9
$SURFTAB1
 70
     6
  9
$SURFTAB2
 70
     6
  9
$SURFTYPE
 70
     6
  9
$SURFU
 70
     6
  9
$SURFV
 70
     6
  9
$UCSNAME
  2

  9
$UCSORG
 10
0.0
 20
0.0
 30
0.0
  9
$UCSXDIR
 10
1.0
 20
0.0
 30
0.0
  9
$UCSYDIR
 10
0.0
 20
1.0
 30
0.0
  9
$PUCSNAME
  2

  9
$PUCSORG
 10
0.0
 20
0.0
 30
0.0
  9
$PUCSXDIR
 10
1.0
 20
0.0
 30
0.0
  9
$PUCSYDIR
 10
0.0
 20
1.0
 30
0.0
  9
$USERI1
 70
     0
  9
$USERI2
 70
     0
  9
$USERI3
 70
     0
  9
$USERI4
 70
     0
  9
$USERI5
 70
     0
  9
$USERR1
 40
0.0
  9
$USERR2
 40
0.0
  9
$USERR3
 40
0.0
  9
$USERR4
 40
0.0
  9
$USERR5
 40
0.0
  9
$WORLDVIEW
 70
     1
  9
$SHADEDGE
 70
     3
  9
$SHADEDIF
 70
    70
  9
$TILEMODE
 70
     1
  9
$MAXACTVP
 70
    64
  9
$PLIMCHECK
 70
     0
  9
$PEXTMIN
 10
1.0000000000000000E+20
 20
1.0000000000000000E+20
 30
1.0000000000000000E+20
  9
$PEXTMAX
 10
-1.0000000000000000E+20
 20
-1.0000000000000000E+20
 30
-1.0000000000000000E+20
  9
$PLIMMIN
 10
0.0
 20
0.0
  9
$PLIMMAX
 10
12.0
 20
9.0
  9
$UNITMODE
 70
     0
  9
$VISRETAIN
 70
     1
  9
$PLINEGEN
 70
     0
  9
$PSLTSCALE
 70
     1
  0
ENDSEC
  0
SECTION
  2
TABLES
  0
TABLE
  2
VPORT
 70
     1
  0
VPORT
  2
*ACTIVE
 70
     0
 10
0.0
 20
0.0
 11
1.0
 21
1.0
 12
1349.1970831189469209
 22
107.502366612359296
 13
0.0
 23
0.0
 14
1.0
 24
1.0
 15
0.0
 25
0.0
 16
0.0
 26
0.0
 36
17.1152628219792007
 17
3803.5440673828129547
 27
125.9952621967499056
 37
0.0
 40
82.2748993261516262
 41
2.2182448036951499
 42
50.0
 43
0.0
 44
0.0
 50
0.0
 51
0.0
 71
     0
 72
   100
 73
     1
 74
     1
 75
     0
 76
     0
 77
     0
 78
     0
  0
ENDTAB
  0
TABLE
  2
LTYPE
 70
     2
  0
LTYPE
  2
CONTINUOUS
 70
     0
  3
Solid line
 72
    65
 73
     0
 40
0.0
  0
LTYPE
  2
PHANTOM2
 70
     0
  3
___ _ _ ___ _ _ ___ _ _ ___ _ _
 72
    65
 73
     6
 40
1.25
 49
0.625
 49
-0.125
 49
0.125
 49
-0.125
 49
0.125
 49
-0.125
  0
ENDTAB
  0
TABLE
  2
LAYER
 70
     2
  0
LAYER
  2
0
 70
     0
 62
   255
  6
CONTINUOUS
  0
LAYER
  2
DEFPOINTS
 70
     0
 62
     7
  6
CONTINUOUS
  0
ENDTAB
  0
TABLE
  2
STYLE
 70
     1
  0
STYLE
  2
STANDARD
 70
     0
 40
0.0
 41
0.8
 50
0.0
 71
     0
 42
0.2
  3
txt
  4

  0
ENDTAB
  0
TABLE
  2
VIEW
 70
     0
  0
ENDTAB
  0
TABLE
  2
UCS
 70
     0
  0
ENDTAB
  0
TABLE
  2
APPID
 70
     9
  0
APPID
  2
ACAD
 70
     0
  0
APPID
  2
ACAD_MLEADERVER
 70
     0
  0
APPID
  2
ACAD_EXEMPT_FROM_CAD_STANDARDS
 70
     0
  0
APPID
  2
ACAD_NAV_VCDISPLAY
 70
     0
  0
APPID
  2
ACAECLAYERSTANDARD
 70
     0
  0
APPID
  2
ACCMTRANSPARENCY
 70
     0
  0
APPID
  2
ACAD_DSTYLE_DIMJAG
 70
     0
  0
APPID
  2
ACAD_DSTYLE_DIMTALN
 70
     0
  0
APPID
  2
ACDBATTR
 70
     0
  0
ENDTAB
  0
TABLE
  2
DIMSTYLE
 70
     1
  0
DIMSTYLE
  2
STANDARD
 70
     0
  3

  4

  5

  6

  7

 40
1.0
 41
0.1875
 42
0.0625
 43
0.38
 44
0.125
 45
0.0
 46
0.0
 47
0.01
 48
0.01
140
0.15625
141
0.09
142
0.0
143
25.3999999999999986
144
1.0
145
0.0
146
1.0
147
0.09
 71
     1
 72
     0
 73
     1
 74
     1
 75
     0
 76
     0
 77
     0
 78
     4
170
     0
171
     2
172
     0
173
     0
174
     0
175
     0
176
     0
177
     0
178
     0
  0
ENDTAB
  0
ENDSEC
  0
SECTION
  2
BLOCKS
  0
BLOCK
  8
0
  2
$MODEL_SPACE
 70
     0
 10
0.0
 20
0.0
 30
0.0
  3
$MODEL_SPACE
  1

  0
ENDBLK
  5
21
  8
0
  0
BLOCK
 67
     1
  8
0
  2
$PAPER_SPACE
 70
     0
 10
0.0
 20
0.0
 30
0.0
  3
$PAPER_SPACE
  1

  0
ENDBLK
  5
1D
 67
     1
  8
0
  0
BLOCK
  8
0
  2
_FILLED
 70
     0
 10
0.0
 20
0.0
 30
0.0
  3
_FILLED
  1

  0
SOLID
  5
A5FC
  8
0
  6
BYBLOCK
 62
     0
 10
0.0
 20
0.0
 30
0.0
 11
-1.0
 21
0.1666666667
 31
0.0
 12
-1.0
 22
-0.1666666667
 32
0.0
 13
-1.0
 23
-0.1666666667
 33
0.0
  0
ENDBLK
  5
A5FD
  8
0
  6
BYBLOCK
 62
     0
  0
BLOCK
  8
0
  2
A$C854D2D05
 70
     0
 10
0.0
 20
0.0
 30
0.0
  3
A$C854D2D05
  1

  0
LINE
  5
B163
  8
0
 10
62.5802977659767521
 20
37.7171134218237114
 30
0.0
 11
18.6072977659767389
 21
37.7171134218237114
 31
0.0
  0
LINE
  5
B164
  8
0
 10
18.6072977659767389
 20
37.7171134218237114
 30
0.0
 11
18.6072977659767389
 21
37.7951134218237215
 31
0.0
  0
LINE
  5
B165
  8
0
 10
19.0500019798767504
 20
37.7951134218237215
 30
0.0
 11
18.2812977659767206
 21
37.7951134218237215
 31
0.0
  0
LINE
  5
B166
  8
0
 10
18.2812977659767206
 20
37.7951134218237215
 30
0.0
 11
18.2812977659767206
 21
38.712613421823697
 31
0.0
  0
LINE
  5
B167
  8
0
 10
18.2812977659767206
 20
38.7707466213237169
 30
0.0
 11
18.2812977659767206
 21
39.0576134218237314
 31
0.0
  0
LINE
  5
B168
  8
0
 10
18.2812977659767206
 20
39.557613421823703
 30
0.0
 11
18.2812977659767206
 21
116.1167612742200959
 31
0.0
  0
LINE
  5
B169
  8
0
 10
19.0500019798767504
 20
37.7951134218237215
 30
0.0
 11
19.0500019798767504
 21
116.0411134220236988
 31
0.0
  0
LINE
  5
B16A
  8
0
 10
19.0138765534062983
 20
116.1211134220236971
 30
0.0
 11
18.284091427576751
 21
116.1211134220236971
 31
0.0
  0
LINE
  5
B16B
  8
0
 10
19.0552977659767215
 20
116.0411134220236988
 30
0.0
 11
18.2812977659767206
 21
116.0411134220236988
 31
0.0
  0
LINE
  5
B16C
  8
0
 10
19.0552977659767215
 20
116.0411134220236988
 30
0.0
 11
19.0538521864864414
 21
116.0825094019099026
 31
0.0
  0
ARC
  5
B16D
  8
0
 10
19.0138765534062486
 20
116.0811134220237051
 30
0.0
 40
0.04
 50
2.0000000260387938
 51
89.9999999999869686
  0
LINE
  5
B16E
  8
0
 10
18.3009487178749204
 20
116.0040334726237035
 30
0.0
 11
18.3412977659767193
 21
116.0033291774236943
 31
0.0
  0
LINE
  5
B16F
  8
0
 10
18.284091427576751
 20
116.1211134220236971
 30
0.0
 11
18.2812977659767206
 21
116.0411134220236988
 31
0.0
  0
ARC
  5
B170
  8
0
 10
18.3012977659766989
 20
116.0240304265273039
 30
0.0
 40
0.02
 50
179.9999999999787974
 51
269.0000000772046747
  0
LINE
  5
B171
  8
0
 10
18.301646814108441
 20
116.1367582281231989
 30
0.0
 11
18.6002977659767303
 21
116.131545256323605
 31
0.0
  0
ARC
  5
B172
  8
0
 10
18.3012977659767486
 20
116.1167612742200959
 30
0.0
 40
0.02
 50
88.9999999916071971
 51
180.0
  0
LINE
  5
B173
  8
0
 10
18.2812977659767206
 20
38.7707466213237169
 30
0.0
 11
18.3412977659767193
 21
38.7738910881236905
 31
0.0
  0
LINE
  5
B174
  8
0
 10
18.2812977659767206
 20
38.712613421823697
 30
0.0
 11
18.3412977659767193
 21
38.712613421823697
 31
0.0
  0
LINE
  5
B175
  8
0
 10
18.3412977659767193
 20
37.7951134218237215
 30
0.0
 11
18.3412977659767193
 21
116.0411134220236988
 31
0.0
  0
ARC
  5
B176
  8
0
 10
18.5802977659766917
 20
116.1118913111236992
 30
0.0
 40
0.0200000000000094
 50
27.4584693396840507
 51
88.9999999920730147
  0
LINE
  5
B177
  8
0
 10
18.6002977659767303
 20
116.1211134220236971
 30
0.0
 11
18.6002977659767303
 21
119.3251665047236969
 31
0.0
  0
LINE
  5
B178
  8
0
 10
18.6631589365767283
 20
116.1211134220236971
 30
0.0
 11
18.6631589365767283
 21
119.2612357262237026
 31
0.0
  0
LINE
  5
B179
  8
0
 10
18.2717704147767108
 20
39.0576134218237314
 30
0.0
 11
18.3412977659767193
 21
39.0576134218237314
 31
0.0
  0
LINE
  5
B17A
  8
0
 10
18.2717704147767108
 20
39.0576134218237314
 30
0.0
 11
18.2717704147767108
 21
39.557613421823703
 31
0.0
  0
LINE
  5
B17B
  8
0
 10
18.2717704147767108
 20
39.557613421823703
 30
0.0
 11
18.3412977659767193
 21
39.557613421823703
 31
0.0
  0
LINE
  5
B17C
  8
0
 10
18.3412977659767193
 20
39.051555045923692
 30
0.0
 11
18.2812977659767206
 21
39.0505168418237432
 31
0.0
  0
LINE
  5
B17D
  8
0
 10
18.3412977659767193
 20
39.0355580919237184
 30
0.0
 11
18.2812977659767206
 21
39.0345198879237216
 31
0.0
  0
LINE
  5
B17E
  8
0
 10
18.3412977659767193
 20
39.0296967606552201
 30
0.0
 11
18.2812977659767206
 21
39.0286585566236965
 31
0.0
  0
LINE
  5
B17F
  8
0
 10
18.3412977659767193
 20
38.8686607257237213
 30
0.0
 11
18.2812977659767206
 21
38.8676134218237266
 31
0.0
  0
LINE
  5
B180
  8
0
 10
18.3412977659767193
 20
38.8846582889237311
 30
0.0
 11
18.2812977659767206
 21
38.8836109850237222
 31
0.0
  0
LINE
  5
B181
  8
0
 10
18.3412977659767193
 20
38.9584872088457814
 30
0.0
 11
18.2812977659767206
 21
38.9584872088457814
 31
0.0
  0
LINE
  5
B182
  8
0
 10
18.3412977659767193
 20
38.9740661179237122
 30
0.0
 11
18.2812977659767206
 21
38.9751134218237212
 31
0.0
  0
LINE
  5
B183
  8
0
 10
18.3412977659767193
 20
39.5636717977236572
 30
0.0
 11
18.2812977659767206
 21
39.5647100018237268
 31
0.0
  0
LINE
  5
B184
  8
0
 10
18.3412977659767193
 20
39.5796687517237373
 30
0.0
 11
18.2812977659767206
 21
39.5807069558237004
 31
0.0
  0
LINE
  5
B185
  8
0
 10
18.3412977659767193
 20
39.585530083092209
 30
0.0
 11
18.2812977659767206
 21
39.586568287123761
 31
0.0
  0
LINE
  5
B186
  8
0
 10
18.3412977659767193
 20
39.6411607257237222
 30
0.0
 11
18.2812977659767206
 21
39.6401134218237203
 31
0.0
  0
LINE
  5
B187
  8
0
 10
18.3412977659767193
 20
39.6571582889237106
 30
0.0
 11
18.2812977659767206
 21
39.6561109850237301
 31
0.0
  0
LINE
  5
B188
  8
0
 10
18.3412977659767193
 20
39.8376134218237112
 30
0.0
 11
18.2812977659767206
 21
39.8376134218237112
 31
0.0
  0
LINE
  5
B189
  8
0
 10
18.3412977659767193
 20
39.7465661179237202
 30
0.0
 11
18.2812977659767206
 21
39.7476134218237291
 31
0.0
  0
LINE
  5
B18A
  8
0
 10
18.3412977659767193
 20
39.7305685548237193
 30
0.0
 11
18.2812977659767206
 21
39.7316158587237283
 31
0.0
  0
LINE
  5
B18B
  8
0
 10
18.3412977659767193
 20
115.9381134220237044
 30
0.0
 11
18.2812977659767206
 21
115.9381134220237044
 31
0.0
  0
LINE
  5
B18C
  8
0
 10
62.5802977659767521
 20
37.7171134218237114
 30
0.0
 11
62.5802977659767521
 21
37.7951134218237215
 31
0.0
  0
LINE
  5
B18D
  8
0
 10
62.1375935520767371
 20
37.7951134218237215
 30
0.0
 11
62.9062977659766602
 21
37.7951134218237215
 31
0.0
  0
LINE
  5
B18E
  8
0
 10
62.9062977659766602
 20
37.7951134218237215
 30
0.0
 11
62.9062977659766602
 21
38.712613421823697
 31
0.0
  0
LINE
  5
B18F
  8
0
 10
62.9062977659766602
 20
38.7707466213237169
 30
0.0
 11
62.9062977659767668
 21
39.0576134218237314
 31
0.0
  0
LINE
  5
B190
  8
0
 10
62.9062977659766602
 20
39.557613421823703
 30
0.0
 11
62.9062977659766602
 21
116.1167612742200959
 31
0.0
  0
LINE
  5
B191
  8
0
 10
62.1375935520767371
 20
37.7951134218237215
 30
0.0
 11
62.1375935520767371
 21
116.0411134220236988
 31
0.0
  0
LINE
  5
B192
  8
0
 10
62.1737189785471784
 20
116.1211134220236971
 30
0.0
 11
62.9035041043766725
 21
116.1211134220236971
 31
0.0
  0
LINE
  5
B193
  8
0
 10
62.1322977659766593
 20
116.0411134220236988
 30
0.0
 11
62.9062977659766602
 21
116.0411134220236988
 31
0.0
  0
LINE
  5
B194
  8
0
 10
62.1322977659766593
 20
116.0411134220236988
 30
0.0
 11
62.1337433454669892
 21
116.0825094019099026
 31
0.0
  0
ARC
  5
B195
  8
0
 10
62.1737189785471784
 20
116.0811134220237051
 30
0.0
 40
0.04
 50
90.0000000000097771
 51
177.9999999739611951
  0
LINE
  5
B196
  8
0
 10
62.8866468140785102
 20
116.0040334726237035
 30
0.0
 11
62.8462977659767219
 21
116.0033291774236943
 31
0.0
  0
LINE
  5
B197
  8
0
 10
62.9035041043766725
 20
116.1211134220236971
 30
0.0
 11
62.9062977659767668
 21
116.0411134220236988
 31
0.0
  0
ARC
  5
B198
  8
0
 10
62.8862977659766784
 20
116.0240304265273039
 30
0.0
 40
0.02
 50
270.9999999227919716
 51
0.0000000000195413
  0
LINE
  5
B199
  8
0
 10
62.8859487178450465
 20
116.1367582281231989
 30
0.0
 11
61.9369487178449774
 21
116.1201933713671934
 31
0.0
  0
ARC
  5
B19A
  8
0
 10
62.8862977659766784
 20
116.1167612742200959
 30
0.0
 40
0.02
 50
0.0
 51
91.0000000083895344
  0
LINE
  5
B19B
  8
0
 10
62.9062977659766602
 20
38.7707466213237169
 30
0.0
 11
62.8462977659767219
 21
38.7738910881236905
 31
0.0
  0
LINE
  5
B19C
  8
0
 10
62.9062977659766602
 20
38.712613421823697
 30
0.0
 11
62.8462977659767219
 21
38.712613421823697
 31
0.0
  0
LINE
  5
B19D
  8
0
 10
62.8462977659767219
 20
37.7951134218237215
 30
0.0
 11
62.8462977659767219
 21
116.0411134220236988
 31
0.0
  0
ARC
  5
B19E
  8
0
 10
62.6072977659766821
 20
116.1118913111236992
 30
0.0
 40
0.0200000000000094
 50
91.0000000079302538
 51
152.5415306603159138
  0
LINE
  5
B19F
  8
0
 10
62.5872977659767002
 20
116.131545256323605
 30
0.0
 11
62.5872977659767002
 21
119.3625333238236976
 31
0.0
  0
LINE
  5
B1A0
  8
0
 10
62.5244365953767485
 20
116.1304480105002028
 30
0.0
 11
62.5244365953767485
 21
119.3000333238236976
 31
0.0
  0
LINE
  5
B1A1
  8
0
 10
62.9158251171767233
 20
39.0576134218237314
 30
0.0
 11
62.8462977659767219
 21
39.0576134218237314
 31
0.0
  0
LINE
  5
B1A2
  8
0
 10
62.9158251171767233
 20
39.0576134218237314
 30
0.0
 11
62.9158251171767233
 21
39.557613421823703
 31
0.0
  0
LINE
  5
B1A3
  8
0
 10
62.9158251171767233
 20
39.557613421823703
 30
0.0
 11
62.8462977659767219
 21
39.557613421823703
 31
0.0
  0
LINE
  5
B1A4
  8
0
 10
62.8462977659767219
 20
39.051555045923692
 30
0.0
 11
62.9062977659766602
 21
39.0505168418237432
 31
0.0
  0
LINE
  5
B1A5
  8
0
 10
62.8462977659767219
 20
39.0355580919237184
 30
0.0
 11
62.9062977659766602
 21
39.0345198879237216
 31
0.0
  0
LINE
  5
B1A6
  8
0
 10
62.8462977659767219
 20
39.0296967606552201
 30
0.0
 11
62.9062977659766602
 21
39.0286585566236965
 31
0.0
  0
LINE
  5
B1A7
  8
0
 10
62.8462977659767219
 20
38.8686607257237213
 30
0.0
 11
62.9062977659766602
 21
38.8676134218237266
 31
0.0
  0
LINE
  5
B1A8
  8
0
 10
62.8462977659767219
 20
38.8846582889237311
 30
0.0
 11
62.9062977659766602
 21
38.8836109850237222
 31
0.0
  0
LINE
  5
B1A9
  8
0
 10
62.8462977659767219
 20
38.9584872088457814
 30
0.0
 11
62.9062977659766602
 21
38.9584872088457814
 31
0.0
  0
LINE
  5
B1AA
  8
0
 10
62.8462977659767219
 20
38.9740661179237122
 30
0.0
 11
62.9062977659766602
 21
38.9751134218237212
 31
0.0
  0
LINE
  5
B1AB
  8
0
 10
62.8462977659767219
 20
39.5636717977236572
 30
0.0
 11
62.9062977659766602
 21
39.5647100018237268
 31
0.0
  0
LINE
  5
B1AC
  8
0
 10
62.8462977659767219
 20
39.5796687517237373
 30
0.0
 11
62.9062977659766602
 21
39.5807069558237004
 31
0.0
  0
LINE
  5
B1AD
  8
0
 10
62.8462977659767219
 20
39.585530083092209
 30
0.0
 11
62.9062977659766602
 21
39.586568287123761
 31
0.0
  0
LINE
  5
B1AE
  8
0
 10
62.8462977659767219
 20
39.6411607257237222
 30
0.0
 11
62.9062977659766602
 21
39.6401134218237203
 31
0.0
  0
LINE
  5
B1AF
  8
0
 10
62.8462977659767219
 20
39.6571582889237106
 30
0.0
 11
62.9062977659766602
 21
39.6561109850237301
 31
0.0
  0
LINE
  5
B1B0
  8
0
 10
62.8462977659767219
 20
39.8376134218237112
 30
0.0
 11
62.9062977659766602
 21
39.8376134218237112
 31
0.0
  0
LINE
  5
B1B1
  8
0
 10
62.8462977659767219
 20
39.7465661179237202
 30
0.0
 11
62.9062977659766602
 21
39.7476134218237291
 31
0.0
  0
LINE
  5
B1B2
  8
0
 10
62.8462977659767219
 20
39.7305685548237193
 30
0.0
 11
62.9062977659766602
 21
39.7316158587237283
 31
0.0
  0
LINE
  5
B1B3
  8
0
 10
62.8462977659767219
 20
115.9381134220237044
 30
0.0
 11
62.9062977659766602
 21
115.9381134220237044
 31
0.0
  0
LINE
  5
B1B4
  8
0
 10
62.1375935520767371
 20
38.7611134218237225
 30
0.0
 11
19.0500019798767504
 21
38.7611134218237225
 31
0.0
  0
LINE
  5
B1B5
  8
0
 10
44.10029776597667
 20
38.7611134218237083
 30
0.0
 11
44.10029776597667
 21
119.3251665047236969
 31
0.0
  0
LINE
  5
B1B6
  8
0
 10
44.0374365953766684
 20
38.7611134218237083
 30
0.0
 11
44.0374365953766684
 21
119.2612357262237026
 31
0.0
  0
LINE
  5
B1B7
  8
0
 10
62.5244365953767485
 20
119.3000333238236976
 30
0.0
 11
44.10029776597667
 21
119.3000333238236976
 31
0.0
  0
LINE
  5
B1B8
  8
0
 10
61.9369487178446434
 20
113.1540334726242065
 30
0.0
 11
62.1375935520767371
 21
113.150531203981302
 31
0.0
  0
LINE
  5
B1B9
  8
0
 10
61.9172977659767412
 20
116.1001964174641046
 30
0.0
 11
61.9172977659767412
 21
113.1740304265272954
 31
0.0
  0
ARC
  5
B1BA
  8
0
 10
61.937297765976723
 20
116.1001964174641046
 30
0.0
 40
0.02
 50
91.0000000084221341
 51
180.0000000000194973
  0
ARC
  5
B1BB
  8
0
 10
61.937297765976723
 20
113.1740304265272954
 30
0.0
 40
0.02
 50
180.0000000000194973
 51
268.9999999903042749
  0
LINE
  5
B1BC
  8
0
 10
61.9172977659766772
 20
113.3691134220237018
 30
0.0
 11
44.10029776597667
 21
113.3691134220237018
 31
0.0
  0
LINE
  5
B1BD
  8
0
 10
61.9172977659766772
 20
115.9151134220236941
 30
0.0
 11
44.10029776597667
 21
115.9151134220236941
 31
0.0
  0
LINE
  5
B1BE
  8
0
 10
44.0374365953766684
 20
119.2612357262237026
 30
0.0
 11
44.10029776597667
 21
119.3251665047236969
 31
0.0
  0
LINE
  5
B1BF
  8
0
 10
44.0374365953766684
 20
119.2612357262237026
 30
0.0
 11
18.6631589365767283
 21
119.2612357262237026
 31
0.0
  0
LINE
  5
B1C0
  8
0
 10
62.5872977659767002
 20
119.3625333238236976
 30
0.0
 11
37.0872977659767002
 21
119.3625333238236976
 31
0.0
  0
LINE
  5
B1C1
  8
0
 10
62.5244365953767485
 20
119.3000333238236976
 30
0.0
 11
62.5872977659767002
 21
119.3625333238236976
 31
0.0
  0
LINE
  5
B1C2
  8
0
 10
44.10029776597667
 20
119.3251665047236969
 30
0.0
 11
18.6002977659767303
 21
119.3251665047236969
 31
0.0
  0
LINE
  5
B1C3
  8
0
 10
37.0872977659767002
 20
119.3625333238236976
 30
0.0
 11
37.0872977659767002
 21
119.3251665047236969
 31
0.0
  0
LINE
  5
B1C4
  8
0
 10
18.6631589365767283
 20
119.2612357262237026
 30
0.0
 11
18.6002977659767303
 21
119.3251665047236969
 31
0.0
  0
CIRCLE
  5
B1C5
  8
0
 10
20.60030717927674
 20
116.5713119956237023
 30
0.0
 40
0.9381757812926885
  0
CIRCLE
  5
B1C6
  8
0
 10
20.60030717927674
 20
116.5713119956237023
 30
0.0
 40
0.8971380783999975
  0
CIRCLE
  5
B1C7
  8
0
 10
42.100297553376663
 20
116.5707425913236932
 30
0.0
 40
0.9381757812926885
  0
CIRCLE
  5
B1C8
  8
0
 10
42.100297553376663
 20
116.5707425913236932
 30
0.0
 40
0.8971380783999975
  0
CIRCLE
  5
B1C9
  8
0
 10
58.8372977659767287
 20
75.6745333237236935
 30
0.0
 40
0.3945247403998919
  0
CIRCLE
  5
B1CA
  8
0
 10
58.8372977659767287
 20
75.6745333237236935
 30
0.0
 40
0.37452472617169
  0
LINE
  5
B1CB
  8
0
 10
20.4006209071124509
 20
75.1903369076237169
 30
0.0
 11
20.4006209071124509
 21
76.0703369076237124
 31
0.0
  0
LINE
  5
B1CC
  8
0
 10
20.4006209071124509
 20
76.0703369076237124
 30
0.0
 11
42.2999743928420031
 21
76.0703369076237124
 31
0.0
  0
LINE
  5
B1CD
  8
0
 10
42.2999743928420031
 20
76.0703369076237124
 30
0.0
 11
42.2999743928420031
 21
75.1903369076237169
 31
0.0
  0
LINE
  5
B1CE
  8
0
 10
42.2999743928420031
 20
75.1903369076237169
 30
0.0
 11
20.4006209071124509
 21
75.1903369076237169
 31
0.0
  0
LINE
  5
B1CF
  8
0
 10
20.4006209071124509
 20
75.1903369076237169
 30
0.0
 11
20.3503053796124398
 21
75.2403629916236838
 31
0.0
  0
LINE
  5
B1D0
  8
0
 10
20.3503053796124398
 20
75.2403629916236838
 30
0.0
 11
20.3502952405124695
 21
76.0202779848236929
 31
0.0
  0
LINE
  5
B1D1
  8
0
 10
20.3502952405124695
 20
76.0202779848236929
 30
0.0
 11
20.4006209071124509
 21
76.0703369076237124
 31
0.0
  0
LINE
  5
B1D2
  8
0
 10
42.2999743928420031
 20
75.1903369076237169
 30
0.0
 11
42.350289920342
 21
75.2403629916236838
 31
0.0
  0
LINE
  5
B1D3
  8
0
 10
42.350289920342
 20
75.2403629916236838
 30
0.0
 11
42.3503000594419916
 21
76.0202779848236929
 31
0.0
  0
LINE
  5
B1D4
  8
0
 10
42.3503000594419916
 20
76.0202779848236929
 30
0.0
 11
42.2999743928420031
 21
76.0703369076237124
 31
0.0
  0
LINE
  5
B1D5
  8
0
 10
37.124664748541818
 20
119.3251665047236969
 30
0.0
 11
37.0872977659767002
 21
119.3625333238236976
 31
0.0
  0
LINE
  5
B1D6
  8
0
 10
40.5937977659767171
 20
37.7171134218237114
 30
0.0
 11
-0.0000002788318625
 21
-0.0000000124735209
 31
0.0
  0
ENDBLK
  5
B1DA
  8
0
  0
ENDSEC
  0
SECTION
  2
ENTITIES
  0
ATTDEF
  5
3930
  8
DEFPOINTS
 10
5151.336153760603338
 20
192.6751496417114993
 30
0.0
 40
0.001
  1
K-702429-L
  3

  2
MODELNUMBER
 70
     0
1001
ACDBATTR
1070
     0
1070
     1
  0
ATTDEF
  5
3931
  8
DEFPOINTS
 10
5151.336153760603338
 20
192.6734829750448057
 30
0.0
 40
0.001
  1
KOHLER
  3

  2
BRANDNAME
 70
     0
1001
ACDBATTR
1070
     0
1070
     1
  0
ATTDEF
  5
3932
  8
DEFPOINTS
 10
5151.336153760603338
 20
192.6718163083781974
 30
0.0
 40
0.001
  1
SHOWER DOOR
  3

  2
PRODUCT
 70
     0
1001
ACDBATTR
1070
     0
1070
     1
  0
LINE
  5
B82E
  8
0
 10
5154.1297675165096734
 20
192.6765160359321953
 30
0.0
 11
5154.074548940369823
 21
193.7301492354322079
 31
0.0
  0
LINE
  5
B82F
  8
0
 10
5153.7176299786096934
 20
271.09616388832859
 30
0.0
 11
5151.708334274309891
 21
271.09616388832859
 31
0.0
  0
LINE
  5
B830
  8
0
 10
5151.0251156764097686
 20
192.7545160359321983
 30
0.0
 11
5151.8111071264092971
 21
192.7545160359321983
 31
0.0
  0
LINE
  5
B831
  8
0
 10
5151.1361071264109341
 20
192.6845160359322051
 30
0.0
 11
5151.1361071264109341
 21
193.6720160359321881
 31
0.0
  0
ARC
  5
B832
  8
0
 10
5151.1441071264098355
 20
192.6845160359322051
 30
0.0
 40
0.008
 50
179.9999999998468923
 51
269.999999999895806
  0
LINE
  5
B833
  8
0
 10
5151.0251156764097686
 20
192.7545160359321983
 30
0.0
 11
5151.0251156764097686
 21
271.0005160361321828
 31
0.0
  0
LINE
  5
B834
  8
0
 10
5151.9131340551775793
 20
192.7189485731857133
 30
0.0
 11
5152.3078027692390606
 21
192.6765160359321953
 31
0.0
  0
LINE
  5
B835
  8
0
 10
5151.870714985559971
 20
192.8195339197665987
 30
0.0
 11
5151.8711804426038725
 21
192.764274815267413
 31
0.0
  0
LINE
  5
B836
  8
0
 10
5151.8352874782485742
 20
192.867947670610107
 30
0.0
 11
5151.6569467212093514
 21
192.867947670610107
 31
0.0
  0
LINE
  5
B837
  8
0
 10
5151.8404174629104091
 20
192.8375160359321967
 30
0.0
 11
5151.6569467212093514
 21
192.8375160359321967
 31
0.0
  0
ARC
  5
B838
  8
0
 10
5151.8210399672398125
 20
192.8167670685834878
 30
0.0
 40
0.0497520141352377
 50
3.1880262155680912
 51
49.852097521769231
  0
ARC
  5
B839
  8
0
 10
5151.7435393355281121
 20
192.7248881264598879
 30
0.0
 40
0.1699522134756777
 50
49.852097521769231
 51
57.3267951626296224
  0
ARC
  5
B83A
  8
0
 10
5151.8398345996811258
 20
192.8057569662753963
 30
0.0
 40
0.0317644177501913
 50
13.1164225699241399
 51
88.9485883960339834
  0
ARC
  5
B83B
  8
0
 10
5151.9181594580086312
 20
192.7656791341321991
 30
0.0
 40
0.0470000000000153
 50
181.712202575009087
 51
263.8620030714865266
  0
LINE
  5
B83C
  8
0
 10
5151.8271071264098282
 20
192.7385160359322072
 30
0.0
 11
5151.8271071264098282
 21
192.6765160359321953
 31
0.0
  0
ARC
  5
B83D
  8
0
 10
5151.8111071264092971
 20
192.7385160359322072
 30
0.0
 40
0.016
 50
0.0000000000504818
 51
90.0
  0
LINE
  5
B83E
  8
0
 10
5151.8052153100097712
 20
192.7545160359321983
 30
0.0
 11
5151.8052153100097712
 21
192.8375160359321967
 31
0.0
  0
LINE
  5
B83F
  8
0
 10
5151.6569467212093514
 20
192.7545160359321983
 30
0.0
 11
5151.6569467212093514
 21
193.7301492354322079
 31
0.0
  0
LINE
  5
B840
  8
0
 10
5151.0811071264097336
 20
193.6720160359321881
 30
0.0
 11
5151.6011071264101702
 21
193.6720160359321881
 31
0.0
  0
LINE
  5
B841
  8
0
 10
5151.6011071264101702
 20
193.6720160359321881
 30
0.0
 11
5151.6011071264101702
 21
192.7545160359321983
 31
0.0
  0
LINE
  5
B842
  8
0
 10
5151.130077295009869
 20
193.7301492354322079
 30
0.0
 11
5154.2624739270086138
 21
193.7301492354322079
 31
0.0
  0
LINE
  5
B843
  8
0
 10
5151.129260760319994
 20
193.7326008313993952
 30
0.0
 11
5151.130077295009869
 21
193.7301492354322079
 31
0.0
  0
LINE
  5
B844
  8
0
 10
5151.0754463820094315
 20
193.7334247216321899
 30
0.0
 11
5151.1199798716852456
 21
193.7334247216321899
 31
0.0
  0
LINE
  5
B845
  8
0
 10
5151.0674463820087112
 20
193.7414247216321996
 30
0.0
 11
5151.0674463820087112
 21
271.0005160361321828
 31
0.0
  0
ARC
  5
B846
  8
0
 10
5151.0754463820094315
 20
193.7414247216321996
 30
0.0
 40
0.008
 50
179.9999999998468923
 51
270.000000000104194
  0
LINE
  5
B847
  8
0
 10
5151.129260760319994
 20
193.7326008313993952
 30
0.0
 11
5151.1199798716852456
 21
193.7334247216321899
 31
0.0
  0
LINE
  5
B848
  8
0
 10
5151.1436071264097336
 20
193.7301492354322079
 30
0.0
 11
5151.1436071264097336
 21
193.8270160359321892
 31
0.0
  0
LINE
  5
B849
  8
0
 10
5151.1427905917207681
 20
193.7301492354322079
 30
0.0
 11
5151.1427905917207681
 21
193.8278325706212115
 31
0.0
  0
LINE
  5
B84A
  8
0
 10
5151.0811071264097336
 20
193.6720160359321881
 30
0.0
 11
5151.0811071264097336
 21
192.7545160359321983
 31
0.0
  0
LINE
  5
B84B
  8
0
 10
5151.0963063189101376
 20
193.6720160359321881
 30
0.0
 11
5151.0963063189101376
 21
193.7334247216321899
 31
0.0
  0
LINE
  5
B84C
  8
0
 10
5151.3380456590093672
 20
192.7545160359321983
 30
0.0
 11
5151.3380456590093672
 21
193.6720160359321881
 31
0.0
  0
LINE
  5
B84D
  8
0
 10
5151.3441685939096715
 20
192.7545160359321983
 30
0.0
 11
5151.3441685939096715
 21
193.6720160359321881
 31
0.0
  0
LINE
  5
B84E
  8
0
 10
5151.357698425408671
 20
192.7545160359321983
 30
0.0
 11
5151.357698425408671
 21
193.6720160359321881
 31
0.0
  0
LINE
  5
B84F
  8
0
 10
5151.3245158275103677
 20
192.7545160359321983
 30
0.0
 11
5151.3245158275103677
 21
193.6720160359321881
 31
0.0
  0
ARC
  5
B850
  8
0
 10
5151.2185194357061846
 20
192.6845160359386
 30
0.0
 40
0.0080000000073903
 50
270.0
 51
23.4158538203563502
  0
ARC
  5
B851
  8
0
 10
5151.1056491386470952
 20
192.6356356125621119
 30
0.0
 40
0.1309999989810586
 50
23.4158538203533695
 51
50.4769638272444894
  0
LINE
  5
B852
  8
0
 10
5151.1861071264102065
 20
192.7428558723918002
 30
0.0
 11
5151.1861071264102065
 21
192.7545160359321983
 31
0.0
  0
ARC
  5
B853
  8
0
 10
5151.1941071264118364
 20
192.7428558723925107
 30
0.0
 40
0.008
 50
180.0000000051392988
 51
230.4769638227191138
  0
ARC
  5
B854
  8
0
 10
5151.176512412410375
 20
192.5404662503339068
 30
0.0
 40
0.2299999999980624
 50
61.7244552387413421
 51
68.5365602432568153
  0
ARC
  5
B855
  8
0
 10
5151.2911122539362623
 20
192.749574660146493
 30
0.0
 40
0.0086491196667729
 50
229.2482310694313128
 51
308.6490683689675052
  0
ARC
  5
B856
  8
0
 10
5151.459284843349451
 20
192.5702135271559996
 30
0.0
 40
0.2372493695839153
 50
129.0272274038543117
 51
133.3201859964397045
  0
ARC
  5
B857
  8
0
 10
5151.366694817208554
 20
192.6845160359322051
 30
0.0
 40
0.007999999999981
 50
161.7921850087136022
 51
270.0
  0
ARC
  5
B858
  8
0
 10
5151.4784198548932181
 20
192.6364569479875968
 30
0.0
 40
0.1295936825412438
 50
140.5855234059515055
 51
157.0372094734329096
  0
ARC
  5
B859
  8
0
 10
5151.3733074060673971
 20
192.7255439742941974
 30
0.0
 40
0.0084393100334314
 50
306.263475830986124
 51
52.9299658014878602
  0
ARC
  5
B85A
  8
0
 10
5151.4823872386468793
 20
192.9073968919458935
 30
0.0
 40
0.2036693743104376
 50
228.6451986051424967
 51
239.2964868664664095
  0
LINE
  5
B85B
  8
0
 10
5151.642675172410236
 20
192.7545160359321983
 30
0.0
 11
5151.642675172410236
 21
193.7301492354322079
 31
0.0
  0
LINE
  5
B85C
  8
0
 10
5151.6125546759103599
 20
192.7545160359321983
 30
0.0
 11
5151.6125546759103599
 21
193.7301492354322079
 31
0.0
  0
LINE
  5
B85D
  8
0
 10
5151.5859079339097661
 20
193.6720160359321881
 30
0.0
 11
5151.5859079339097661
 21
193.7301492354322079
 31
0.0
  0
LINE
  5
B85E
  8
0
 10
5151.5719392429100481
 20
193.6720160359321881
 30
0.0
 11
5151.5719392429100481
 21
193.7301492354322079
 31
0.0
  0
LINE
  5
B85F
  8
0
 10
5151.0696595770095882
 20
192.7545160359321983
 30
0.0
 11
5151.0696595770095882
 21
193.7359008744319055
 31
0.0
  0
LINE
  5
B860
  8
0
 10
5151.0395390805097122
 20
192.7545160359321983
 30
0.0
 11
5151.0395390805097122
 21
271.0005160361321828
 31
0.0
  0
LINE
  5
B861
  8
0
 10
5151.2863571264097118
 20
193.8270160359321892
 30
0.0
 11
5151.1436071264097336
 21
193.8270160359321892
 31
0.0
  0
LINE
  5
B862
  8
0
 10
5151.3023571264093334
 20
193.8430160359322088
 30
0.0
 11
5151.3023571264093334
 21
193.918516035932214
 31
0.0
  0
LINE
  5
B863
  8
0
 10
5151.2863571264097118
 20
193.9345160359322051
 30
0.0
 11
5151.0674463820087112
 21
193.9345160359322051
 31
0.0
  0
ARC
  5
B864
  8
0
 10
5151.2863571264097118
 20
193.8430160359322088
 30
0.0
 40
0.016
 50
269.999999999895806
 51
0.0
  0
ARC
  5
B865
  8
0
 10
5151.2863571264097118
 20
193.918516035932214
 30
0.0
 40
0.016
 50
0.0000000000260551
 51
90.0000000001042082
  0
LINE
  5
B866
  8
0
 10
5151.1712294927101539
 20
193.8459708160322919
 30
0.0
 11
5151.1712294927101539
 21
193.9315612558322073
 31
0.0
  0
LINE
  5
B867
  8
0
 10
5151.2834023463101403
 20
193.829970816032187
 30
0.0
 11
5151.1872294927097755
 21
193.829970816032187
 31
0.0
  0
LINE
  5
B868
  8
0
 10
5151.2994023463097619
 20
193.9155612558321877
 30
0.0
 11
5151.2994023463097619
 21
193.8459708160322919
 31
0.0
  0
LINE
  5
B869
  8
0
 10
5151.2834023463101403
 20
193.9315612558322073
 30
0.0
 11
5151.0674463820087112
 21
193.9315612558322073
 31
0.0
  0
ARC
  5
B86A
  8
0
 10
5151.2834023463101403
 20
193.9155612558321877
 30
0.0
 40
0.016
 50
0.0000000000521102
 51
90.0000000000521254
  0
ARC
  5
B86B
  8
0
 10
5151.2834023463101403
 20
193.8459708160322919
 30
0.0
 40
0.016
 50
269.9999999999478746
 51
0.0000000000260551
  0
ARC
  5
B86C
  8
0
 10
5151.1872294927097755
 20
193.8459708160322919
 30
0.0
 40
0.016
 50
180.0
 51
270.0
  0
LINE
  5
B86D
  8
0
 10
5151.1872294927097755
 20
193.829970816032187
 30
0.0
 11
5151.0754822873532248
 21
193.828106977532201
 31
0.0
  0
LINE
  5
B86E
  8
0
 10
5151.1436071264097336
 20
193.8270160359321892
 30
0.0
 11
5151.1427905917207681
 21
193.8278325706212115
 31
0.0
  0
LINE
  5
B86F
  8
0
 10
5151.1427905917207681
 20
193.8278325706212115
 30
0.0
 11
5151.1361051578787738
 21
193.828106977532201
 31
0.0
  0
LINE
  5
B870
  8
0
 10
5151.0674463820087112
 20
193.828106977532201
 30
0.0
 11
5151.1361051578787738
 21
193.828106977532201
 31
0.0
  0
LINE
  5
B871
  8
0
 10
5154.5119739270094215
 20
193.9796492354321913
 30
0.0
 11
5154.5119739270094215
 21
194.5543828365321986
 31
0.0
  0
LINE
  5
B872
  8
0
 10
5154.2624739270086138
 20
194.8038828365322104
 30
0.0
 11
5151.0674463820087112
 21
194.8038828365322104
 31
0.0
  0
ARC
  5
B873
  8
0
 10
5154.2624739270086138
 20
193.9796492354321913
 30
0.0
 40
0.2495
 50
270.0
 51
0.0
  0
ARC
  5
B874
  8
0
 10
5154.2624739270086138
 20
194.5543828365321986
 30
0.0
 40
0.2495
 50
359.9999999999984084
 51
90.0
  0
LINE
  5
B875
  8
0
 10
5151.2863571264097118
 20
194.7070160359322983
 30
0.0
 11
5151.1436071264097336
 21
194.7070160359322983
 31
0.0
  0
LINE
  5
B876
  8
0
 10
5151.3023571264093334
 20
194.6910160359321935
 30
0.0
 11
5151.3023571264093334
 21
194.6155160359321883
 31
0.0
  0
LINE
  5
B877
  8
0
 10
5151.2863571264097118
 20
194.5995160359321972
 30
0.0
 11
5151.1436071264097336
 21
194.5995160359321972
 31
0.0
  0
ARC
  5
B878
  8
0
 10
5151.2863571264097118
 20
194.6910160359321935
 30
0.0
 40
0.016
 50
0.0
 51
90.0000000001042082
  0
ARC
  5
B879
  8
0
 10
5151.2863571264097118
 20
194.615516035932302
 30
0.0
 40
0.016
 50
269.999999999895806
 51
359.9999999999740226
  0
LINE
  5
B87A
  8
0
 10
5151.1712294927101539
 20
194.6880612558321957
 30
0.0
 11
5151.1712294927101539
 21
194.602470816032195
 31
0.0
  0
LINE
  5
B87B
  8
0
 10
5151.2834023463101403
 20
194.7040612558321868
 30
0.0
 11
5151.1872294927097755
 21
194.7040612558321868
 31
0.0
  0
LINE
  5
B87C
  8
0
 10
5151.2994023463097619
 20
194.6184708160321861
 30
0.0
 11
5151.2994023463097619
 21
194.6880612558321957
 31
0.0
  0
LINE
  5
B87D
  8
0
 10
5151.2834023463101403
 20
194.602470816032195
 30
0.0
 11
5151.0674463820087112
 21
194.602470816032195
 31
0.0
  0
ARC
  5
B87E
  8
0
 10
5151.2834023463101403
 20
194.6184708160321861
 30
0.0
 40
0.016
 50
269.9999999999478746
 51
359.9999999999478746
  0
ARC
  5
B87F
  8
0
 10
5151.2834023463101403
 20
194.6880612558321957
 30
0.0
 40
0.016
 50
359.9999999999740226
 51
90.0000000000521254
  0
ARC
  5
B880
  8
0
 10
5151.1872294927097755
 20
194.6880612558321957
 30
0.0
 40
0.016
 50
90.0
 51
180.0
  0
LINE
  5
B881
  8
0
 10
5151.1872294927097755
 20
194.7040612558321868
 30
0.0
 11
5151.0754822873532248
 21
194.7059250943322013
 31
0.0
  0
LINE
  5
B882
  8
0
 10
5151.1436071264097336
 20
194.7070160359322983
 30
0.0
 11
5151.1427905917207681
 21
194.7061995012431908
 31
0.0
  0
LINE
  5
B883
  8
0
 10
5151.1427905917207681
 20
194.7061995012431908
 30
0.0
 11
5151.1361051578787738
 21
194.7059250943322013
 31
0.0
  0
LINE
  5
B884
  8
0
 10
5151.0674463820087112
 20
194.7059250943322013
 30
0.0
 11
5151.1361051578787738
 21
194.7059250943322013
 31
0.0
  0
LINE
  5
B885
  8
0
 10
5153.8529808965058692
 20
192.9010601711229924
 30
0.0
 11
5153.8628284227734184
 21
193.4652245751954069
 31
0.0
  0
LINE
  5
B886
  8
0
 10
5153.8674526999011505
 20
193.7301492354322079
 30
0.0
 11
5153.8674534861147549
 21
193.7301942775710017
 31
0.0
  0
LINE
  5
B887
  8
0
 10
5153.7669939947227249
 20
192.816561078071004
 30
0.0
 11
5153.5033361138994223
 21
192.816561078071004
 31
0.0
  0
ARC
  5
B888
  8
0
 10
5153.7669939947227249
 20
192.9025610780709883
 30
0.0
 40
0.086
 50
270.0
 51
359.0000000037525751
  0
LINE
  5
B889
  8
0
 10
5152.3896392757205831
 20
192.8983239642676892
 30
0.0
 11
5152.4287849035308682
 21
193.7004386040526924
 31
0.0
  0
ARC
  5
B88A
  8
0
 10
5152.3037415077924379
 20
192.9025160359321944
 30
0.0
 40
0.086
 50
270.0
 51
357.2060089166118928
  0
LINE
  5
B88B
  8
0
 10
5152.3037415077924379
 20
192.8165160359322101
 30
0.0
 11
5152.0407328867268006
 21
192.8165160359322101
 31
0.0
  0
ARC
  5
B88C
  8
0
 10
5152.0374240720302623
 20
192.9026534874849119
 30
0.0
 40
0.0862009791979743
 50
181.068320038936605
 51
272.1998323537645774
  0
LINE
  5
B88D
  8
0
 10
5154.4353031746350098
 20
268.505745627633587
 30
0.0
 11
5154.4353031746350098
 21
270.3000444319335998
 31
0.0
  0
LINE
  5
B88E
  8
0
 10
5154.1799967509787166
 20
194.0145593415522001
 30
0.0
 11
5153.7119967509788694
 21
194.0104751673842998
 31
0.0
  0
LINE
  5
B88F
  8
0
 10
5153.6958571264085549
 20
194.02647455815341
 30
0.0
 11
5153.6958571264085549
 21
194.5075575138110935
 31
0.0
  0
LINE
  5
B890
  8
0
 10
5153.7119967509788694
 20
194.5235569045800901
 30
0.0
 11
5154.1799967509787166
 21
194.5194727304123035
 31
0.0
  0
LINE
  5
B891
  8
0
 10
5154.1958571264103739
 20
194.0305587323211967
 30
0.0
 11
5154.1958571264103739
 21
194.5034733396433069
 31
0.0
  0
ARC
  5
B892
  8
0
 10
5154.1798571264098427
 20
194.0305587323211967
 30
0.0
 40
0.016
 50
270.5000000051246047
 51
0.0000000000130276
  0
ARC
  5
B893
  8
0
 10
5153.7118571264099955
 20
194.02647455815341
 30
0.0
 40
0.016
 50
180.0000000000634941
 51
270.5000000049681717
  0
ARC
  5
B894
  8
0
 10
5153.7118571264099955
 20
194.5075575138110935
 30
0.0
 40
0.016
 50
89.4999999948232841
 51
180.000000000037403
  0
ARC
  5
B895
  8
0
 10
5154.1798571264098427
 20
194.5034733396433069
 30
0.0
 40
0.016
 50
359.9999999999869829
 51
89.4999999949796319
  0
LINE
  5
B896
  8
0
 10
5151.0674463820087112
 20
194.6007805741097911
 30
0.0
 11
5151.1427905917098542
 21
194.6003325706809051
 31
0.0
  0
LINE
  5
B897
  8
0
 10
5151.1427905917098542
 20
194.6003325706809051
 30
0.0
 11
5151.1436071264097336
 21
194.5995160359321972
 31
0.0
  0
LINE
  5
B898
  8
0
 10
5151.1436071264097336
 20
194.5995160359321972
 30
0.0
 11
5151.1436071264097336
 21
194.5459709012322094
 31
0.0
  0
LINE
  5
B899
  8
0
 10
5151.1436071264097336
 20
194.5459709012322094
 30
0.0
 11
5151.1427905917098542
 21
194.5451614613322135
 31
0.0
  0
LINE
  5
B89A
  8
0
 10
5151.1427905917098542
 20
194.5451614613322135
 30
0.0
 11
5151.0674463820087112
 21
194.5454616514151098
 31
0.0
  0
LINE
  5
B89B
  8
0
 10
5151.8311071264097336
 20
194.5241102003259925
 30
0.0
 11
5151.8311071264097336
 21
194.0099218717211897
 31
0.0
  0
LINE
  5
B89C
  8
0
 10
5151.0674463820087112
 20
193.9873965259835131
 30
0.0
 11
5151.8152467509771668
 21
193.9939224809521932
 31
0.0
  0
LINE
  5
B89D
  8
0
 10
5151.8152467509771668
 20
194.5401095910951028
 30
0.0
 11
5151.1436071264097336
 21
194.5459709012322094
 31
0.0
  0
ARC
  5
B89E
  8
0
 10
5151.8151071264092025
 20
194.5241102003259925
 30
0.0
 40
0.016
 50
359.9999999999478746
 51
89.5000000058710867
  0
ARC
  5
B89F
  8
0
 10
5151.8151071264092025
 20
194.0099218717211897
 30
0.0
 40
0.016
 50
270.5000000012162218
 51
359.9999999999234888
  0
LINE
  5
B8A0
  8
0
 10
5151.1062178194097214
 20
194.0170160359321869
 30
0.0
 11
5151.8311071264097336
 21
194.0170160359321869
 31
0.0
  0
LINE
  5
B8A1
  8
0
 10
5151.1062178194097214
 20
194.5170160359321869
 30
0.0
 11
5151.1062178194097214
 21
194.0170160359321869
 31
0.0
  0
LINE
  5
B8A2
  8
0
 10
5151.1062178194097214
 20
194.5170160359321869
 30
0.0
 11
5151.8311071264097336
 21
194.5170160359321869
 31
0.0
  0
CIRCLE
  5
B8A3
  8
0
 10
5151.3411071264099519
 20
194.2345160359321881
 30
0.0
 40
0.0820000000000018
  0
ARC
  5
B8A4
  8
0
 10
5151.3424310480386339
 20
194.2632342888566939
 30
0.0
 40
0.0728850325450638
 50
5.3887818581915967
 51
169.3322442771820988
  0
ARC
  5
B8A5
  8
0
 10
5151.3329508069073199
 20
194.2664381104804932
 30
0.0
 40
0.0714000440102233
 50
20.9293916091807795
 51
75.9080815213712725
  0
LINE
  5
B8A6
  8
0
 10
5151.7747170946086044
 20
194.0170160359321869
 30
0.0
 11
5151.7747170946086044
 21
194.5170160359321869
 31
0.0
  0
LINE
  5
B8A7
  8
0
 10
5151.7259433940089366
 20
194.0170160359321869
 30
0.0
 11
5151.7259433940089366
 21
194.5170160359321869
 31
0.0
  0
LINE
  5
B8A8
  8
0
 10
5151.5516696426102499
 20
194.0170160359321869
 30
0.0
 11
5151.5516696426102499
 21
194.5170160359321869
 31
0.0
  0
LINE
  5
B8A9
  8
0
 10
5151.5031390739086419
 20
194.0170160359321869
 30
0.0
 11
5151.5031390739086419
 21
194.5170160359321869
 31
0.0
  0
LINE
  5
B8AA
  8
0
 10
5151.4406492200096181
 20
194.0170160359321869
 30
0.0
 11
5151.4406492200096181
 21
194.5170160359321869
 31
0.0
  0
LINE
  5
B8AB
  8
0
 10
5151.2527764681099143
 20
194.0170160359321869
 30
0.0
 11
5151.2527764681099143
 21
194.5170160359321869
 31
0.0
  0
LINE
  5
B8AC
  8
0
 10
5151.1355015778099187
 20
194.0170160359321869
 30
0.0
 11
5151.1355015778099187
 21
194.5170160359321869
 31
0.0
  0
LINE
  5
B8AD
  8
0
 10
5151.5741723081100645
 20
192.7545160359321983
 30
0.0
 11
5151.5741723081100645
 21
193.6720160359321881
 31
0.0
  0
LINE
  5
B8AE
  8
0
 10
5151.5461071264098791
 20
192.7545160359321983
 30
0.0
 11
5151.5461071264098791
 21
193.6720160359321881
 31
0.0
  0
LINE
  5
B8AF
  8
0
 10
5151.5301071264102575
 20
192.7545160359321983
 30
0.0
 11
5151.5301071264102575
 21
193.6720160359321881
 31
0.0
  0
LINE
  5
B8B0
  8
0
 10
5151.1521071264096463
 20
192.7545160359321983
 30
0.0
 11
5151.1521071264096463
 21
193.6720160359321881
 31
0.0
  0
LINE
  5
B8B1
  8
0
 10
5151.1080419448098837
 20
192.7545160359321983
 30
0.0
 11
5151.1080419448098837
 21
193.6720160359321881
 31
0.0
  0
CIRCLE
  5
B8B2
  8
0
 10
5151.3411071264099519
 20
196.7545160359321983
 30
0.0
 40
0.0944999999999965
  0
LINE
  5
B8B3
  8
0
 10
5151.6569467212093514
 20
194.8038828365322104
 30
0.0
 11
5151.6569467212093514
 21
268.3715160361322205
 31
0.0
  0
LINE
  5
B8B4
  8
0
 10
5151.642675172410236
 20
194.8038828365322104
 30
0.0
 11
5151.642675172410236
 21
268.3715160361322205
 31
0.0
  0
LINE
  5
B8B5
  8
0
 10
5151.6125546759103599
 20
194.8038828365322104
 30
0.0
 11
5151.6125546759103599
 21
268.3715160361322205
 31
0.0
  0
LINE
  5
B8B6
  8
0
 10
5151.5994632462097798
 20
194.8038828365322104
 30
0.0
 11
5151.5994632462097798
 21
268.3715160361322205
 31
0.0
  0
LINE
  5
B8B7
  8
0
 10
5151.5741723081100645
 20
194.8038828365322104
 30
0.0
 11
5151.5741723081100645
 21
268.3715160361322205
 31
0.0
  0
LINE
  5
B8B8
  8
0
 10
5151.5461071264098791
 20
194.8038828365322104
 30
0.0
 11
5151.5461071264098791
 21
268.3715160361322205
 31
0.0
  0
LINE
  5
B8B9
  8
0
 10
5151.5301071264102575
 20
194.8038828365322104
 30
0.0
 11
5151.5301071264102575
 21
266.8975160361321741
 31
0.0
  0
LINE
  5
B8BA
  8
0
 10
5151.3441685939096715
 20
194.8038828365322104
 30
0.0
 11
5151.3441685939096715
 21
196.6600656393383133
 31
0.0
  0
LINE
  5
B8BB
  8
0
 10
5151.3441685939096715
 20
196.8489664325261117
 30
0.0
 11
5151.3441685939096715
 21
230.4685656393382942
 31
0.0
  0
LINE
  5
B8BC
  8
0
 10
5151.3441685939096715
 20
230.6574664325260926
 30
0.0
 11
5151.3441685939096715
 21
264.2770656394350794
 31
0.0
  0
LINE
  5
B8BD
  8
0
 10
5151.3441685939096715
 20
264.4659664326293864
 30
0.0
 11
5151.3441685939096715
 21
266.8975160361321741
 31
0.0
  0
LINE
  5
B8BE
  8
0
 10
5151.3380456590093672
 20
194.8038828365322104
 30
0.0
 11
5151.3380456590093672
 21
196.660065639334988
 31
0.0
  0
LINE
  5
B8BF
  8
0
 10
5151.3380456590093672
 20
196.8489664325294086
 30
0.0
 11
5151.3380456590093672
 21
230.4685656393349973
 31
0.0
  0
LINE
  5
B8C0
  8
0
 10
5151.3380456590093672
 20
230.6574664325293895
 30
0.0
 11
5151.3380456590093672
 21
264.2770656394383195
 31
0.0
  0
LINE
  5
B8C1
  8
0
 10
5151.3380456590093672
 20
264.4659664326260895
 30
0.0
 11
5151.3380456590093672
 21
266.8975160361321741
 31
0.0
  0
LINE
  5
B8C2
  8
0
 10
5151.3546369579098609
 20
194.8038828365322104
 30
0.0
 11
5151.3546369579098609
 21
196.6609896029864046
 31
0.0
  0
LINE
  5
B8C3
  8
0
 10
5151.3546369579098609
 20
196.8480424688781056
 30
0.0
 11
5151.3546369579098609
 21
230.4694896029863003
 31
0.0
  0
LINE
  5
B8C4
  8
0
 10
5151.3546369579098609
 20
230.6565424688780865
 30
0.0
 11
5151.3546369579098609
 21
264.2779896030718874
 31
0.0
  0
LINE
  5
B8C5
  8
0
 10
5151.3546369579098609
 20
264.4650424689925785
 30
0.0
 11
5151.3546369579098609
 21
266.8975160361321741
 31
0.0
  0
LINE
  5
B8C6
  8
0
 10
5151.3275772950100873
 20
194.8038828365322104
 30
0.0
 11
5151.3275772950100873
 21
196.6609896029719096
 31
0.0
  0
LINE
  5
B8C7
  8
0
 10
5151.3275772950100873
 20
196.8480424688926007
 30
0.0
 11
5151.3275772950100873
 21
230.4694896029718905
 31
0.0
  0
LINE
  5
B8C8
  8
0
 10
5151.3275772950100873
 20
230.65654246889261
 30
0.0
 11
5151.3275772950100873
 21
264.2779896030863824
 31
0.0
  0
LINE
  5
B8C9
  8
0
 10
5151.3275772950100873
 20
264.4650424689780834
 30
0.0
 11
5151.3275772950100873
 21
266.8975160361321741
 31
0.0
  0
LINE
  5
B8CA
  8
0
 10
5151.1521071264096463
 20
194.8038828365322104
 30
0.0
 11
5151.1521071264096463
 21
266.8975160361321741
 31
0.0
  0
LINE
  5
B8CB
  8
0
 10
5151.1361071264109341
 20
194.8038828365322104
 30
0.0
 11
5151.1361071264109341
 21
268.3715160361322205
 31
0.0
  0
LINE
  5
B8CC
  8
0
 10
5151.1080419448098837
 20
194.8038828365322104
 30
0.0
 11
5151.1080419448098837
 21
268.3715160361322205
 31
0.0
  0
LINE
  5
B8CD
  8
0
 10
5151.0827510067101684
 20
194.8038828365322104
 30
0.0
 11
5151.0827510067101684
 21
270.8975160361322878
 31
0.0
  0
LINE
  5
B8CE
  8
0
 10
5151.1399195264102673
 20
266.8975160361321741
 30
0.0
 11
5151.5421071264099737
 21
266.8975160361321741
 31
0.0
  0
LINE
  5
B8CF
  8
0
 10
5151.1399195264102673
 20
266.8975160361321741
 30
0.0
 11
5151.1399195264102673
 21
268.3715160361322205
 31
0.0
  0
LINE
  5
B8D0
  8
0
 10
5151.5421071264099737
 20
266.8975160361321741
 30
0.0
 11
5151.5421071264099737
 21
268.3715160361322205
 31
0.0
  0
LINE
  5
B8D1
  8
0
 10
5151.4861071264085695
 20
268.3715160361322205
 30
0.0
 11
5153.6569821264101847
 21
268.3715160361322205
 31
0.0
  0
LINE
  5
B8D2
  8
0
 10
5151.4861071264085695
 20
268.3715160361322205
 30
0.0
 11
5151.4861071264085695
 21
270.8975160361322878
 31
0.0
  0
LINE
  5
B8D3
  8
0
 10
5151.1961071264086058
 20
268.3715160361322205
 30
0.0
 11
5151.0827510067101684
 21
268.3715160361322205
 31
0.0
  0
LINE
  5
B8D4
  8
0
 10
5151.1961071264086058
 20
268.3715160361322205
 30
0.0
 11
5151.1961071264086058
 21
270.8975160361322878
 31
0.0
  0
LINE
  5
B8D5
  8
0
 10
5151.0827510067101684
 20
270.8975160361322878
 30
0.0
 11
5153.6569821264101847
 21
270.8975160361322878
 31
0.0
  0
LINE
  5
B8D6
  8
0
 10
5151.708334274309891
 20
270.9610386509979776
 30
0.0
 11
5153.6633251351086074
 21
270.9610386509979776
 31
0.0
  0
LINE
  5
B8D7
  8
0
 10
5151.6883342743094545
 20
271.0761638883286082
 30
0.0
 11
5151.6883342743094545
 21
270.9810386509980162
 31
0.0
  0
LINE
  5
B8D8
  8
0
 10
5153.7376299786110394
 20
271.0761638883286082
 30
0.0
 11
5153.7376299786110394
 21
268.1168681840322279
 31
0.0
  0
ARC
  5
B8D9
  8
0
 10
5153.7176299786096934
 20
271.0761638883287219
 30
0.0
 40
0.02
 50
359.9999999999380975
 51
90.0000000000521254
  0
ARC
  5
B8DA
  8
0
 10
5151.708334274309891
 20
271.0761638883286082
 30
0.0
 40
0.02
 50
90.0
 51
180.0000000000194973
  0
ARC
  5
B8DB
  8
0
 10
5151.708334274309891
 20
270.9810386509980162
 30
0.0
 40
0.02
 50
179.9999999999787974
 51
270.0000000000521254
  0
ARC
  5
B8DC
  8
0
 10
5153.6633251351086074
 20
270.9410386509979958
 30
0.0
 40
0.02
 50
0.0
 51
90.0000000000521254
  0
LINE
  5
B8DD
  8
0
 10
5153.0307982426184026
 20
270.9086925954322282
 30
0.0
 11
5153.2561338074183368
 21
270.9086925954322282
 31
0.0
  0
ARC
  5
B8DE
  8
0
 10
5153.0307982426184026
 20
270.8686996067751807
 30
0.0
 40
0.0399929887014773
 50
90.0
 51
133.9011634384378908
  0
ARC
  5
B8DF
  8
0
 10
5153.2561492912791437
 20
270.8686578213980738
 30
0.0
 40
0.0400347770294804
 50
46.1229386969562114
 51
90.0221597317575259
  0
LINE
  5
B8E0
  8
0
 10
5151.0211071264102429
 20
271.0005160361321828
 30
0.0
 11
5151.6611071264087514
 21
271.0005160361321828
 31
0.0
  0
LINE
  5
B8E1
  8
0
 10
5151.6596615470143661
 20
271.0419120159309045
 30
0.0
 11
5151.6611071264087514
 21
271.0005160361321828
 31
0.0
  0
LINE
  5
B8E2
  8
0
 10
5151.0625283389890683
 20
271.0805160361322237
 30
0.0
 11
5151.6196859139299704
 21
271.0805160361322237
 31
0.0
  0
LINE
  5
B8E3
  8
0
 10
5151.0211071264102429
 20
271.0005160361321828
 30
0.0
 11
5151.0225527059101296
 21
271.0419120160275952
 31
0.0
  0
ARC
  5
B8E4
  8
0
 10
5151.0625283389890683
 20
271.0405160361322032
 30
0.0
 40
0.04
 50
90.0000000000521254
 51
177.9999999608540975
  0
ARC
  5
B8E5
  8
0
 10
5151.6196859139299704
 20
271.0405160361322032
 30
0.0
 40
0.04
 50
1.999999900563592
 51
90.0
  0
LINE
  5
B8E6
  8
0
 10
5151.2035133264098477
 20
266.8975160361321741
 30
0.0
 11
5151.2035133264098477
 21
270.8975160361322878
 31
0.0
  0
LINE
  5
B8E7
  8
0
 10
5151.2195133264103788
 20
266.8975160361321741
 30
0.0
 11
5151.2195133264103788
 21
270.8975160361322878
 31
0.0
  0
LINE
  5
B8E8
  8
0
 10
5151.4625133264098622
 20
266.8975160361321741
 30
0.0
 11
5151.4625133264098622
 21
270.8975160361322878
 31
0.0
  0
LINE
  5
B8E9
  8
0
 10
5151.4785133264085744
 20
266.8975160361321741
 30
0.0
 11
5151.4785133264085744
 21
270.8975160361322878
 31
0.0
  0
LINE
  5
B8EA
  8
0
 10
5151.708334274309891
 20
268.0968681840321892
 30
0.0
 11
5153.7176299786096934
 21
268.0968681840321892
 31
0.0
  0
LINE
  5
B8EB
  8
0
 10
5151.6883342743094545
 20
268.324118599632186
 30
0.0
 11
5151.6883342743094545
 21
268.1168681840322279
 31
0.0
  0
LINE
  5
B8EC
  8
0
 10
5151.708334274309891
 20
268.3441185996322247
 30
0.0
 11
5152.2770620759101803
 21
268.3441185996322247
 31
0.0
  0
ARC
  5
B8ED
  8
0
 10
5151.708334274309891
 20
268.324118599632186
 30
0.0
 40
0.02
 50
90.0000000000521254
 51
180.0000000000406999
  0
LINE
  5
B8EE
  8
0
 10
5152.2970620759087979
 20
268.324118599632186
 30
0.0
 11
5152.2970620759087979
 21
268.3215959856322002
 31
0.0
  0
LINE
  5
B8EF
  8
0
 10
5152.3170620759101439
 20
268.3015959856322183
 30
0.0
 11
5153.2589021770099862
 21
268.3015959856322183
 31
0.0
  0
ARC
  5
B8F0
  8
0
 10
5152.2770620759101803
 20
268.324118599632186
 30
0.0
 40
0.02
 50
359.9999999999593001
 51
90.0000000000521254
  0
ARC
  5
B8F1
  8
0
 10
5152.3170620759101439
 20
268.3215959856322002
 30
0.0
 40
0.02
 50
180.0
 51
269.9999999999478746
  0
LINE
  5
B8F2
  8
0
 10
5152.313982126409428
 20
268.3345160361321859
 30
0.0
 11
5152.313982126409428
 21
268.3715160361322205
 31
0.0
  0
LINE
  5
B8F3
  8
0
 10
5152.3299821264099592
 20
268.3185160361322232
 30
0.0
 11
5153.2419821264093116
 21
268.3185160361322232
 31
0.0
  0
LINE
  5
B8F4
  8
0
 10
5152.3299821264099592
 20
268.3285160361322141
 30
0.0
 11
5153.2319821264100028
 21
268.3285160361322141
 31
0.0
  0
ARC
  5
B8F5
  8
0
 10
5152.3299821264099592
 20
268.3445160361321769
 30
0.0
 40
0.016
 50
180.0000000000765112
 51
270.0
  0
ARC
  5
B8F6
  8
0
 10
5152.3299821264099592
 20
268.3345160361321859
 30
0.0
 40
0.016
 50
180.0000000000243858
 51
270.0
  0
ARC
  5
B8F7
  8
0
 10
5151.708334274309891
 20
268.1168681840322279
 30
0.0
 40
0.02
 50
179.9999999999787974
 51
270.0
  0
LINE
  5
B8F8
  8
0
 10
5153.2989021770090403
 20
268.3441185996322247
 30
0.0
 11
5153.6653795630099921
 21
268.3441185996322247
 31
0.0
  0
LINE
  5
B8F9
  8
0
 10
5153.2789021770104227
 20
268.3215959856322002
 30
0.0
 11
5153.2789021770104227
 21
268.324118599632186
 31
0.0
  0
ARC
  5
B8FA
  8
0
 10
5153.2589021770099862
 20
268.3215959856322002
 30
0.0
 40
0.02
 50
270.0
 51
0.0
  0
ARC
  5
B8FB
  8
0
 10
5153.2989021770090403
 20
268.324118599632186
 30
0.0
 40
0.02
 50
90.0000000001042082
 51
179.9999999999787974
  0
LINE
  5
B8FC
  8
0
 10
5153.2619821264097482
 20
268.338516036132205
 30
0.0
 11
5153.2619821264097482
 21
268.3715160361322205
 31
0.0
  0
LINE
  5
B8FD
  8
0
 10
5153.2519821264086204
 20
268.3485160361321959
 30
0.0
 11
5153.2519821264086204
 21
268.3715160361322205
 31
0.0
  0
ARC
  5
B8FE
  8
0
 10
5153.2319821264100028
 20
268.3485160361321959
 30
0.0
 40
0.02
 50
269.9999999999478746
 51
0.0
  0
ARC
  5
B8FF
  8
0
 10
5153.2419821264093116
 20
268.338516036132205
 30
0.0
 40
0.02
 50
270.0
 51
0.0000000000195413
  0
ARC
  5
B900
  8
0
 10
5153.7176299786096934
 20
268.1168681840322279
 30
0.0
 40
0.02
 50
270.0000000000521254
 51
359.9999999999789111
  0
LINE
  5
B901
  8
0
 10
5153.6853795630086097
 20
268.3641185996322065
 30
0.0
 11
5153.6853795630086097
 21
270.9434360867322198
 31
0.0
  0
ARC
  5
B902
  8
0
 10
5153.6653795630099921
 20
268.3641185996322065
 30
0.0
 40
0.02
 50
269.9999999999478746
 51
359.9999999999789111
  0
LINE
  5
B903
  8
0
 10
5153.6633251351086074
 20
268.3461730275321884
 30
0.0
 11
5153.2970211471420043
 21
268.3461730275321884
 31
0.0
  0
LINE
  5
B904
  8
0
 10
5153.6833251351090439
 20
268.366173027532227
 30
0.0
 11
5153.6833251351090439
 21
270.9410386509979958
 31
0.0
  0
ARC
  5
B905
  8
0
 10
5153.6633251351086074
 20
268.366173027532227
 30
0.0
 40
0.02
 50
269.9999999999478746
 51
359.9999999999789111
  0
ARC
  5
B906
  8
0
 10
5153.2968600532103665
 20
268.3261616295321801
 30
0.0
 40
0.0200120463999783
 50
89.5387726975161939
 51
179.9586449127237131
  0
LINE
  5
B907
  8
0
 10
5153.2768480120212189
 20
268.3261760738744783
 30
0.0
 11
5153.2789024515068377
 21
268.3241216457321912
 31
0.0
  0
LINE
  5
B908
  8
0
 10
5153.6569821264101847
 20
268.3715160361322205
 30
0.0
 11
5153.6569821264101847
 21
270.8975160361322878
 31
0.0
  0
CIRCLE
  5
B909
  8
0
 10
5152.3970446264092971
 20
269.1595160361321746
 30
0.0
 40
0.1299999999999955
  0
CIRCLE
  5
B90A
  8
0
 10
5152.9199196264098646
 20
269.1595160361321746
 30
0.0
 40
0.1300000000000042
  0
CIRCLE
  5
B90B
  8
0
 10
5152.9199196264098646
 20
270.1095160361322201
 30
0.0
 40
0.1299999999999968
  0
CIRCLE
  5
B90C
  8
0
 10
5152.3970446264092971
 20
270.1095160361322201
 30
0.0
 40
0.1299999999999954
  0
LINE
  5
B90D
  8
0
 10
5151.7351071264101847
 20
268.3715160361322205
 30
0.0
 11
5151.7351071264101847
 21
270.8975160361322878
 31
0.0
  0
LINE
  5
B90E
  8
0
 10
5151.7511071264088969
 20
268.3715160361322205
 30
0.0
 11
5151.7511071264088969
 21
270.8975160361322878
 31
0.0
  0
LINE
  5
B90F
  8
0
 10
5151.7671071264103375
 20
268.3715160361322205
 30
0.0
 11
5151.7671071264103375
 21
270.8975160361322878
 31
0.0
  0
LINE
  5
B910
  8
0
 10
5151.9879821264103157
 20
268.3715160361322205
 30
0.0
 11
5151.9879821264103157
 21
270.8975160361322878
 31
0.0
  0
LINE
  5
B911
  8
0
 10
5151.9719821264097845
 20
268.3715160361322205
 30
0.0
 11
5151.9719821264097845
 21
270.8975160361322878
 31
0.0
  0
LINE
  5
B912
  8
0
 10
5152.0039821264099373
 20
268.3715160361322205
 30
0.0
 11
5152.0039821264099373
 21
270.8975160361322878
 31
0.0
  0
LINE
  5
B913
  8
0
 10
5152.0319821264101847
 20
268.3715160361322205
 30
0.0
 11
5152.0319821264101847
 21
270.8975160361322878
 31
0.0
  0
LINE
  5
B914
  8
0
 10
5152.0479821264098064
 20
268.3715160361322205
 30
0.0
 11
5152.0479821264098064
 21
270.8975160361322878
 31
0.0
  0
LINE
  5
B915
  8
0
 10
5152.0639821264103375
 20
268.3715160361322205
 30
0.0
 11
5152.0639821264103375
 21
270.8975160361322878
 31
0.0
  0
LINE
  5
B916
  8
0
 10
5153.5818571264098864
 20
268.3715160361322205
 30
0.0
 11
5153.5818571264098864
 21
270.8975160361322878
 31
0.0
  0
LINE
  5
B917
  8
0
 10
5153.5658571264093553
 20
268.3715160361322205
 30
0.0
 11
5153.5658571264093553
 21
270.8975160361322878
 31
0.0
  0
LINE
  5
B918
  8
0
 10
5153.5498571264097336
 20
268.3715160361322205
 30
0.0
 11
5153.5498571264097336
 21
270.8975160361322878
 31
0.0
  0
LINE
  5
B919
  8
0
 10
5153.3289821264097554
 20
268.3715160361322205
 30
0.0
 11
5153.3289821264097554
 21
270.8975160361322878
 31
0.0
  0
LINE
  5
B91A
  8
0
 10
5153.3449821264093771
 20
268.3715160361322205
 30
0.0
 11
5153.3449821264093771
 21
270.8975160361322878
 31
0.0
  0
LINE
  5
B91B
  8
0
 10
5153.3129821264101338
 20
268.3715160361322205
 30
0.0
 11
5153.3129821264101338
 21
270.8975160361322878
 31
0.0
  0
LINE
  5
B91C
  8
0
 10
5153.2849821264098864
 20
268.3715160361322205
 30
0.0
 11
5153.2849821264098864
 21
270.8975160361322878
 31
0.0
  0
LINE
  5
B91D
  8
0
 10
5153.2689821264093553
 20
268.3715160361322205
 30
0.0
 11
5153.2689821264093553
 21
270.8975160361322878
 31
0.0
  0
LINE
  5
B91E
  8
0
 10
5153.2529821264097336
 20
268.3715160361322205
 30
0.0
 11
5153.2529821264097336
 21
270.8975160361322878
 31
0.0
  0
LINE
  5
B91F
  8
0
 10
5152.9473140979098389
 20
270.9245866145478203
 30
0.0
 11
5152.9473140979098389
 21
270.8975160361322878
 31
0.0
  0
LINE
  5
B920
  8
0
 10
5152.9073140979098753
 20
270.9245866124747977
 30
0.0
 11
5152.9073140979098753
 21
270.8975160361322878
 31
0.0
  0
LINE
  5
B921
  8
0
 10
5152.8931344925103986
 20
270.9265160361322273
 30
0.0
 11
5152.8931344925103986
 21
270.8975160361322878
 31
0.0
  0
LINE
  5
B922
  8
0
 10
5152.9614937032101807
 20
270.9265160361322273
 30
0.0
 11
5152.9614937032101807
 21
270.8975160361322878
 31
0.0
  0
ARC
  5
B923
  8
0
 10
5152.9273140978593801
 20
270.9265160361322273
 30
0.0
 40
0.0341796053499906
 50
0.0
 51
180.0
  0
ARC
  5
B924
  8
0
 10
5152.9273140978593801
 20
270.925551325150991
 30
0.0
 40
0.0200232532141236
 50
357.2384481155768867
 51
182.7615578228472941
  0
LINE
  5
B925
  8
0
 10
5152.7924258421098784
 20
270.9284823658322239
 30
0.0
 11
5152.7924258421098784
 21
270.8975160361322878
 31
0.0
  0
LINE
  5
B926
  8
0
 10
5152.8046391178086196
 20
270.8975160361322878
 30
0.0
 11
5152.8046391178086196
 21
270.9407052958396775
 31
0.0
  0
LINE
  5
B927
  8
0
 10
5152.4903251351097424
 20
270.8975160361322878
 30
0.0
 11
5152.4903251351097424
 21
270.9402868309400105
 31
0.0
  0
LINE
  5
B928
  8
0
 10
5152.5025384108103026
 20
270.9284823658322239
 30
0.0
 11
5152.5025384108103026
 21
270.8975160361322878
 31
0.0
  0
LINE
  5
B929
  8
0
 10
5152.5225384108098297
 20
270.9484823658322057
 30
0.0
 11
5152.7724258421094419
 21
270.9484823658322057
 31
0.0
  0
ARC
  5
B92A
  8
0
 10
5152.5225384108098297
 20
270.9284823658322239
 30
0.0
 40
0.02
 50
89.9999999999478888
 51
180.0000000000406999
  0
ARC
  5
B92B
  8
0
 10
5152.7724258421094419
 20
270.9284823658322239
 30
0.0
 40
0.02
 50
359.9999999999789111
 51
90.0000000000521254
  0
ARC
  5
B92C
  8
0
 10
5152.5108755230730821
 20
270.9404927595771824
 30
0.0
 40
0.020551419704207
 50
91.3289896524397733
 51
180.5741228298724081
  0
ARC
  5
B92D
  8
0
 10
5152.7838368699240164
 20
270.940242196631516
 30
0.0
 40
0.0208074019795636
 50
1.2753043272047859
 51
88.1413078520274667
  0
LINE
  5
B92E
  8
0
 10
5152.4059886758368521
 20
270.9086925954322282
 30
0.0
 11
5152.3196051160930438
 21
270.9086925954322282
 31
0.0
  0
ARC
  5
B92F
  8
0
 10
5152.4039237469160071
 20
270.8682851790778159
 30
0.0
 40
0.0404601436920716
 50
46.2580021919986706
 51
87.0745746737306234
  0
ARC
  5
B930
  8
0
 10
5152.3197990956650756
 20
270.8686980059154052
 30
0.0
 40
0.0399950599247314
 50
90.2778895318910344
 51
133.9009393570449049
  0
LINE
  5
B931
  8
0
 10
5151.3666071264260609
 20
271.0005160361321828
 30
0.0
 11
5151.363010287209363
 21
270.8975160361322878
 31
0.0
  0
LINE
  5
B932
  8
0
 10
5151.3156071264929778
 20
271.0005160361321828
 30
0.0
 11
5151.3192039657096757
 21
270.8975160361322878
 31
0.0
  0
LINE
  5
B933
  8
0
 10
5151.1623057530086953
 20
270.8975160361322878
 30
0.0
 11
5151.1618624179218386
 21
271.0005160361321828
 31
0.0
  0
LINE
  5
B934
  8
0
 10
5151.1510419623773487
 20
270.8975160361322878
 30
0.0
 11
5151.1505986273241433
 21
271.0005160361321828
 31
0.0
  0
LINE
  5
B935
  8
0
 10
5151.1358136371691216
 20
270.8975160361322878
 30
0.0
 11
5151.1307462948043394
 21
271.0005160361321828
 31
0.0
  0
LINE
  5
B936
  8
0
 10
5151.0963063189101376
 20
270.8975160361322878
 30
0.0
 11
5151.0963063189101376
 21
271.0005160361321828
 31
0.0
  0
LINE
  5
B937
  8
0
 10
5151.5199084999103434
 20
270.8975160361322878
 30
0.0
 11
5151.520351834999019
 21
271.0005160361321828
 31
0.0
  0
LINE
  5
B938
  8
0
 10
5151.5311722905425995
 20
270.8975160361322878
 30
0.0
 11
5151.5316156255958049
 21
271.0005160361321828
 31
0.0
  0
LINE
  5
B939
  8
0
 10
5151.5464006157499171
 20
270.8975160361322878
 30
0.0
 11
5151.5514679581156088
 21
271.0005160361321828
 31
0.0
  0
LINE
  5
B93A
  8
0
 10
5151.5859079340089011
 20
270.8975160361322878
 30
0.0
 11
5151.5859079340089011
 21
271.0005160361321828
 31
0.0
  0
LINE
  5
B93B
  8
0
 10
5151.6173843050100913
 20
270.8975160361322878
 30
0.0
 11
5151.6173843050100913
 21
271.0005160361321828
 31
0.0
  0
LINE
  5
B93C
  8
0
 10
5151.6376768857098796
 20
270.8975160361322878
 30
0.0
 11
5151.6376768857098796
 21
271.0005160361321828
 31
0.0
  0
LINE
  5
B93D
  8
0
 10
5151.6569467212093514
 20
270.8975160361322878
 30
0.0
 11
5151.6569467212093514
 21
271.0005160361321828
 31
0.0
  0
LINE
  5
B93E
  8
0
 10
5151.6910747195097429
 20
270.8975160361322878
 30
0.0
 11
5151.6910747195097429
 21
270.970933812151884
 31
0.0
  0
LINE
  5
B93F
  8
0
 10
5153.6653795630099921
 20
270.9634360867322016
 30
0.0
 11
5151.708334274309891
 21
270.9634360867322016
 31
0.0
  0
ARC
  5
B940
  8
0
 10
5153.6653795630099921
 20
270.9434360867322198
 30
0.0
 40
0.02
 50
359.9999999999789111
 51
90.0
  0
ARC
  5
B941
  8
0
 10
5151.708334274309891
 20
270.9834360867321834
 30
0.0
 40
0.02
 50
179.9999999999787974
 51
270.0
  0
LINE
  5
B942
  8
0
 10
5154.3949525768348394
 20
268.4653950297337133
 30
0.0
 11
5154.2686537725348899
 21
268.4653950297337133
 31
0.0
  0
LINE
  5
B943
  8
0
 10
5154.3949525768348394
 20
268.4653950297337133
 30
0.0
 11
5154.4353031746350098
 21
268.505745627633587
 31
0.0
  0
LINE
  5
B944
  8
0
 10
5154.2686537725348899
 20
268.4653950297337133
 30
0.0
 11
5154.2283031746346751
 21
268.505745627633587
 31
0.0
  0
LINE
  5
B945
  8
0
 10
5154.2283031746346751
 20
270.3000444319337134
 30
0.0
 11
5154.2283031746346751
 21
268.505745627633587
 31
0.0
  0
LINE
  5
B946
  8
0
 10
5154.2686537725348899
 20
270.3403950297337133
 30
0.0
 11
5154.3949525768348394
 21
270.3403950297337133
 31
0.0
  0
LINE
  5
B947
  8
0
 10
5154.3949525768348394
 20
270.3403950297337133
 30
0.0
 11
5154.4353031746350098
 21
270.3000444319335998
 31
0.0
  0
LINE
  5
B948
  8
0
 10
5154.2283031746346751
 20
270.3000444319337134
 30
0.0
 11
5154.2686537725348899
 21
270.3403950297337133
 31
0.0
  0
LINE
  5
B949
  8
0
 10
5154.2283031746346751
 20
268.7416165436335973
 30
0.0
 11
5153.9354151374927824
 21
268.7416165436335973
 31
0.0
  0
LINE
  5
B94A
  8
0
 10
5154.2283031746346751
 20
270.0644562291868169
 30
0.0
 11
5153.9354360993420414
 21
270.0644562291868169
 31
0.0
  0
LINE
  5
B94B
  8
0
 10
5154.2686537725348899
 20
270.3403950297337133
 30
0.0
 11
5154.2686537725348899
 21
268.4653950297337133
 31
0.0
  0
LINE
  5
B94C
  8
0
 10
5154.3949525768348394
 20
270.3403950297337133
 30
0.0
 11
5154.3949525768348394
 21
268.4653950297337133
 31
0.0
  0
LINE
  5
B94D
  8
0
 10
5151.1752351243903831
 20
271.0804881977161926
 30
0.0
 11
5151.1752623031343319
 21
272.4281261799554272
 31
0.0
  0
LINE
  5
B94E
  8
0
 10
5151.3822623031328476
 20
272.4281261799554272
 30
0.0
 11
5151.3822351243888988
 21
271.0804881977161926
 31
0.0
  0
LINE
  5
B94F
  8
0
 10
5151.3419117052344518
 20
272.4684767777554839
 30
0.0
 11
5151.2156129009335928
 21
272.4684767777554839
 31
0.0
  0
LINE
  5
B950
  8
0
 10
5151.2156129009335928
 20
272.4684767777554839
 30
0.0
 11
5151.1752623031343319
 21
272.4281261799554272
 31
0.0
  0
LINE
  5
B951
  8
0
 10
5151.3822623031328476
 20
272.4281261799554272
 30
0.0
 11
5151.3419117052344518
 21
272.4684767777554839
 31
0.0
  0
LINE
  5
B952
  8
0
 10
5151.3822155723219112
 20
272.1939313025424099
 30
0.0
 11
5151.675215572320667
 21
272.1939313025424099
 31
0.0
  0
LINE
  5
B953
  8
0
 10
5151.3419117052344518
 20
272.4684767777554839
 30
0.0
 11
5151.3418845264886841
 21
271.0804881977161926
 31
0.0
  0
LINE
  5
B954
  8
0
 10
5151.2156129009335928
 20
272.4684767777554839
 30
0.0
 11
5151.2155857221887345
 21
271.0804881977161926
 31
0.0
  0
LINE
  5
B955
  8
0
 10
5152.262059580379173
 20
270.9610386509979776
 30
0.0
 11
5152.2620480529039924
 21
270.9634360867322016
 31
0.0
  0
LINE
  5
B956
  8
0
 10
5152.2614098642097815
 20
271.09616388832859
 30
0.0
 11
5152.2558013417383336
 21
272.2626008137248732
 31
0.0
  0
LINE
  5
B957
  8
0
 10
5152.0608411944549516
 20
272.2629997712321028
 30
0.0
 11
5152.2558013417383336
 21
272.2626008137248732
 31
0.0
  0
LINE
  5
B958
  8
0
 10
5152.2566467924889366
 20
272.0867675207372258
 30
0.0
 11
5152.3289975258949198
 21
272.0869494143177008
 31
0.0
  0
ARC
  5
B959
  8
0
 10
5152.5761712597241058
 20
272.0547245344877751
 30
0.0
 40
0.2952755904550293
 50
50.7035197365128383
 51
129.2964802375084048
  0
LINE
  5
B95A
  8
0
 10
5152.389163385775646
 20
272.2832321479274924
 30
0.0
 11
5152.394367483518181
 21
271.09616388832859
 31
0.0
  0
LINE
  5
B95B
  8
0
 10
5152.3461539643540164
 20
270.9610386509979776
 30
0.0
 11
5152.346142438726929
 21
270.9634360867322016
 31
0.0
  0
LINE
  5
B95C
  8
0
 10
5152.3455043523099448
 20
271.09616388832859
 30
0.0
 11
5152.3407919197488809
 21
272.0763928934339901
 31
0.0
  0
ARC
  5
B95D
  8
0
 10
5152.32910270816501
 20
272.0751999591669232
 30
0.0
 40
0.0117499259423068
 50
5.8271064370979353
 51
90.5129037119882867
  0
LINE
  5
B95E
  8
0
 10
5152.7631791338226321
 20
272.2832321478891799
 30
0.0
 11
5152.7683863023321464
 21
271.09616388832859
 31
0.0
  0
LINE
  5
B95F
  8
0
 10
5152.821670256876132
 20
272.2619962177428192
 30
0.0
 11
5152.8268792331627992
 21
271.09616388832859
 31
0.0
  0
LINE
  5
B960
  8
0
 10
5153.1288358096644515
 20
272.2156577375764073
 30
0.0
 11
5153.1338829754104154
 21
271.09616388832859
 31
0.0
  0
LINE
  5
B961
  8
0
 10
5152.8051878307378502
 20
271.2184704601415888
 30
0.0
 11
5152.8055397026100763
 21
271.1150069866321815
 31
0.0
  0
ARC
  5
B962
  8
0
 10
5152.7891878307382285
 20
271.2184704601415888
 30
0.0
 40
0.016
 50
0.0
 51
90.0
  0
LINE
  5
B963
  8
0
 10
5152.7677796096495513
 20
271.2344704601416083
 30
0.0
 11
5152.7891878307382285
 21
271.2344704601416083
 31
0.0
  0
LINE
  5
B964
  8
0
 10
5152.7975757698086454
 20
271.1070070680327149
 30
0.0
 11
5152.7955757899098899
 21
271.1069980512318125
 31
0.0
  0
ARC
  5
B965
  8
0
 10
5152.7975397027767031
 20
271.1150069865631735
 30
0.0
 40
0.00799999983288
 50
270.2583119695744927
 51
0.0000004942327531
  0
ARC
  5
B966
  8
0
 10
5152.7956441380401884
 20
271.0989211825666985
 30
0.0
 40
0.008077157847929
 50
90.4848371436911378
 51
186.3242294537832038
  0
LINE
  5
B967
  8
0
 10
5152.7876161340464023
 20
271.0980314462228193
 30
0.0
 11
5152.7876245538091098
 21
271.09616388832859
 31
0.0
  0
LINE
  5
B968
  8
0
 10
5152.821670256876132
 20
272.2620079988427051
 30
0.0
 11
5153.0824531476746415
 21
272.2620269429322093
 31
0.0
  0
ARC
  5
B969
  8
0
 10
5153.0823435736701867
 20
272.2467980529021929
 30
0.0
 40
0.0152292842251644
 50
45.4943070225309327
 51
89.587756043353636
  0
LINE
  5
B96A
  8
0
 10
5153.0930189992759551
 20
272.257659286081207
 30
0.0
 11
5153.1244491403404027
 21
272.2261901328565727
 31
0.0
  0
ARC
  5
B96B
  8
0
 10
5153.113835962109988
 20
272.2155901117321832
 30
0.0
 40
0.0150000000000281
 50
0.2583125724550137
 51
44.9644633245166219
  0
LINE
  5
B96C
  8
0
 10
5153.0824531476437187
 20
272.2620269429324935
 30
0.0
 11
5153.0877093660092214
 21
271.09616388832859
 31
0.0
  0
LINE
  5
B96D
  8
0
 10
5152.7651206197442662
 20
271.840635310732182
 30
0.0
 11
5152.8112684269099191
 21
271.840635310732182
 31
0.0
  0
LINE
  5
B96E
  8
0
 10
5152.8111076182585748
 20
271.6867430475322749
 30
0.0
 11
5152.8111076182585748
 21
271.7353261819321801
 31
0.0
  0
ARC
  5
B96F
  8
0
 10
5152.8268556497596364
 20
271.7353261819321801
 30
0.0
 40
0.0157480314999958
 50
100.6166599797974044
 51
180.0000000001546994
  0
ARC
  5
B970
  8
0
 10
5152.8268556501343483
 20
271.6867430476373784
 30
0.0
 40
0.0157480318742955
 50
180.0000003826029058
 51
260.6971825448400182
  0
ARC
  5
B971
  8
0
 10
5152.8112684269099191
 20
271.8566353107322016
 30
0.0
 40
0.015999999999945
 50
270.0
 51
320.0123943965257922
  0
ARC
  5
B972
  8
0
 10
5152.8105537667843237
 20
271.9580906658684967
 30
0.0
 40
0.015999999999984
 50
39.0284555136147873
 51
90.0
  0
LINE
  5
B973
  8
0
 10
5152.7995537667848112
 20
272.0240906658685276
 30
0.0
 11
5152.8228086693843579
 21
272.0240906658685276
 31
0.0
  0
LINE
  5
B974
  8
0
 10
5152.78355376678428
 20
271.9900906658684789
 30
0.0
 11
5152.78355376678428
 21
272.0080906658683944
 31
0.0
  0
LINE
  5
B975
  8
0
 10
5152.8105537667843237
 20
271.9740906658685162
 30
0.0
 11
5152.7995537667848112
 21
271.9740906658685162
 31
0.0
  0
ARC
  5
B976
  8
0
 10
5152.7995537667848112
 20
271.9900906658684789
 30
0.0
 40
0.016
 50
180.0000000000243858
 51
269.9999999999478746
  0
ARC
  5
B977
  8
0
 10
5152.7995537667848112
 20
272.0080906658683944
 30
0.0
 40
0.016
 50
90.0000000000521254
 51
180.0000000000505054
  0
LINE
  5
B978
  8
0
 10
5152.9306360717100688
 20
269.2890735824200874
 30
0.0
 11
5152.9306360717100688
 21
269.0299584898443186
 31
0.0
  0
LINE
  5
B979
  8
0
 10
5152.9306360717100688
 20
269.9799584898443072
 30
0.0
 11
5152.9306360717100688
 21
270.239073582420076
 31
0.0
  0
LINE
  5
B97A
  8
0
 10
5152.9106391178092963
 20
269.2891843520777115
 30
0.0
 11
5152.9106391178092963
 21
269.0298477201868081
 31
0.0
  0
LINE
  5
B97B
  8
0
 10
5152.9106391178092963
 20
269.9798477201867968
 30
0.0
 11
5152.9106391178092963
 21
270.2391843520775865
 31
0.0
  0
LINE
  5
B97C
  8
0
 10
5152.9026520283086938
 20
269.288364125197802
 30
0.0
 11
5152.9026520283086938
 21
269.030667947066604
 31
0.0
  0
LINE
  5
B97D
  8
0
 10
5152.9026520283086938
 20
269.9806679470665927
 30
0.0
 11
5152.9026520283086938
 21
270.2383641251977906
 31
0.0
  0
LINE
  5
B97E
  8
0
 10
5152.8563122245095656
 20
269.2728919525497986
 30
0.0
 11
5152.8563122245095656
 21
269.0461401197146074
 31
0.0
  0
LINE
  5
B97F
  8
0
 10
5152.8563122245095656
 20
269.996140119714596
 30
0.0
 11
5152.8563122245095656
 21
270.2228919525499009
 31
0.0
  0
LINE
  5
B980
  8
0
 10
5152.848325135109917
 20
269.2680251547145076
 30
0.0
 11
5152.848325135109917
 21
269.0510069175500121
 31
0.0
  0
LINE
  5
B981
  8
0
 10
5152.848325135109917
 20
270.001006917549887
 30
0.0
 11
5152.848325135109917
 21
270.2180251547143826
 31
0.0
  0
LINE
  5
B982
  8
0
 10
5152.828328181210054
 20
269.2517711561320084
 30
0.0
 11
5152.828328181210054
 21
269.0672609161323976
 31
0.0
  0
LINE
  5
B983
  8
0
 10
5152.828328181210054
 20
270.0172609161323862
 30
0.0
 11
5152.828328181210054
 21
270.201771156131997
 31
0.0
  0
LINE
  5
B984
  8
0
 10
5152.3939821264093553
 20
270.2394799584096745
 30
0.0
 11
5152.3939821264093553
 21
269.9795521138547088
 31
0.0
  0
LINE
  5
B985
  8
0
 10
5152.3939821264093553
 20
269.2894799584096859
 30
0.0
 11
5152.3939821264093553
 21
269.0295521138547201
 31
0.0
  0
LINE
  5
B986
  8
0
 10
5152.313982126409428
 20
270.2095191415526756
 30
0.0
 11
5152.313982126409428
 21
270.0095129307117077
 31
0.0
  0
LINE
  5
B987
  8
0
 10
5152.313982126409428
 20
269.259519141552687
 30
0.0
 11
5152.313982126409428
 21
269.059512930711719
 31
0.0
  0
LINE
  5
B988
  8
0
 10
5152.3020872220085948
 20
270.1983028107645737
 30
0.0
 11
5152.3020872220085948
 21
270.0207292614999233
 31
0.0
  0
LINE
  5
B989
  8
0
 10
5152.3020872220085948
 20
269.248302810764585
 30
0.0
 11
5152.3020872220085948
 21
269.0707292614998778
 31
0.0
  0
LINE
  5
B98A
  8
0
 10
5152.2930942994826182
 20
270.1875822229973778
 30
0.0
 11
5152.2930942994826182
 21
270.0314498492671191
 31
0.0
  0
LINE
  5
B98B
  8
0
 10
5152.2930942994826182
 20
269.2375822229973892
 30
0.0
 11
5152.2930942994826182
 21
269.0814498492670737
 31
0.0
  0
LINE
  5
B98C
  8
0
 10
5152.520103053542698
 20
269.1176039434689073
 30
0.0
 11
5152.3939821264093553
 21
269.1302160361321967
 31
0.0
  0
LINE
  5
B98D
  8
0
 10
5152.4641847690445502
 20
269.2708363004459216
 30
0.0
 11
5152.3939821264093553
 21
269.263816036132198
 31
0.0
  0
LINE
  5
B98E
  8
0
 10
5152.4641847691164003
 20
269.9981957718615035
 30
0.0
 11
5152.3939821264093553
 21
270.0052160361321967
 31
0.0
  0
LINE
  5
B98F
  8
0
 10
5152.5201030535199607
 20
270.1514281288631878
 30
0.0
 11
5152.3939821264093553
 21
270.138816036132198
 31
0.0
  0
LINE
  5
B990
  8
0
 10
5152.4700399853099952
 20
270.1464218220322095
 30
0.0
 11
5152.4671053022102569
 21
270.1748448988321911
 31
0.0
  0
LINE
  5
B991
  8
0
 10
5152.4671053022102569
 20
270.1748448988321911
 30
0.0
 11
5152.5029542174779635
 21
270.1849027625485746
 31
0.0
  0
ARC
  5
B992
  8
0
 10
5152.573073096108601
 20
269.1969927904323754
 30
0.0
 40
0.2359376027010732
 50
340.9864226701481016
 51
352.6470147841872063
  0
LINE
  5
B993
  8
0
 10
5152.807070469091741
 20
269.1667970654854116
 30
0.0
 11
5152.7924366431197996
 21
269.168313401523676
 31
0.0
  0
LINE
  5
B994
  8
0
 10
5152.7924366431197996
 20
269.168313401523676
 30
0.0
 11
5152.7941710230998069
 21
269.1924900981492783
 31
0.0
  0
LINE
  5
B995
  8
0
 10
5152.7938520718116706
 20
270.0781253322073781
 30
0.0
 11
5152.7924123055272503
 21
270.100952583658227
 31
0.0
  0
LINE
  5
B996
  8
0
 10
5152.7924123055272503
 20
270.100952583658227
 30
0.0
 11
5152.8069871454417807
 21
270.1028738395452251
 31
0.0
  0
ARC
  5
B997
  8
0
 10
5152.5730730860695985
 20
270.0720392793583073
 30
0.0
 40
0.2359376130966299
 50
7.5094356068022163
 51
19.0551717225123589
  0
LINE
  5
B998
  8
0
 10
5151.4861115216090184
 20
270.1475160361321741
 30
0.0
 11
5151.5461071264098791
 21
270.1475160361321741
 31
0.0
  0
LINE
  5
B999
  8
0
 10
5151.5461071264098791
 20
270.1475160361321741
 30
0.0
 11
5151.5461071264098791
 21
270.0850160361321741
 31
0.0
  0
LINE
  5
B99A
  8
0
 10
5151.5461071264098791
 20
270.0850160361321741
 30
0.0
 11
5151.4861115216090184
 21
270.0850160361321741
 31
0.0
  0
LINE
  5
B99B
  8
0
 10
5151.1961027313100203
 20
270.0850160361321741
 30
0.0
 11
5151.1361071264109341
 21
270.0850160361321741
 31
0.0
  0
LINE
  5
B99C
  8
0
 10
5151.1361071264109341
 20
270.0850160361321741
 30
0.0
 11
5151.1361071264109341
 21
270.1475160361321741
 31
0.0
  0
LINE
  5
B99D
  8
0
 10
5151.1361071264109341
 20
270.1475160361321741
 30
0.0
 11
5151.1961071264086058
 21
270.1475160361321741
 31
0.0
  0
LINE
  5
B99E
  8
0
 10
5151.5071071264101192
 20
193.8270160359323029
 30
0.0
 11
5151.3808571264098646
 21
193.8270160359323029
 31
0.0
  0
LINE
  5
B99F
  8
0
 10
5151.3648571264102429
 20
193.8430160359322088
 30
0.0
 11
5151.3648571264102429
 21
193.918516035932214
 31
0.0
  0
LINE
  5
B9A0
  8
0
 10
5151.5071071264101192
 20
193.9345160359322051
 30
0.0
 11
5151.3808571264098646
 21
193.9345160359322051
 31
0.0
  0
LINE
  5
B9A1
  8
0
 10
5151.5231071264097409
 20
193.918516035932214
 30
0.0
 11
5151.5231071264097409
 21
193.8430160359322088
 31
0.0
  0
ARC
  5
B9A2
  8
0
 10
5151.5071071264101192
 20
193.918516035932214
 30
0.0
 40
0.016
 50
0.0000000001009635
 51
90.0000000000521254
  0
ARC
  5
B9A3
  8
0
 10
5151.5071071264101192
 20
193.843016035932294
 30
0.0
 40
0.016
 50
269.9999999999478746
 51
359.9999999999478746
  0
ARC
  5
B9A4
  8
0
 10
5151.3808571264098646
 20
193.8430160359322088
 30
0.0
 40
0.016
 50
180.0
 51
270.0
  0
ARC
  5
B9A5
  8
0
 10
5151.3808571264098646
 20
193.918516035932214
 30
0.0
 40
0.016
 50
90.0
 51
179.9999999999739089
  0
LINE
  5
B9A6
  8
0
 10
5151.882857126410272
 20
193.8270160359323029
 30
0.0
 11
5151.7566071264100174
 21
193.8270160359323029
 31
0.0
  0
LINE
  5
B9A7
  8
0
 10
5151.7406071264103957
 20
193.8430160359322088
 30
0.0
 11
5151.7406071264103957
 21
193.918516035932214
 31
0.0
  0
LINE
  5
B9A8
  8
0
 10
5151.882857126410272
 20
193.9345160359322051
 30
0.0
 11
5151.7566071264100174
 21
193.9345160359322051
 31
0.0
  0
LINE
  5
B9A9
  8
0
 10
5151.8988571264098937
 20
193.918516035932214
 30
0.0
 11
5151.8988571264098937
 21
193.8430160359322088
 31
0.0
  0
ARC
  5
B9AA
  8
0
 10
5151.882857126410272
 20
193.918516035932214
 30
0.0
 40
0.016
 50
0.0000000001009635
 51
90.0000000000521254
  0
ARC
  5
B9AB
  8
0
 10
5151.882857126410272
 20
193.843016035932294
 30
0.0
 40
0.016
 50
269.9999999999478746
 51
359.9999999999478746
  0
ARC
  5
B9AC
  8
0
 10
5151.7566071264100174
 20
193.8430160359322088
 30
0.0
 40
0.016
 50
180.0
 51
270.0
  0
ARC
  5
B9AD
  8
0
 10
5151.7566071264100174
 20
193.918516035932214
 30
0.0
 40
0.016
 50
90.0
 51
179.9999999999739089
  0
LINE
  5
B9AE
  8
0
 10
5152.101857126410323
 20
193.8270160359323029
 30
0.0
 11
5151.9756071264100683
 21
193.8270160359323029
 31
0.0
  0
LINE
  5
B9AF
  8
0
 10
5151.9596071264113561
 20
193.8430160359322088
 30
0.0
 11
5151.9596071264113561
 21
193.918516035932214
 31
0.0
  0
LINE
  5
B9B0
  8
0
 10
5152.101857126410323
 20
193.9345160359322051
 30
0.0
 11
5151.9756071264100683
 21
193.9345160359322051
 31
0.0
  0
LINE
  5
B9B1
  8
0
 10
5152.1178571264099446
 20
193.918516035932214
 30
0.0
 11
5152.1178571264099446
 21
193.8430160359322088
 31
0.0
  0
ARC
  5
B9B2
  8
0
 10
5152.101857126410323
 20
193.918516035932214
 30
0.0
 40
0.016
 50
0.0000000001009635
 51
90.0000000000521254
  0
ARC
  5
B9B3
  8
0
 10
5152.101857126410323
 20
193.843016035932294
 30
0.0
 40
0.016
 50
269.9999999999478746
 51
359.9999999999478746
  0
ARC
  5
B9B4
  8
0
 10
5151.9756071264100683
 20
193.8430160359322088
 30
0.0
 40
0.016
 50
180.0
 51
270.0
  0
ARC
  5
B9B5
  8
0
 10
5151.9756071264100683
 20
193.918516035932214
 30
0.0
 40
0.016
 50
90.0
 51
179.9999999999739089
  0
LINE
  5
B9B6
  8
0
 10
5154.2901071264095663
 20
193.8270160359323029
 30
0.0
 11
5154.1673571264100246
 21
193.8270160359323029
 31
0.0
  0
LINE
  5
B9B7
  8
0
 10
5154.151357126410403
 20
193.8430160359322088
 30
0.0
 11
5154.151357126410403
 21
193.918516035932214
 31
0.0
  0
LINE
  5
B9B8
  8
0
 10
5154.257857126410272
 20
193.9345160359322051
 30
0.0
 11
5154.1673571264100246
 21
193.9345160359322051
 31
0.0
  0
ARC
  5
B9B9
  8
0
 10
5154.1673571264100246
 20
193.8430160359322088
 30
0.0
 40
0.016
 50
180.0
 51
270.0
  0
ARC
  5
B9BA
  8
0
 10
5154.1673571264100246
 20
193.918516035932214
 30
0.0
 40
0.016
 50
90.0
 51
179.9999999999739089
  0
LINE
  5
B9BB
  8
0
 10
5154.3991071264099446
 20
193.9857660359321869
 30
0.0
 11
5154.2898571264113343
 21
193.9857660359321869
 31
0.0
  0
LINE
  5
B9BC
  8
0
 10
5154.4151071264113853
 20
193.9697660359321958
 30
0.0
 11
5154.4151071264113853
 21
193.9520160359323029
 31
0.0
  0
LINE
  5
B9BD
  8
0
 10
5154.2738571264098937
 20
193.9697660359321958
 30
0.0
 11
5154.2738571264098937
 21
193.9505160359321962
 31
0.0
  0
ARC
  5
B9BE
  8
0
 10
5154.3991071264099446
 20
193.9697660359321958
 30
0.0
 40
0.016
 50
0.0000000000504818
 51
89.9999999999478888
  0
ARC
  5
B9BF
  8
0
 10
5154.2898571264113343
 20
193.9697660359321958
 30
0.0
 40
0.016
 50
90.0
 51
179.9999999999739089
  0
ARC
  5
B9C0
  8
0
 10
5154.257857126410272
 20
193.9505160359321962
 30
0.0
 40
0.016
 50
270.0
 51
359.9999999999234888
  0
ARC
  5
B9C1
  8
0
 10
5154.2901071264095663
 20
193.9520160359323029
 30
0.0
 40
0.125
 50
270.0
 51
0.0000000000032569
  0
LINE
  5
B9C2
  8
0
 10
5154.4151071264113853
 20
194.2197660359321958
 30
0.0
 11
5154.4151071264113853
 21
194.0642660359322065
 31
0.0
  0
LINE
  5
B9C3
  8
0
 10
5154.2738571264098937
 20
194.2197660359321958
 30
0.0
 11
5154.2738571264098937
 21
194.0642660359322065
 31
0.0
  0
LINE
  5
B9C4
  8
0
 10
5154.3991071264099446
 20
194.0482660359323006
 30
0.0
 11
5154.2898571264113343
 21
194.0482660359323006
 31
0.0
  0
LINE
  5
B9C5
  8
0
 10
5154.2898571264113343
 20
194.2357660359321869
 30
0.0
 11
5154.3991071264099446
 21
194.2357660359321869
 31
0.0
  0
ARC
  5
B9C6
  8
0
 10
5154.2898571264113343
 20
194.2197660359321958
 30
0.0
 40
0.016
 50
90.0
 51
179.9999999999870113
  0
ARC
  5
B9C7
  8
0
 10
5154.3991071264099446
 20
194.2197660359321958
 30
0.0
 40
0.016
 50
0.0000000000260551
 51
90.0000000001042082
  0
ARC
  5
B9C8
  8
0
 10
5154.3991071264099446
 20
194.0642660359322065
 30
0.0
 40
0.016
 50
270.0
 51
0.0
  0
ARC
  5
B9C9
  8
0
 10
5154.2898571264113343
 20
194.0642660359322065
 30
0.0
 40
0.016
 50
179.9999999999870113
 51
270.0
  0
LINE
  5
B9CA
  8
0
 10
5152.3208571264112834
 20
193.8270160359323029
 30
0.0
 11
5152.1946071264110287
 21
193.8270160359323029
 31
0.0
  0
LINE
  5
B9CB
  8
0
 10
5152.1786071264095881
 20
193.8430160359322088
 30
0.0
 11
5152.1786071264095881
 21
193.918516035932214
 31
0.0
  0
LINE
  5
B9CC
  8
0
 10
5152.3208571264112834
 20
193.9345160359322051
 30
0.0
 11
5152.1946071264110287
 21
193.9345160359322051
 31
0.0
  0
LINE
  5
B9CD
  8
0
 10
5152.3368571264099955
 20
193.918516035932214
 30
0.0
 11
5152.3368571264099955
 21
193.8430160359322088
 31
0.0
  0
ARC
  5
B9CE
  8
0
 10
5152.3208571264112834
 20
193.918516035932214
 30
0.0
 40
0.016
 50
0.0000000001009635
 51
90.0000000000521254
  0
ARC
  5
B9CF
  8
0
 10
5152.3208571264112834
 20
193.843016035932294
 30
0.0
 40
0.016
 50
269.9999999999478746
 51
359.9999999999478746
  0
ARC
  5
B9D0
  8
0
 10
5152.1946071264110287
 20
193.8430160359322088
 30
0.0
 40
0.016
 50
180.0
 51
270.0
  0
ARC
  5
B9D1
  8
0
 10
5152.1946071264110287
 20
193.918516035932214
 30
0.0
 40
0.016
 50
90.0
 51
179.9999999999739089
  0
LINE
  5
B9D2
  8
0
 10
5152.5398571264086058
 20
193.8270160359323029
 30
0.0
 11
5152.4136071264092607
 21
193.8270160359323029
 31
0.0
  0
LINE
  5
B9D3
  8
0
 10
5152.397607126409639
 20
193.8430160359322088
 30
0.0
 11
5152.397607126409639
 21
193.918516035932214
 31
0.0
  0
LINE
  5
B9D4
  8
0
 10
5152.5398571264086058
 20
193.9345160359322051
 30
0.0
 11
5152.4136071264092607
 21
193.9345160359322051
 31
0.0
  0
LINE
  5
B9D5
  8
0
 10
5152.555857126409137
 20
193.918516035932214
 30
0.0
 11
5152.555857126409137
 21
193.8430160359322088
 31
0.0
  0
ARC
  5
B9D6
  8
0
 10
5152.5398571264086058
 20
193.918516035932214
 30
0.0
 40
0.016
 50
0.0000000001009635
 51
90.0000000000521254
  0
ARC
  5
B9D7
  8
0
 10
5152.5398571264086058
 20
193.843016035932294
 30
0.0
 40
0.016
 50
269.9999999999478746
 51
359.9999999999478746
  0
ARC
  5
B9D8
  8
0
 10
5152.4136071264092607
 20
193.8430160359322088
 30
0.0
 40
0.016
 50
180.0
 51
270.0
  0
ARC
  5
B9D9
  8
0
 10
5152.4136071264092607
 20
193.918516035932214
 30
0.0
 40
0.016
 50
90.0
 51
179.9999999999739089
  0
LINE
  5
B9DA
  8
0
 10
5152.7588571264095663
 20
193.8270160359323029
 30
0.0
 11
5152.6326071264102211
 21
193.8270160359323029
 31
0.0
  0
LINE
  5
B9DB
  8
0
 10
5152.61660712640969
 20
193.8430160359322088
 30
0.0
 11
5152.61660712640969
 21
193.918516035932214
 31
0.0
  0
LINE
  5
B9DC
  8
0
 10
5152.7588571264095663
 20
193.9345160359322051
 30
0.0
 11
5152.6326071264102211
 21
193.9345160359322051
 31
0.0
  0
LINE
  5
B9DD
  8
0
 10
5152.7748571264091879
 20
193.918516035932214
 30
0.0
 11
5152.7748571264091879
 21
193.8430160359322088
 31
0.0
  0
ARC
  5
B9DE
  8
0
 10
5152.7588571264095663
 20
193.918516035932214
 30
0.0
 40
0.016
 50
0.0000000001009635
 51
90.0000000000521254
  0
ARC
  5
B9DF
  8
0
 10
5152.7588571264095663
 20
193.843016035932294
 30
0.0
 40
0.016
 50
269.9999999999478746
 51
359.9999999999478746
  0
ARC
  5
B9E0
  8
0
 10
5152.6326071264102211
 20
193.8430160359322088
 30
0.0
 40
0.016
 50
180.0
 51
270.0
  0
ARC
  5
B9E1
  8
0
 10
5152.6326071264102211
 20
193.918516035932214
 30
0.0
 40
0.016
 50
90.0
 51
179.9999999999739089
  0
LINE
  5
B9E2
  8
0
 10
5152.9778571264087077
 20
193.8270160359323029
 30
0.0
 11
5152.8516071264093625
 21
193.8270160359323029
 31
0.0
  0
LINE
  5
B9E3
  8
0
 10
5152.8356071264097409
 20
193.8430160359322088
 30
0.0
 11
5152.8356071264097409
 21
193.918516035932214
 31
0.0
  0
LINE
  5
B9E4
  8
0
 10
5152.9778571264087077
 20
193.9345160359322051
 30
0.0
 11
5152.8516071264093625
 21
193.9345160359322051
 31
0.0
  0
LINE
  5
B9E5
  8
0
 10
5152.9938571264101483
 20
193.918516035932214
 30
0.0
 11
5152.9938571264101483
 21
193.8430160359322088
 31
0.0
  0
ARC
  5
B9E6
  8
0
 10
5152.9778571264087077
 20
193.918516035932214
 30
0.0
 40
0.016
 50
0.0000000001009635
 51
90.0000000000521254
  0
ARC
  5
B9E7
  8
0
 10
5152.9778571264087077
 20
193.843016035932294
 30
0.0
 40
0.016
 50
269.9999999999478746
 51
359.9999999999478746
  0
ARC
  5
B9E8
  8
0
 10
5152.8516071264093625
 20
193.8430160359322088
 30
0.0
 40
0.016
 50
180.0
 51
270.0
  0
ARC
  5
B9E9
  8
0
 10
5152.8516071264093625
 20
193.918516035932214
 30
0.0
 40
0.016
 50
90.0
 51
179.9999999999739089
  0
LINE
  5
B9EA
  8
0
 10
5153.1968571264096681
 20
193.8270160359323029
 30
0.0
 11
5153.0706071264094135
 21
193.8270160359323029
 31
0.0
  0
LINE
  5
B9EB
  8
0
 10
5153.0546071264097918
 20
193.8430160359322088
 30
0.0
 11
5153.0546071264097918
 21
193.918516035932214
 31
0.0
  0
LINE
  5
B9EC
  8
0
 10
5153.1968571264096681
 20
193.9345160359322051
 30
0.0
 11
5153.0706071264094135
 21
193.9345160359322051
 31
0.0
  0
LINE
  5
B9ED
  8
0
 10
5153.2128571264092898
 20
193.918516035932214
 30
0.0
 11
5153.2128571264092898
 21
193.8430160359322088
 31
0.0
  0
ARC
  5
B9EE
  8
0
 10
5153.1968571264096681
 20
193.918516035932214
 30
0.0
 40
0.016
 50
0.0000000001009635
 51
90.0000000000521254
  0
ARC
  5
B9EF
  8
0
 10
5153.1968571264096681
 20
193.843016035932294
 30
0.0
 40
0.016
 50
269.9999999999478746
 51
359.9999999999478746
  0
ARC
  5
B9F0
  8
0
 10
5153.0706071264094135
 20
193.8430160359322088
 30
0.0
 40
0.016
 50
180.0
 51
270.0
  0
ARC
  5
B9F1
  8
0
 10
5153.0706071264094135
 20
193.918516035932214
 30
0.0
 40
0.016
 50
90.0
 51
179.9999999999739089
  0
LINE
  5
B9F2
  8
0
 10
5153.4158571264097191
 20
193.8270160359323029
 30
0.0
 11
5153.2896071264103739
 21
193.8270160359323029
 31
0.0
  0
LINE
  5
B9F3
  8
0
 10
5153.2736071264098427
 20
193.8430160359322088
 30
0.0
 11
5153.2736071264098427
 21
193.918516035932214
 31
0.0
  0
LINE
  5
B9F4
  8
0
 10
5153.4158571264097191
 20
193.9345160359322051
 30
0.0
 11
5153.2896071264103739
 21
193.9345160359322051
 31
0.0
  0
LINE
  5
B9F5
  8
0
 10
5153.4318571264102502
 20
193.918516035932214
 30
0.0
 11
5153.4318571264102502
 21
193.8430160359322088
 31
0.0
  0
ARC
  5
B9F6
  8
0
 10
5153.4158571264097191
 20
193.918516035932214
 30
0.0
 40
0.016
 50
0.0000000001009635
 51
90.0000000000521254
  0
ARC
  5
B9F7
  8
0
 10
5153.4158571264097191
 20
193.843016035932294
 30
0.0
 40
0.016
 50
269.9999999999478746
 51
359.9999999999478746
  0
ARC
  5
B9F8
  8
0
 10
5153.2896071264103739
 20
193.8430160359322088
 30
0.0
 40
0.016
 50
180.0
 51
270.0
  0
ARC
  5
B9F9
  8
0
 10
5153.2896071264103739
 20
193.918516035932214
 30
0.0
 40
0.016
 50
90.0
 51
179.9999999999739089
  0
LINE
  5
B9FA
  8
0
 10
5153.63485712640977
 20
193.8270160359323029
 30
0.0
 11
5153.5086071264104248
 21
193.8270160359323029
 31
0.0
  0
LINE
  5
B9FB
  8
0
 10
5153.4926071264098937
 20
193.8430160359322088
 30
0.0
 11
5153.4926071264098937
 21
193.918516035932214
 31
0.0
  0
LINE
  5
B9FC
  8
0
 10
5153.63485712640977
 20
193.9345160359322051
 30
0.0
 11
5153.5086071264104248
 21
193.9345160359322051
 31
0.0
  0
LINE
  5
B9FD
  8
0
 10
5153.6508571264093916
 20
193.918516035932214
 30
0.0
 11
5153.6508571264093916
 21
193.8430160359322088
 31
0.0
  0
ARC
  5
B9FE
  8
0
 10
5153.63485712640977
 20
193.918516035932214
 30
0.0
 40
0.016
 50
0.0000000001009635
 51
90.0000000000521254
  0
ARC
  5
B9FF
  8
0
 10
5153.63485712640977
 20
193.843016035932294
 30
0.0
 40
0.016
 50
269.9999999999478746
 51
359.9999999999478746
  0
ARC
  5
BA00
  8
0
 10
5153.5086071264104248
 20
193.8430160359322088
 30
0.0
 40
0.016
 50
180.0
 51
270.0
  0
ARC
  5
BA01
  8
0
 10
5153.5086071264104248
 20
193.918516035932214
 30
0.0
 40
0.016
 50
90.0
 51
179.9999999999739089
  0
LINE
  5
BA02
  8
0
 10
5153.8538571264098209
 20
193.8270160359323029
 30
0.0
 11
5153.7276071264086568
 21
193.8270160359323029
 31
0.0
  0
LINE
  5
BA03
  8
0
 10
5153.7116071264099446
 20
193.8430160359322088
 30
0.0
 11
5153.7116071264099446
 21
193.918516035932214
 31
0.0
  0
LINE
  5
BA04
  8
0
 10
5153.8538571264098209
 20
193.9345160359322051
 30
0.0
 11
5153.7276071264086568
 21
193.9345160359322051
 31
0.0
  0
LINE
  5
BA05
  8
0
 10
5153.8698571264094426
 20
193.918516035932214
 30
0.0
 11
5153.8698571264094426
 21
193.8430160359322088
 31
0.0
  0
ARC
  5
BA06
  8
0
 10
5153.8538571264098209
 20
193.918516035932214
 30
0.0
 40
0.016
 50
0.0000000001009635
 51
90.0000000000521254
  0
ARC
  5
BA07
  8
0
 10
5153.8538571264098209
 20
193.843016035932294
 30
0.0
 40
0.016
 50
269.9999999999478746
 51
359.9999999999478746
  0
ARC
  5
BA08
  8
0
 10
5153.7276071264086568
 20
193.8430160359322088
 30
0.0
 40
0.016
 50
180.0
 51
270.0
  0
ARC
  5
BA09
  8
0
 10
5153.7276071264086568
 20
193.918516035932214
 30
0.0
 40
0.016
 50
90.0
 51
179.9999999999739089
  0
LINE
  5
BA0A
  8
0
 10
5154.0728571264098719
 20
193.8270160359323029
 30
0.0
 11
5153.9466071264087077
 21
193.8270160359323029
 31
0.0
  0
LINE
  5
BA0B
  8
0
 10
5153.9306071264099955
 20
193.8430160359322088
 30
0.0
 11
5153.9306071264099955
 21
193.918516035932214
 31
0.0
  0
LINE
  5
BA0C
  8
0
 10
5154.0728571264098719
 20
193.9345160359322051
 30
0.0
 11
5153.9466071264087077
 21
193.9345160359322051
 31
0.0
  0
LINE
  5
BA0D
  8
0
 10
5154.088857126410403
 20
193.918516035932214
 30
0.0
 11
5154.088857126410403
 21
193.8430160359322088
 31
0.0
  0
ARC
  5
BA0E
  8
0
 10
5154.0728571264098719
 20
193.918516035932214
 30
0.0
 40
0.016
 50
0.0000000001009635
 51
90.0000000000521254
  0
ARC
  5
BA0F
  8
0
 10
5154.0728571264098719
 20
193.843016035932294
 30
0.0
 40
0.016
 50
269.9999999999478746
 51
359.9999999999478746
  0
ARC
  5
BA10
  8
0
 10
5153.9466071264087077
 20
193.8430160359322088
 30
0.0
 40
0.016
 50
180.0
 51
270.0
  0
ARC
  5
BA11
  8
0
 10
5153.9466071264087077
 20
193.918516035932214
 30
0.0
 40
0.016
 50
90.0
 51
179.9999999999739089
  0
LINE
  5
BA12
  8
0
 10
5151.5071071264101192
 20
194.7070160360322006
 30
0.0
 11
5151.3808571264098646
 21
194.7070160360322006
 31
0.0
  0
LINE
  5
BA13
  8
0
 10
5151.3648571264102429
 20
194.6910160360322095
 30
0.0
 11
5151.3648571264102429
 21
194.6155160360322043
 31
0.0
  0
LINE
  5
BA14
  8
0
 10
5151.5071071264101192
 20
194.5995160360322132
 30
0.0
 11
5151.3808571264098646
 21
194.5995160360322132
 31
0.0
  0
LINE
  5
BA15
  8
0
 10
5151.5231071264097409
 20
194.6155160360322043
 30
0.0
 11
5151.5231071264097409
 21
194.6910160360322095
 31
0.0
  0
ARC
  5
BA16
  8
0
 10
5151.5071071264101192
 20
194.6155160360322043
 30
0.0
 40
0.016
 50
269.9999999999478746
 51
359.9999999998991029
  0
ARC
  5
BA17
  8
0
 10
5151.5071071264101192
 20
194.6910160360322095
 30
0.0
 40
0.016
 50
0.0000000000521102
 51
90.0000000000521254
  0
ARC
  5
BA18
  8
0
 10
5151.3808571264098646
 20
194.6910160360322095
 30
0.0
 40
0.016
 50
90.0
 51
180.0
  0
ARC
  5
BA19
  8
0
 10
5151.3808571264098646
 20
194.6155160360322043
 30
0.0
 40
0.016
 50
180.0000000000260059
 51
270.0
  0
LINE
  5
BA1A
  8
0
 10
5151.882857126410272
 20
194.7070160360322006
 30
0.0
 11
5151.7566071264100174
 21
194.7070160360322006
 31
0.0
  0
LINE
  5
BA1B
  8
0
 10
5151.7406071264103957
 20
194.6910160360322095
 30
0.0
 11
5151.7406071264103957
 21
194.6155160360322043
 31
0.0
  0
LINE
  5
BA1C
  8
0
 10
5151.882857126410272
 20
194.5995160360322132
 30
0.0
 11
5151.7566071264100174
 21
194.5995160360322132
 31
0.0
  0
LINE
  5
BA1D
  8
0
 10
5151.8988571264098937
 20
194.6155160360322043
 30
0.0
 11
5151.8988571264098937
 21
194.6910160360322095
 31
0.0
  0
ARC
  5
BA1E
  8
0
 10
5151.882857126410272
 20
194.6155160360322043
 30
0.0
 40
0.016
 50
269.9999999999478746
 51
359.9999999998991029
  0
ARC
  5
BA1F
  8
0
 10
5151.882857126410272
 20
194.6910160360322095
 30
0.0
 40
0.016
 50
0.0000000000521102
 51
90.0000000000521254
  0
ARC
  5
BA20
  8
0
 10
5151.7566071264100174
 20
194.6910160360322095
 30
0.0
 40
0.016
 50
90.0
 51
180.0
  0
ARC
  5
BA21
  8
0
 10
5151.7566071264100174
 20
194.6155160360322043
 30
0.0
 40
0.016
 50
180.0000000000260059
 51
270.0
  0
LINE
  5
BA22
  8
0
 10
5152.101857126410323
 20
194.7070160360322006
 30
0.0
 11
5151.9756071264100683
 21
194.7070160360322006
 31
0.0
  0
LINE
  5
BA23
  8
0
 10
5151.9596071264113561
 20
194.6910160360322095
 30
0.0
 11
5151.9596071264113561
 21
194.6155160360322043
 31
0.0
  0
LINE
  5
BA24
  8
0
 10
5152.101857126410323
 20
194.5995160360322132
 30
0.0
 11
5151.9756071264100683
 21
194.5995160360322132
 31
0.0
  0
LINE
  5
BA25
  8
0
 10
5152.1178571264099446
 20
194.6155160360322043
 30
0.0
 11
5152.1178571264099446
 21
194.6910160360322095
 31
0.0
  0
ARC
  5
BA26
  8
0
 10
5152.101857126410323
 20
194.6155160360322043
 30
0.0
 40
0.016
 50
269.9999999999478746
 51
359.9999999998991029
  0
ARC
  5
BA27
  8
0
 10
5152.101857126410323
 20
194.6910160360322095
 30
0.0
 40
0.016
 50
0.0000000000521102
 51
90.0000000000521254
  0
ARC
  5
BA28
  8
0
 10
5151.9756071264100683
 20
194.6910160360322095
 30
0.0
 40
0.016
 50
90.0
 51
180.0
  0
ARC
  5
BA29
  8
0
 10
5151.9756071264100683
 20
194.6155160360322043
 30
0.0
 40
0.016
 50
180.0000000000260059
 51
270.0
  0
LINE
  5
BA2A
  8
0
 10
5154.2901071264095663
 20
194.7070160360322006
 30
0.0
 11
5154.1673571264100246
 21
194.7070160360322006
 31
0.0
  0
LINE
  5
BA2B
  8
0
 10
5154.151357126410403
 20
194.6910160360322095
 30
0.0
 11
5154.151357126410403
 21
194.6155160360322043
 31
0.0
  0
LINE
  5
BA2C
  8
0
 10
5154.257857126410272
 20
194.5995160360322132
 30
0.0
 11
5154.1673571264100246
 21
194.5995160360322132
 31
0.0
  0
ARC
  5
BA2D
  8
0
 10
5154.1673571264100246
 20
194.6910160360322095
 30
0.0
 40
0.016
 50
90.0
 51
180.0
  0
ARC
  5
BA2E
  8
0
 10
5154.1673571264100246
 20
194.6155160360322043
 30
0.0
 40
0.016
 50
180.0000000000260059
 51
270.0
  0
LINE
  5
BA2F
  8
0
 10
5154.3991071264099446
 20
194.5482660360322029
 30
0.0
 11
5154.2898571264113343
 21
194.5482660360322029
 31
0.0
  0
LINE
  5
BA30
  8
0
 10
5154.4151071264113853
 20
194.5642660360321941
 30
0.0
 11
5154.4151071264113853
 21
194.5820160360322006
 31
0.0
  0
LINE
  5
BA31
  8
0
 10
5154.2738571264098937
 20
194.5642660360321941
 30
0.0
 11
5154.2738571264098937
 21
194.5835160360321936
 31
0.0
  0
ARC
  5
BA32
  8
0
 10
5154.3991071264099446
 20
194.5642660360321941
 30
0.0
 40
0.016
 50
270.0000000000521254
 51
359.999999999949523
  0
ARC
  5
BA33
  8
0
 10
5154.2898571264113343
 20
194.5642660360321941
 30
0.0
 40
0.016
 50
180.0000000000260059
 51
270.0
  0
ARC
  5
BA34
  8
0
 10
5154.257857126410272
 20
194.5835160360321936
 30
0.0
 40
0.016
 50
0.0000000000765369
 51
90.0
  0
ARC
  5
BA35
  8
0
 10
5154.2901071264095663
 20
194.5820160360322006
 30
0.0
 40
0.125
 50
359.9999999999968168
 51
90.0
  0
LINE
  5
BA36
  8
0
 10
5154.4151071264113853
 20
194.3142660360321941
 30
0.0
 11
5154.4151071264113853
 21
194.4697660360322118
 31
0.0
  0
LINE
  5
BA37
  8
0
 10
5154.2738571264098937
 20
194.3142660360321941
 30
0.0
 11
5154.2738571264098937
 21
194.4697660360322118
 31
0.0
  0
LINE
  5
BA38
  8
0
 10
5154.3991071264099446
 20
194.4857660360322029
 30
0.0
 11
5154.2898571264113343
 21
194.4857660360322029
 31
0.0
  0
LINE
  5
BA39
  8
0
 10
5154.2898571264113343
 20
194.2982660360322029
 30
0.0
 11
5154.3991071264099446
 21
194.2982660360322029
 31
0.0
  0
ARC
  5
BA3A
  8
0
 10
5154.2898571264113343
 20
194.3142660360321941
 30
0.0
 40
0.016
 50
180.0000000000129887
 51
270.0
  0
ARC
  5
BA3B
  8
0
 10
5154.3991071264099446
 20
194.3142660360321941
 30
0.0
 40
0.016
 50
269.999999999895806
 51
359.9999999999740226
  0
ARC
  5
BA3C
  8
0
 10
5154.3991071264099446
 20
194.4697660360322118
 30
0.0
 40
0.016
 50
0.0
 51
90.0
  0
ARC
  5
BA3D
  8
0
 10
5154.2898571264113343
 20
194.4697660360322118
 30
0.0
 40
0.016
 50
90.0
 51
180.0000000000129887
  0
LINE
  5
BA3E
  8
0
 10
5152.3208571264112834
 20
194.7070160360322006
 30
0.0
 11
5152.1946071264110287
 21
194.7070160360322006
 31
0.0
  0
LINE
  5
BA3F
  8
0
 10
5152.1786071264095881
 20
194.6910160360322095
 30
0.0
 11
5152.1786071264095881
 21
194.6155160360322043
 31
0.0
  0
LINE
  5
BA40
  8
0
 10
5152.3208571264112834
 20
194.5995160360322132
 30
0.0
 11
5152.1946071264110287
 21
194.5995160360322132
 31
0.0
  0
LINE
  5
BA41
  8
0
 10
5152.3368571264099955
 20
194.6155160360322043
 30
0.0
 11
5152.3368571264099955
 21
194.6910160360322095
 31
0.0
  0
ARC
  5
BA42
  8
0
 10
5152.3208571264112834
 20
194.6155160360322043
 30
0.0
 40
0.016
 50
269.9999999999478746
 51
359.9999999998991029
  0
ARC
  5
BA43
  8
0
 10
5152.3208571264112834
 20
194.6910160360322095
 30
0.0
 40
0.016
 50
0.0000000000521102
 51
90.0000000000521254
  0
ARC
  5
BA44
  8
0
 10
5152.1946071264110287
 20
194.6910160360322095
 30
0.0
 40
0.016
 50
90.0
 51
180.0
  0
ARC
  5
BA45
  8
0
 10
5152.1946071264110287
 20
194.6155160360322043
 30
0.0
 40
0.016
 50
180.0000000000260059
 51
270.0
  0
LINE
  5
BA46
  8
0
 10
5152.5398571264086058
 20
194.7070160360322006
 30
0.0
 11
5152.4136071264092607
 21
194.7070160360322006
 31
0.0
  0
LINE
  5
BA47
  8
0
 10
5152.397607126409639
 20
194.6910160360322095
 30
0.0
 11
5152.397607126409639
 21
194.6155160360322043
 31
0.0
  0
LINE
  5
BA48
  8
0
 10
5152.5398571264086058
 20
194.5995160360322132
 30
0.0
 11
5152.4136071264092607
 21
194.5995160360322132
 31
0.0
  0
LINE
  5
BA49
  8
0
 10
5152.555857126409137
 20
194.6155160360322043
 30
0.0
 11
5152.555857126409137
 21
194.6910160360322095
 31
0.0
  0
ARC
  5
BA4A
  8
0
 10
5152.5398571264086058
 20
194.6155160360322043
 30
0.0
 40
0.016
 50
269.9999999999478746
 51
359.9999999998991029
  0
ARC
  5
BA4B
  8
0
 10
5152.5398571264086058
 20
194.6910160360322095
 30
0.0
 40
0.016
 50
0.0000000000521102
 51
90.0000000000521254
  0
ARC
  5
BA4C
  8
0
 10
5152.4136071264092607
 20
194.6910160360322095
 30
0.0
 40
0.016
 50
90.0
 51
180.0
  0
ARC
  5
BA4D
  8
0
 10
5152.4136071264092607
 20
194.6155160360322043
 30
0.0
 40
0.016
 50
180.0000000000260059
 51
270.0
  0
LINE
  5
BA4E
  8
0
 10
5152.7588571264095663
 20
194.7070160360322006
 30
0.0
 11
5152.6326071264102211
 21
194.7070160360322006
 31
0.0
  0
LINE
  5
BA4F
  8
0
 10
5152.61660712640969
 20
194.6910160360322095
 30
0.0
 11
5152.61660712640969
 21
194.6155160360322043
 31
0.0
  0
LINE
  5
BA50
  8
0
 10
5152.7588571264095663
 20
194.5995160360322132
 30
0.0
 11
5152.6326071264102211
 21
194.5995160360322132
 31
0.0
  0
LINE
  5
BA51
  8
0
 10
5152.7748571264091879
 20
194.6155160360322043
 30
0.0
 11
5152.7748571264091879
 21
194.6910160360322095
 31
0.0
  0
ARC
  5
BA52
  8
0
 10
5152.7588571264095663
 20
194.6155160360322043
 30
0.0
 40
0.016
 50
269.9999999999478746
 51
359.9999999998991029
  0
ARC
  5
BA53
  8
0
 10
5152.7588571264095663
 20
194.6910160360322095
 30
0.0
 40
0.016
 50
0.0000000000521102
 51
90.0000000000521254
  0
ARC
  5
BA54
  8
0
 10
5152.6326071264102211
 20
194.6910160360322095
 30
0.0
 40
0.016
 50
90.0
 51
180.0
  0
ARC
  5
BA55
  8
0
 10
5152.6326071264102211
 20
194.6155160360322043
 30
0.0
 40
0.016
 50
180.0000000000260059
 51
270.0
  0
LINE
  5
BA56
  8
0
 10
5152.9778571264087077
 20
194.7070160360322006
 30
0.0
 11
5152.8516071264093625
 21
194.7070160360322006
 31
0.0
  0
LINE
  5
BA57
  8
0
 10
5152.8356071264097409
 20
194.6910160360322095
 30
0.0
 11
5152.8356071264097409
 21
194.6155160360322043
 31
0.0
  0
LINE
  5
BA58
  8
0
 10
5152.9778571264087077
 20
194.5995160360322132
 30
0.0
 11
5152.8516071264093625
 21
194.5995160360322132
 31
0.0
  0
LINE
  5
BA59
  8
0
 10
5152.9938571264101483
 20
194.6155160360322043
 30
0.0
 11
5152.9938571264101483
 21
194.6910160360322095
 31
0.0
  0
ARC
  5
BA5A
  8
0
 10
5152.9778571264087077
 20
194.6155160360322043
 30
0.0
 40
0.016
 50
269.9999999999478746
 51
359.9999999998991029
  0
ARC
  5
BA5B
  8
0
 10
5152.9778571264087077
 20
194.6910160360322095
 30
0.0
 40
0.016
 50
0.0000000000521102
 51
90.0000000000521254
  0
ARC
  5
BA5C
  8
0
 10
5152.8516071264093625
 20
194.6910160360322095
 30
0.0
 40
0.016
 50
90.0
 51
180.0
  0
ARC
  5
BA5D
  8
0
 10
5152.8516071264093625
 20
194.6155160360322043
 30
0.0
 40
0.016
 50
180.0000000000260059
 51
270.0
  0
LINE
  5
BA5E
  8
0
 10
5153.1968571264096681
 20
194.7070160360322006
 30
0.0
 11
5153.0706071264094135
 21
194.7070160360322006
 31
0.0
  0
LINE
  5
BA5F
  8
0
 10
5153.0546071264097918
 20
194.6910160360322095
 30
0.0
 11
5153.0546071264097918
 21
194.6155160360322043
 31
0.0
  0
LINE
  5
BA60
  8
0
 10
5153.1968571264096681
 20
194.5995160360322132
 30
0.0
 11
5153.0706071264094135
 21
194.5995160360322132
 31
0.0
  0
LINE
  5
BA61
  8
0
 10
5153.2128571264092898
 20
194.6155160360322043
 30
0.0
 11
5153.2128571264092898
 21
194.6910160360322095
 31
0.0
  0
ARC
  5
BA62
  8
0
 10
5153.1968571264096681
 20
194.6155160360322043
 30
0.0
 40
0.016
 50
269.9999999999478746
 51
359.9999999998991029
  0
ARC
  5
BA63
  8
0
 10
5153.1968571264096681
 20
194.6910160360322095
 30
0.0
 40
0.016
 50
0.0000000000521102
 51
90.0000000000521254
  0
ARC
  5
BA64
  8
0
 10
5153.0706071264094135
 20
194.6910160360322095
 30
0.0
 40
0.016
 50
90.0
 51
180.0
  0
ARC
  5
BA65
  8
0
 10
5153.0706071264094135
 20
194.6155160360322043
 30
0.0
 40
0.016
 50
180.0000000000260059
 51
270.0
  0
LINE
  5
BA66
  8
0
 10
5153.4158571264097191
 20
194.7070160360322006
 30
0.0
 11
5153.2896071264103739
 21
194.7070160360322006
 31
0.0
  0
LINE
  5
BA67
  8
0
 10
5153.2736071264098427
 20
194.6910160360322095
 30
0.0
 11
5153.2736071264098427
 21
194.6155160360322043
 31
0.0
  0
LINE
  5
BA68
  8
0
 10
5153.4158571264097191
 20
194.5995160360322132
 30
0.0
 11
5153.2896071264103739
 21
194.5995160360322132
 31
0.0
  0
LINE
  5
BA69
  8
0
 10
5153.4318571264102502
 20
194.6155160360322043
 30
0.0
 11
5153.4318571264102502
 21
194.6910160360322095
 31
0.0
  0
ARC
  5
BA6A
  8
0
 10
5153.4158571264097191
 20
194.6155160360322043
 30
0.0
 40
0.016
 50
269.9999999999478746
 51
359.9999999998991029
  0
ARC
  5
BA6B
  8
0
 10
5153.4158571264097191
 20
194.6910160360322095
 30
0.0
 40
0.016
 50
0.0000000000521102
 51
90.0000000000521254
  0
ARC
  5
BA6C
  8
0
 10
5153.2896071264103739
 20
194.6910160360322095
 30
0.0
 40
0.016
 50
90.0
 51
180.0
  0
ARC
  5
BA6D
  8
0
 10
5153.2896071264103739
 20
194.6155160360322043
 30
0.0
 40
0.016
 50
180.0000000000260059
 51
270.0
  0
LINE
  5
BA6E
  8
0
 10
5153.63485712640977
 20
194.7070160360322006
 30
0.0
 11
5153.5086071264104248
 21
194.7070160360322006
 31
0.0
  0
LINE
  5
BA6F
  8
0
 10
5153.4926071264098937
 20
194.6910160360322095
 30
0.0
 11
5153.4926071264098937
 21
194.6155160360322043
 31
0.0
  0
LINE
  5
BA70
  8
0
 10
5153.63485712640977
 20
194.5995160360322132
 30
0.0
 11
5153.5086071264104248
 21
194.5995160360322132
 31
0.0
  0
LINE
  5
BA71
  8
0
 10
5153.6508571264093916
 20
194.6155160360322043
 30
0.0
 11
5153.6508571264093916
 21
194.6910160360322095
 31
0.0
  0
ARC
  5
BA72
  8
0
 10
5153.63485712640977
 20
194.6155160360322043
 30
0.0
 40
0.016
 50
269.9999999999478746
 51
359.9999999998991029
  0
ARC
  5
BA73
  8
0
 10
5153.63485712640977
 20
194.6910160360322095
 30
0.0
 40
0.016
 50
0.0000000000521102
 51
90.0000000000521254
  0
ARC
  5
BA74
  8
0
 10
5153.5086071264104248
 20
194.6910160360322095
 30
0.0
 40
0.016
 50
90.0
 51
180.0
  0
ARC
  5
BA75
  8
0
 10
5153.5086071264104248
 20
194.6155160360322043
 30
0.0
 40
0.016
 50
180.0000000000260059
 51
270.0
  0
LINE
  5
BA76
  8
0
 10
5153.8538571264098209
 20
194.7070160360322006
 30
0.0
 11
5153.7276071264086568
 21
194.7070160360322006
 31
0.0
  0
LINE
  5
BA77
  8
0
 10
5153.7116071264099446
 20
194.6910160360322095
 30
0.0
 11
5153.7116071264099446
 21
194.6155160360322043
 31
0.0
  0
LINE
  5
BA78
  8
0
 10
5153.8538571264098209
 20
194.5995160360322132
 30
0.0
 11
5153.7276071264086568
 21
194.5995160360322132
 31
0.0
  0
LINE
  5
BA79
  8
0
 10
5153.8698571264094426
 20
194.6155160360322043
 30
0.0
 11
5153.8698571264094426
 21
194.6910160360322095
 31
0.0
  0
ARC
  5
BA7A
  8
0
 10
5153.8538571264098209
 20
194.6155160360322043
 30
0.0
 40
0.016
 50
269.9999999999478746
 51
359.9999999998991029
  0
ARC
  5
BA7B
  8
0
 10
5153.8538571264098209
 20
194.6910160360322095
 30
0.0
 40
0.016
 50
0.0000000000521102
 51
90.0000000000521254
  0
ARC
  5
BA7C
  8
0
 10
5153.7276071264086568
 20
194.6910160360322095
 30
0.0
 40
0.016
 50
90.0
 51
180.0
  0
ARC
  5
BA7D
  8
0
 10
5153.7276071264086568
 20
194.6155160360322043
 30
0.0
 40
0.016
 50
180.0000000000260059
 51
270.0
  0
LINE
  5
BA7E
  8
0
 10
5154.0728571264098719
 20
194.7070160360322006
 30
0.0
 11
5153.9466071264087077
 21
194.7070160360322006
 31
0.0
  0
LINE
  5
BA7F
  8
0
 10
5153.9306071264099955
 20
194.6910160360322095
 30
0.0
 11
5153.9306071264099955
 21
194.6155160360322043
 31
0.0
  0
LINE
  5
BA80
  8
0
 10
5154.0728571264098719
 20
194.5995160360322132
 30
0.0
 11
5153.9466071264087077
 21
194.5995160360322132
 31
0.0
  0
LINE
  5
BA81
  8
0
 10
5154.088857126410403
 20
194.6155160360322043
 30
0.0
 11
5154.088857126410403
 21
194.6910160360322095
 31
0.0
  0
ARC
  5
BA82
  8
0
 10
5154.0728571264098719
 20
194.6155160360322043
 30
0.0
 40
0.016
 50
269.9999999999478746
 51
359.9999999998991029
  0
ARC
  5
BA83
  8
0
 10
5154.0728571264098719
 20
194.6910160360322095
 30
0.0
 40
0.016
 50
0.0000000000521102
 51
90.0000000000521254
  0
ARC
  5
BA84
  8
0
 10
5153.9466071264087077
 20
194.6910160360322095
 30
0.0
 40
0.016
 50
90.0
 51
180.0
  0
ARC
  5
BA85
  8
0
 10
5153.9466071264087077
 20
194.6155160360322043
 30
0.0
 40
0.016
 50
180.0000000000260059
 51
270.0
  0
CIRCLE
  5
BA86
  8
0
 10
5151.3411071265099963
 20
264.3715160360321761
 30
0.0
 40
0.0944999999999965
  0
LINE
  5
BA87
  8
0
 10
5153.4174539739096872
 20
192.8980601858322075
 30
0.0
 11
5153.3753705132412506
 21
193.7010604508083134
 31
0.0
  0
LINE
  5
BA88
  8
0
 10
5153.3738460346357897
 20
193.7301492354322079
 30
0.0
 11
5153.3738436740777615
 21
193.7301942775710017
 31
0.0
  0
ARC
  5
BA89
  8
0
 10
5153.5033361138994223
 20
192.9025610780709883
 30
0.0
 40
0.086
 50
183.0000000012724115
 51
270.0
  0
LINE
  5
BA8A
  8
0
 10
5153.5040397854099865
 20
193.4864359378321979
 30
0.0
 11
5153.5040397854099865
 21
193.7301492354322079
 31
0.0
  0
LINE
  5
BA8B
  8
0
 10
5153.5040397854099865
 20
271.09616388832859
 30
0.0
 11
5153.5040397854099865
 21
274.2594359379323237
 31
0.0
  0
LINE
  5
BA8C
  8
0
 10
5153.8840397854100956
 20
193.4864359378321979
 30
0.0
 11
5153.8840397854100956
 21
193.7301492354322079
 31
0.0
  0
LINE
  5
BA8D
  8
0
 10
5153.8840397854100956
 20
194.8038828365322104
 30
0.0
 11
5153.8840397854100956
 21
274.2594359379323237
 31
0.0
  0
LINE
  5
BA8E
  8
0
 10
5153.5665397854099865
 20
193.4239359378321979
 30
0.0
 11
5153.8215397854100956
 21
193.4239359378321979
 31
0.0
  0
LINE
  5
BA8F
  8
0
 10
5153.8215397854100956
 20
193.4239359378321979
 30
0.0
 11
5153.8840397854100956
 21
193.4864359378321979
 31
0.0
  0
LINE
  5
BA90
  8
0
 10
5153.5040397854099865
 20
193.4864359378321979
 30
0.0
 11
5153.5665397854099865
 21
193.4239359378321979
 31
0.0
  0
LINE
  5
BA91
  8
0
 10
5153.8215397854100956
 20
274.32193593793221
 30
0.0
 11
5153.5665397854099865
 21
274.32193593793221
 31
0.0
  0
LINE
  5
BA92
  8
0
 10
5151.9845550519348762
 20
274.2835188765885732
 30
0.0
 11
5151.7295550521357654
 21
274.2835188765885732
 31
0.0
  0
LINE
  5
BA93
  8
0
 10
5153.5040397854099865
 20
274.2594359379323237
 30
0.0
 11
5153.5665397854099865
 21
274.32193593793221
 31
0.0
  0
LINE
  5
BA94
  8
0
 10
5153.8215397854100956
 20
274.32193593793221
 30
0.0
 11
5153.8840397854100956
 21
274.2594359379323237
 31
0.0
  0
LINE
  5
BA95
  8
0
 10
5152.0470550520358302
 20
274.2210188764885856
 30
0.0
 11
5152.0610576554181534
 21
271.09616388832859
 31
0.0
  0
LINE
  5
BA96
  8
0
 10
5152.3196235652076211
 20
193.7313133752165868
 30
0.0
 11
5152.3196420477870561
 21
193.4487944716391041
 31
0.0
  0
LINE
  5
BA97
  8
0
 10
5151.667055052035721
 20
274.2210188764885856
 30
0.0
 11
5151.681948911170366
 21
270.8975160361322878
 31
0.0
  0
LINE
  5
BA98
  8
0
 10
5151.9387536638378151
 20
193.7301492354322079
 30
0.0
 11
5151.9405909440092728
 21
193.4482551433322044
 31
0.0
  0
LINE
  5
BA99
  8
0
 10
5151.7295550521357654
 20
274.2835188765885732
 30
0.0
 11
5151.667055052035721
 21
274.2210188764885856
 31
0.0
  0
LINE
  5
BA9A
  8
0
 10
5151.9845550519348762
 20
274.2835188765885732
 30
0.0
 11
5152.0470550520358302
 21
274.2210188764885856
 31
0.0
  0
LINE
  5
BA9B
  8
0
 10
5151.7295550521357654
 20
274.2835188765885732
 30
0.0
 11
5151.7435470451391666
 21
271.09616388832859
 31
0.0
  0
LINE
  5
BA9C
  8
0
 10
5152.0021118399281477
 20
193.7301492354322079
 30
0.0
 11
5152.0021420478869913
 21
193.3862944715392018
 31
0.0
  0
LINE
  5
BA9D
  8
0
 10
5151.9845550519348762
 20
274.2835188765885732
 30
0.0
 11
5151.9985516547585576
 21
271.09616388832859
 31
0.0
  0
LINE
  5
BA9E
  8
0
 10
5152.2571235651075767
 20
193.7313133752165868
 30
0.0
 11
5152.2571420476870117
 21
193.3862944715390881
 31
0.0
  0
LINE
  5
BA9F
  8
0
 10
5153.5665397854099865
 20
274.32193593793221
 30
0.0
 11
5153.5665397854099865
 21
271.09616388832859
 31
0.0
  0
LINE
  5
BAA0
  8
0
 10
5153.5665397854099865
 20
193.7301492354322079
 30
0.0
 11
5153.5665397854099865
 21
193.4239359378321979
 31
0.0
  0
LINE
  5
BAA1
  8
0
 10
5153.8215397854100956
 20
274.32193593793221
 30
0.0
 11
5153.8215397854100956
 21
194.8038828365322104
 31
0.0
  0
LINE
  5
BAA2
  8
0
 10
5153.8215397854100956
 20
193.7301492354322079
 30
0.0
 11
5153.8215397854100956
 21
193.4239359378321979
 31
0.0
  0
LINE
  5
BAA3
  8
0
 10
5152.0021420477869469
 20
193.3862944716391041
 30
0.0
 11
5152.2571420477870561
 21
193.3862944716391041
 31
0.0
  0
LINE
  5
BAA4
  8
0
 10
5152.2571420477870561
 20
193.3862944716391041
 30
0.0
 11
5152.3196420477870561
 21
193.4487944716391041
 31
0.0
  0
LINE
  5
BAA5
  8
0
 10
5151.9405909440092728
 20
193.4482551433322044
 30
0.0
 11
5152.0021420477869469
 21
193.3862944716391041
 31
0.0
  0
LINE
  5
BAA6
  8
0
 10
5153.9354360993420414
 20
270.0644562291868169
 30
0.0
 11
5153.9354151374927824
 21
268.7416165436335973
 31
0.0
  0
LINE
  5
BAA7
  8
0
 10
5153.9354351261072225
 20
270.0030382089129262
 30
0.0
 11
5153.9240293269831454
 21
270.0030382089129262
 31
0.0
  0
LINE
  5
BAA8
  8
0
 10
5153.9240293269831454
 20
270.0030382089129262
 30
0.0
 11
5153.9240293269831454
 21
268.8022508073128733
 31
0.0
  0
LINE
  5
BAA9
  8
0
 10
5153.9240293269831454
 20
268.8022508073128733
 30
0.0
 11
5153.9354160983102702
 21
268.8022508073128733
 31
0.0
  0
LINE
  5
BAAA
  8
0
 10
5153.8840397854100956
 20
268.8126446906654792
 30
0.0
 11
5153.9132213034827146
 21
268.8131540560128769
 31
0.0
  0
ARC
  5
BAAB
  8
0
 10
5153.9130293269909089
 20
268.824152380702003
 30
0.0
 40
0.0110000000427084
 50
271.000000107547578
 51
0.0
  0
LINE
  5
BAAC
  8
0
 10
5153.8840397854100956
 20
269.9926443255720869
 30
0.0
 11
5153.9132213034608867
 21
269.9921349602594773
 31
0.0
  0
ARC
  5
BAAD
  8
0
 10
5153.9130293269818139
 20
269.9811366356129838
 30
0.0
 40
0.0109999999999298
 50
0.0
 51
88.9999998481520151
  0
LINE
  5
BAAE
  8
0
 10
5152.3421124586011501
 20
271.8017087536060217
 30
0.0
 11
5152.3912734088171419
 21
271.8019303925080976
 31
0.0
  0
LINE
  5
BAAF
  8
0
 10
5151.6569467212093514
 20
193.5665160359322101
 30
0.0
 11
5151.9101927206102118
 21
193.5665160359322101
 31
0.0
  0
ARC
  5
BAB0
  8
0
 10
5151.9101927206102118
 20
193.536516035932209
 30
0.0
 40
0.0300000000000047
 50
6.6120422094508386
 51
90.0
  0
LINE
  5
BAB1
  8
0
 10
5151.9512380768110233
 20
192.9010463028322135
 30
0.0
 11
5151.941775376921214
 21
193.4470628290719958
 31
0.0
  0
LINE
  5
BAB2
  8
0
 10
5151.1441071264098355
 20
192.6765160359321953
 30
0.0
 11
5151.2185194357061846
 21
192.6765160359321953
 31
0.0
  0
LINE
  5
BAB3
  8
0
 10
5151.366694817208554
 20
192.6765160359321953
 30
0.0
 11
5151.8271071264098282
 21
192.6765160359321953
 31
0.0
  0
LINE
  5
BAB4
  8
0
 10
5152.3078027692390606
 20
192.6765160359321953
 30
0.0
 11
5154.1297675165096734
 21
192.6765160359321953
 31
0.0
  0
LINE
  5
BAB5
  8
0
 10
5151.6569467212093514
 20
193.6355050430321967
 30
0.0
 11
5151.87511262290991
 21
193.6355050430321967
 31
0.0
  0
ARC
  5
BAB6
  8
0
 10
5151.87511262290991
 20
193.6155105395322096
 30
0.0
 40
0.0199945034999978
 50
270.0
 51
90.0
  0
LINE
  5
BAB7
  8
0
 10
5151.87511262290991
 20
193.5955160360321941
 30
0.0
 11
5151.6569467212093514
 21
193.5955160360321941
 31
0.0
  0
LINE
  5
BAB8
  8
0
 10
5152.5471328983094281
 20
193.7301492354322079
 30
0.0
 11
5152.5466834059971006
 21
193.7204097979548862
 31
0.0
  0
LINE
  5
BAB9
  8
0
 10
5152.5466834059971006
 20
193.7204097979548862
 30
0.0
 11
5152.4585247611075829
 21
193.7204097812918917
 31
0.0
  0
ARC
  5
BABA
  8
0
 10
5152.458524767182098
 20
193.6882807937302005
 30
0.0
 40
0.0321289875616137
 50
90.0000108296476071
 51
157.7650017992816061
  0
ARC
  5
BABB
  8
0
 10
5152.4585247850718588
 20
193.6930624994784012
 30
0.0
 40
0.030000044653856
 50
90.0000453825195024
 51
157.583734541530589
  0
LINE
  5
BABC
  8
0
 10
5152.4585247613104002
 20
193.7230625441322047
 30
0.0
 11
5152.5352757513101096
 21
193.7230626049247064
 31
0.0
  0
ARC
  5
BABD
  8
0
 10
5152.5347199465340964
 20
193.6948184036245948
 30
0.0
 40
0.0282496694862169
 50
64.9448617757606996
 51
88.8726479765913524
  0
ARC
  5
BABE
  8
0
 10
5152.5477029345092888
 20
193.7125161912323961
 30
0.0
 40
0.0299999999995766
 50
144.0012119090661997
 51
159.4180519977159065
  0
LINE
  5
BABF
  8
0
 10
5153.2572843878706408
 20
193.7301492354322079
 30
0.0
 11
5153.257733880309388
 21
193.7204097952322002
 31
0.0
  0
LINE
  5
BAC0
  8
0
 10
5153.257733880309388
 20
193.7204097952322002
 30
0.0
 11
5153.3458925251970868
 21
193.7204097785690919
 31
0.0
  0
ARC
  5
BAC1
  8
0
 10
5153.3458925191253002
 20
193.688280791007486
 30
0.0
 40
0.0321289875616137
 50
23.4382852630505489
 51
89.9999891703523787
  0
ARC
  5
BAC2
  8
0
 10
5153.3458925012346299
 20
193.6930624967556014
 30
0.0
 40
0.030000044653856
 50
22.416265458469411
 51
89.9999546174804692
  0
LINE
  5
BAC3
  8
0
 10
5153.345892524996998
 20
193.7230625414094902
 30
0.0
 11
5153.2691415349963791
 21
193.7230626022019067
 31
0.0
  0
ARC
  5
BAC4
  8
0
 10
5153.2696973397733018
 20
193.694818400901795
 30
0.0
 40
0.0282496694862169
 50
91.1273520234086334
 51
115.0551382242393004
  0
ARC
  5
BAC5
  8
0
 10
5153.2567143517971999
 20
193.71251618850971
 30
0.0
 40
0.0299999999995766
 50
20.5819480022840295
 51
35.9987945184442069
  0
LINE
  5
BAC6
  8
0
 10
5152.319631357497201
 20
193.6122028887322131
 30
0.0
 11
5152.4244787329416795
 21
193.6122028887322131
 31
0.0
  0
LINE
  5
BAC7
  8
0
 10
5152.3196351518963638
 20
193.5542028887321919
 30
0.0
 11
5152.4216481569874304
 21
193.5542028887321919
 31
0.0
  0
LINE
  5
BAC8
  8
0
 10
5152.3196324395967167
 20
193.5956622574321955
 30
0.0
 11
5152.4092876740096472
 21
193.5956622574321955
 31
0.0
  0
LINE
  5
BAC9
  8
0
 10
5152.3196340697968481
 20
193.5707435200322095
 30
0.0
 11
5152.4092876740096472
 21
193.5707435200322095
 31
0.0
  0
LINE
  5
BACA
  8
0
 10
5152.4243667231421568
 20
193.6099077486153988
 30
0.0
 11
5152.4092876740096472
 21
193.5956622574321955
 31
0.0
  0
ARC
  5
BACB
  8
0
 10
5152.4173144884971407
 20
193.5871657634559142
 30
0.0
 40
0.0116884627176759
 50
133.371790485136188
 51
179.2899938703716032
  0
ARC
  5
BACC
  8
0
 10
5152.417116284261283
 20
193.5791531358595137
 30
0.0
 40
0.0114895072485688
 50
180.289040297658488
 51
227.0491753465149998
  0
LINE
  5
BACD
  8
0
 10
5152.4092876740096472
 20
193.5707435200322095
 30
0.0
 11
5152.4218831604257502
 21
193.559018233634589
 31
0.0
  0
LINE
  5
BACE
  8
0
 10
5152.4056269232096383
 20
193.5873106025321988
 30
0.0
 11
5152.4056269232096383
 21
193.5790951749322062
 31
0.0
  0
LINE
  5
BACF
  8
0
 10
5153.5040397854099865
 20
193.6122028887322131
 30
0.0
 11
5153.3800273407441637
 21
193.6122028887322131
 31
0.0
  0
LINE
  5
BAD0
  8
0
 10
5153.5040397854099865
 20
193.5542028887321919
 30
0.0
 11
5153.3830669919443608
 21
193.5542028887321919
 31
0.0
  0
LINE
  5
BAD1
  8
0
 10
5153.5040397854099865
 20
193.5956622574321955
 30
0.0
 11
5153.3951296185086903
 21
193.5956622574321955
 31
0.0
  0
LINE
  5
BAD2
  8
0
 10
5153.5040397854099865
 20
193.5707435200322095
 30
0.0
 11
5153.3951296185086903
 21
193.5707435200322095
 31
0.0
  0
LINE
  5
BAD3
  8
0
 10
5153.3801526794850361
 20
193.6098112830740945
 30
0.0
 11
5153.3951296185086903
 21
193.5956622574321955
 31
0.0
  0
ARC
  5
BAD4
  8
0
 10
5153.3871028040221063
 20
193.5871657634559142
 30
0.0
 40
0.0116884627176759
 50
0.7100061296267294
 51
46.6282095148637623
  0
ARC
  5
BAD5
  8
0
 10
5153.387301008257964
 20
193.5791531358595137
 30
0.0
 40
0.0114895072485688
 50
312.9508246534849718
 51
359.7109597023397782
  0
LINE
  5
BAD6
  8
0
 10
5153.3951296185086903
 20
193.5707435200322095
 30
0.0
 11
5153.3828015823119131
 21
193.5592672061875987
 31
0.0
  0
LINE
  5
BAD7
  8
0
 10
5153.3987903693086992
 20
193.5873106025321988
 30
0.0
 11
5153.3987903693086992
 21
193.5790951749322062
 31
0.0
  0
LINE
  5
BAD8
  8
0
 10
5154.1718571264100319
 20
194.5195437638404883
 30
0.0
 11
5154.1718571264100319
 21
194.0144883081239868
 31
0.0
  0
LINE
  5
BAD9
  8
0
 10
5151.1436071264097336
 20
194.7070160359322131
 30
0.0
 11
5151.1436071264097336
 21
194.8038828365322104
 31
0.0
  0
LINE
  5
BADA
  8
0
 10
5151.1427905918089891
 20
194.8038828365322104
 30
0.0
 11
5151.1427905918089891
 21
194.7061995013322075
 31
0.0
  0
LINE
  5
BADB
  8
0
 10
5153.5665397854099865
 20
268.0968681840321892
 30
0.0
 11
5153.5665397854099865
 21
194.8038828365322104
 31
0.0
  0
LINE
  5
BADC
  8
0
 10
5153.5040397854099865
 20
268.0968681840321892
 30
0.0
 11
5153.5040397854099865
 21
194.8038828365322104
 31
0.0
  0
LINE
  5
BADD
  8
0
 10
5152.071167976311699
 20
268.0968681840321892
 30
0.0
 11
5152.3144830460087178
 21
194.8038828365322104
 31
0.0
  0
LINE
  5
BADE
  8
0
 10
5152.008667635222082
 20
268.0968681840321892
 30
0.0
 11
5152.2519824108103421
 21
194.8038828365322104
 31
0.0
  0
LINE
  5
BADF
  8
0
 10
5151.7536661026033471
 20
268.0968681840321892
 30
0.0
 11
5151.9969798193087627
 21
194.8038828365322104
 31
0.0
  0
LINE
  5
BAE0
  8
0
 10
5151.691133109871771
 20
268.1066642660586012
 30
0.0
 11
5151.934479184108568
 21
194.8038828365322104
 31
0.0
  0
LINE
  5
BAE1
  8
0
 10
5153.4450397854097901
 20
239.0517154655321974
 30
0.0
 11
5153.2350397854097537
 21
239.0517154655321974
 31
0.0
  0
ARC
  5
BAE2
  8
0
 10
5153.2350397854097537
 20
239.0317154655321872
 30
0.0
 40
0.019999999999996
 50
90.0
 51
180.0000002864888984
  0
LINE
  5
BAE3
  8
0
 10
5153.2150397854093171
 20
239.0317154654321996
 30
0.0
 11
5153.2150397891482498
 21
238.284156410432189
 31
0.0
  0
ARC
  5
BAE4
  8
0
 10
5153.2350397892469118
 20
238.284156410532205
 30
0.0
 40
0.0200000000999978
 50
180.0000002865052124
 51
269.9999890051108764
  0
LINE
  5
BAE5
  8
0
 10
5153.2350397854097537
 20
238.2641564104322072
 30
0.0
 11
5153.2816470747184212
 21
238.2641564014884921
 31
0.0
  0
LINE
  5
BAE6
  8
0
 10
5153.3985179101100584
 20
238.2642426547321861
 30
0.0
 11
5153.4450397854097901
 21
238.2642426547321861
 31
0.0
  0
ARC
  5
BAE7
  8
0
 10
5153.4730397854100374
 20
238.2879831820322067
 30
0.0
 40
0.0080000000000102
 50
180.0
 51
269.9999999999478746
  0
LINE
  5
BAE8
  8
0
 10
5153.4730397854100374
 20
238.279983182032197
 30
0.0
 11
5153.4960397854092662
 21
238.279983182032197
 31
0.0
  0
ARC
  5
BAE9
  8
0
 10
5153.4960397854092662
 20
238.2879831820322067
 30
0.0
 40
0.007999999999968
 50
269.9999999999478746
 51
0.0
  0
LINE
  5
BAEA
  8
0
 10
5153.4650397854093171
 20
238.2842426547321963
 30
0.0
 11
5153.4650397854093171
 21
239.0317154655321872
 31
0.0
  0
ARC
  5
BAEB
  8
0
 10
5153.4450397854097901
 20
238.2842426547321963
 30
0.0
 40
0.02
 50
270.0
 51
0.0
  0
ARC
  5
BAEC
  8
0
 10
5153.4450397854097901
 20
239.0317154655321872
 30
0.0
 40
0.02
 50
0.0
 51
90.0
  0
ARC
  5
BAED
  8
0
 10
5153.3403640247806834
 20
237.8827307089896976
 30
0.0
 40
0.3859186949643808
 50
81.333115284811214
 51
98.751455787588327
  0
ARC
  5
BAEE
  8
0
 10
5153.4730397854100374
 20
239.0278886938322103
 30
0.0
 40
0.0080000000000102
 50
90.0000000000521254
 51
180.0
  0
LINE
  5
BAEF
  8
0
 10
5153.4730397854100374
 20
239.0358886938321916
 30
0.0
 11
5153.4960397854092662
 21
239.0358886938321916
 31
0.0
  0
ARC
  5
BAF0
  8
0
 10
5153.4960397854092662
 20
239.0278886938322955
 30
0.0
 40
0.007999999999968
 50
0.0
 51
90.0000000000521254
  0
ARC
  5
BAF1
  8
0
 10
5153.8920397854099065
 20
239.0278886938322103
 30
0.0
 40
0.0080000000000187
 50
90.0000000000521254
 51
180.0
  0
LINE
  5
BAF2
  8
0
 10
5153.8920397854099065
 20
239.0358886938321916
 30
0.0
 11
5153.9150397854100447
 21
239.0358886938321916
 31
0.0
  0
ARC
  5
BAF3
  8
0
 10
5153.9150397854100447
 20
239.0278886938322955
 30
0.0
 40
0.007999999999968
 50
0.0
 51
90.0000000000521254
  0
ARC
  5
BAF4
  8
0
 10
5153.8920397854099065
 20
238.2879831820322067
 30
0.0
 40
0.0080000000000187
 50
180.0
 51
269.9999999999478746
  0
LINE
  5
BAF5
  8
0
 10
5153.8920397854099065
 20
238.279983182032197
 30
0.0
 11
5153.9150397854100447
 21
238.279983182032197
 31
0.0
  0
ARC
  5
BAF6
  8
0
 10
5153.9150397854100447
 20
238.2879831820322067
 30
0.0
 40
0.007999999999968
 50
269.9999999999478746
 51
0.0
  0
LINE
  5
BAF7
  8
0
 10
5155.4453818018573656
 20
239.0329359379321943
 30
0.0
 11
5153.9230397854098555
 21
239.0329359379321943
 31
0.0
  0
LINE
  5
BAF8
  8
0
 10
5153.9230397854098555
 20
239.0329359379321943
 30
0.0
 11
5153.9230397854098555
 21
238.2829359379321943
 31
0.0
  0
LINE
  5
BAF9
  8
0
 10
5153.9230397854098555
 20
238.2829359379321943
 30
0.0
 11
5155.4454134781626635
 21
238.2829359379321943
 31
0.0
  0
LINE
  5
BAFA
  8
0
 10
5155.4910397854100665
 20
240.6579359379321943
 30
0.0
 11
5155.4410397854098846
 21
240.6079359379322113
 31
0.0
  0
LINE
  5
BAFB
  8
0
 10
5155.4410397854098846
 20
240.6079359379322113
 30
0.0
 11
5156.3210397854099938
 21
240.6079359379322113
 31
0.0
  0
LINE
  5
BAFC
  8
0
 10
5156.3210397854099938
 20
240.6079359379322113
 30
0.0
 11
5156.2710397854089024
 21
240.6579359379321943
 31
0.0
  0
LINE
  5
BAFD
  8
0
 10
5156.2710397854089024
 20
240.6579359379321943
 30
0.0
 11
5155.4910397854100665
 21
240.6579359379321943
 31
0.0
  0
LINE
  5
BAFE
  8
0
 10
5155.4410397854098846
 20
240.6079359379322113
 30
0.0
 11
5155.4410397854098846
 21
239.0379359379321897
 31
0.0
  0
LINE
  5
BAFF
  8
0
 10
5156.3210397854099938
 20
240.6079359379322113
 30
0.0
 11
5156.3210397854099938
 21
223.7079359379322057
 31
0.0
  0
LINE
  5
BB00
  8
0
 10
5156.3210397854099938
 20
223.7079359379322057
 30
0.0
 11
5156.2710397854089024
 21
223.6579359379321943
 31
0.0
  0
LINE
  5
BB01
  8
0
 10
5156.2710397854089024
 20
223.6579359379321943
 30
0.0
 11
5155.4910397854100665
 21
223.6579359379321943
 31
0.0
  0
LINE
  5
BB02
  8
0
 10
5155.4910397854100665
 20
223.6579359379321943
 30
0.0
 11
5155.4410397854098846
 21
223.7079359379322057
 31
0.0
  0
LINE
  5
BB03
  8
0
 10
5155.4410397854098846
 20
223.7079359379322057
 30
0.0
 11
5156.3210397854099938
 21
223.7079359379322057
 31
0.0
  0
LINE
  5
BB04
  8
0
 10
5155.4410397854098846
 20
223.7079359379322057
 30
0.0
 11
5155.4410397854098846
 21
225.2779359379321988
 31
0.0
  0
ARC
  5
BB05
  8
0
 10
5153.7723688609630699
 20
226.7419996429873947
 30
0.0
 40
2.219897562176357
 50
318.7368321167364229
 51
323.5999325456917859
  0
ARC
  5
BB06
  8
0
 10
5154.962491692461299
 20
225.8700472596839006
 30
0.0
 40
0.7445551539913556
 50
323.2602569608657745
 51
333.968268707005393
  0
ARC
  5
BB07
  8
0
 10
5155.4108218191449851
 20
225.6571923039954868
 30
0.0
 40
0.2483530462315315
 50
332.6999763085307791
 51
23.1298536406653987
  0
ARC
  5
BB08
  8
0
 10
5154.9440027511718654
 20
225.4405562166681989
 30
0.0
 40
0.7629105904805628
 50
24.3201536539375986
 51
38.2815008103566399
  0
ARC
  5
BB09
  8
0
 10
5153.5284110247739591
 20
224.3726175199909108
 30
0.0
 40
2.5360272492905862
 50
37.4073852732471224
 51
41.045962578950018
  0
LINE
  5
BB0A
  8
0
 10
5155.4410397854098846
 20
226.0379359379321897
 30
0.0
 11
5155.4410397854098846
 21
238.2779359379323125
 31
0.0
  0
ARC
  5
BB0B
  8
0
 10
5153.7723688609630699
 20
239.7419996429873947
 30
0.0
 40
2.219897562176357
 50
318.7368321167364229
 51
323.5999325456917859
  0
ARC
  5
BB0C
  8
0
 10
5154.962491692461299
 20
238.8700472596839006
 30
0.0
 40
0.7445551539913556
 50
323.2602569608657745
 51
333.968268707005393
  0
ARC
  5
BB0D
  8
0
 10
5155.4108218191449851
 20
238.6571923039954868
 30
0.0
 40
0.2483530462315315
 50
332.6999763085323139
 51
23.1298536406653987
  0
ARC
  5
BB0E
  8
0
 10
5154.9440027511718654
 20
238.4405562166681989
 30
0.0
 40
0.7629105904805628
 50
24.3201536539375986
 51
38.2815008103566399
  0
ARC
  5
BB0F
  8
0
 10
5153.5284110247739591
 20
237.3726175199909108
 30
0.0
 40
2.5360272492905862
 50
37.4073852732471224
 51
41.045962578950018
  0
LINE
  5
BB10
  8
0
 10
5153.4450397854097901
 20
226.0517154655321974
 30
0.0
 11
5153.2350397854097537
 21
226.0517154655321974
 31
0.0
  0
ARC
  5
BB11
  8
0
 10
5153.2350397854097537
 20
226.0317154655321872
 30
0.0
 40
0.019999999999996
 50
90.0
 51
180.0000002864888984
  0
LINE
  5
BB12
  8
0
 10
5153.2150397854093171
 20
226.0317154654321996
 30
0.0
 11
5153.2150397891482498
 21
225.284156410432189
 31
0.0
  0
ARC
  5
BB13
  8
0
 10
5153.2350397892469118
 20
225.284156410532205
 30
0.0
 40
0.0200000000999978
 50
180.0000002865052124
 51
269.9999890051108764
  0
LINE
  5
BB14
  8
0
 10
5153.2350397854097537
 20
225.2641564104322072
 30
0.0
 11
5153.2816470747184212
 21
225.2641564014884068
 31
0.0
  0
LINE
  5
BB15
  8
0
 10
5153.3985179101100584
 20
225.2642426547322998
 30
0.0
 11
5153.4450397854097901
 21
225.2642426547322998
 31
0.0
  0
ARC
  5
BB16
  8
0
 10
5153.4730397854100374
 20
225.2879831820322067
 30
0.0
 40
0.0080000000000102
 50
180.0
 51
269.9999999999478746
  0
LINE
  5
BB17
  8
0
 10
5153.4730397854100374
 20
225.279983182032197
 30
0.0
 11
5153.4960397854092662
 21
225.279983182032197
 31
0.0
  0
ARC
  5
BB18
  8
0
 10
5153.4960397854092662
 20
225.2879831820322067
 30
0.0
 40
0.007999999999968
 50
269.9999999999478746
 51
0.0
  0
LINE
  5
BB19
  8
0
 10
5153.4650397854093171
 20
225.2842426547321963
 30
0.0
 11
5153.4650397854093171
 21
226.0317154655321872
 31
0.0
  0
ARC
  5
BB1A
  8
0
 10
5153.4450397854097901
 20
225.2842426547321963
 30
0.0
 40
0.02
 50
270.0
 51
0.0
  0
ARC
  5
BB1B
  8
0
 10
5153.4450397854097901
 20
226.0317154655321872
 30
0.0
 40
0.02
 50
0.0
 51
90.0
  0
ARC
  5
BB1C
  8
0
 10
5153.3403640247806834
 20
224.8827307089896124
 30
0.0
 40
0.3859186949643808
 50
81.333115284811214
 51
98.751455787588327
  0
ARC
  5
BB1D
  8
0
 10
5153.4730397854100374
 20
226.0278886938322103
 30
0.0
 40
0.0080000000000102
 50
90.0000000000521254
 51
180.0
  0
LINE
  5
BB1E
  8
0
 10
5153.4730397854100374
 20
226.0358886938321916
 30
0.0
 11
5153.4960397854092662
 21
226.0358886938321916
 31
0.0
  0
ARC
  5
BB1F
  8
0
 10
5153.4960397854092662
 20
226.0278886938322955
 30
0.0
 40
0.007999999999968
 50
0.0
 51
90.0000000000521254
  0
ARC
  5
BB20
  8
0
 10
5153.8920397854099065
 20
226.0278886938322103
 30
0.0
 40
0.0080000000000187
 50
90.0000000000521254
 51
180.0
  0
LINE
  5
BB21
  8
0
 10
5153.8920397854099065
 20
226.0358886938321916
 30
0.0
 11
5153.9150397854100447
 21
226.0358886938321916
 31
0.0
  0
ARC
  5
BB22
  8
0
 10
5153.9150397854100447
 20
226.0278886938322955
 30
0.0
 40
0.007999999999968
 50
0.0
 51
90.0000000000521254
  0
ARC
  5
BB23
  8
0
 10
5153.8920397854099065
 20
225.2879831820322067
 30
0.0
 40
0.0080000000000187
 50
180.0
 51
269.9999999999478746
  0
LINE
  5
BB24
  8
0
 10
5153.8920397854099065
 20
225.279983182032197
 30
0.0
 11
5153.9150397854100447
 21
225.279983182032197
 31
0.0
  0
ARC
  5
BB25
  8
0
 10
5153.9150397854100447
 20
225.2879831820322067
 30
0.0
 40
0.007999999999968
 50
269.9999999999478746
 51
0.0
  0
LINE
  5
BB26
  8
0
 10
5155.4453818018573656
 20
226.0329359379321943
 30
0.0
 11
5153.9230397854098555
 21
226.0329359379321943
 31
0.0
  0
LINE
  5
BB27
  8
0
 10
5153.9230397854098555
 20
226.0329359379321943
 30
0.0
 11
5153.9230397854098555
 21
225.2829359379321943
 31
0.0
  0
LINE
  5
BB28
  8
0
 10
5153.9230397854098555
 20
225.2829359379321943
 30
0.0
 11
5155.4454134781626635
 21
225.2829359379321943
 31
0.0
  0
LINE
  5
BB29
  8
0
 10
5152.2267104809634475
 20
239.0156452034140102
 30
0.0
 11
5152.4367093096752797
 21
239.016346587283806
 31
0.0
  0
ARC
  5
BB2A
  8
0
 10
5152.4367761081393837
 20
238.9963466988349978
 30
0.0
 40
0.019999999999996
 50
0.1913635719413202
 51
90.1913638584512967
  0
LINE
  5
BB2B
  8
0
 10
5152.4567759965875666
 20
238.9964134971988017
 30
0.0
 11
5152.459272782672997
 21
238.2488586117410136
 31
0.0
  0
ARC
  5
BB2C
  8
0
 10
5152.4392728941238602
 20
238.2487918133768972
 30
0.0
 40
0.0200000000999978
 50
270.1913748532974751
 51
0.1913635719234075
  0
LINE
  5
BB2D
  8
0
 10
5152.4393396964260319
 20
238.2287919248408912
 30
0.0
 11
5152.3927326671027913
 21
238.2286362511308084
 31
0.0
  0
LINE
  5
BB2E
  8
0
 10
5152.2758621954862974
 20
238.2283321642802036
 30
0.0
 11
5152.2293405796654042
 21
238.2281767847900937
 31
0.0
  0
ARC
  5
BB2F
  8
0
 10
5152.2012614442983249
 20
238.2518236618265917
 30
0.0
 40
0.0080000000000102
 50
270.1913638585033937
 51
0.1913638584301222
  0
LINE
  5
BB30
  8
0
 10
5152.2012881636837847
 20
238.2438237064471025
 30
0.0
 11
5152.1782882919678741
 21
238.2437468882137068
 31
0.0
  0
ARC
  5
BB31
  8
0
 10
5152.178272195403224
 20
238.2517727335902862
 30
0.0
 40
0.0080258615181311
 50
180.6142650461218864
 51
270.1149117568054976
  0
LINE
  5
BB32
  8
0
 10
5152.2092738927512983
 20
238.2481098747751957
 30
0.0
 11
5152.2067773909766402
 21
238.9955785165014106
 31
0.0
  0
ARC
  5
BB33
  8
0
 10
5152.2292737812003907
 20
238.2481766732389019
 30
0.0
 40
0.02
 50
180.1913638584285025
 51
270.1913638584513251
  0
ARC
  5
BB34
  8
0
 10
5152.2267772794266421
 20
238.995645314965202
 30
0.0
 40
0.02
 50
90.1913638584512967
 51
180.1913638584285025
  0
ARC
  5
BB35
  8
0
 10
5152.335289977051616
 20
237.8470165759532051
 30
0.0
 40
0.3859186949643807
 50
81.4399080708678298
 51
98.8582485736404237
  0
ARC
  5
BB36
  8
0
 10
5152.1987902167211359
 20
238.9917250467599956
 30
0.0
 40
0.0080000000000102
 50
0.1913638584301222
 51
90.1913638583991855
  0
LINE
  5
BB37
  8
0
 10
5152.1987634973347667
 20
238.9997250021395132
 30
0.0
 11
5152.1757636256197657
 21
238.9996481839060891
 31
0.0
  0
ARC
  5
BB38
  8
0
 10
5152.1757903450052254
 20
238.9916482285266
 30
0.0
 40
0.007999999999968
 50
90.1913638583991855
 51
180.1913638584285025
  0
ARC
  5
BB39
  8
0
 10
5151.7803797574497366
 20
238.9903275683186052
 30
0.0
 40
0.0080000000000187
 50
22.2957290459767599
 51
90.1913638583991855
  0
LINE
  5
BB3A
  8
0
 10
5151.7803530380651864
 20
238.9983275236982081
 30
0.0
 11
5151.7573531663492759
 21
238.9982507054648124
 31
0.0
  0
ARC
  5
BB3B
  8
0
 10
5151.7573798857338261
 20
238.9902507500852948
 30
0.0
 40
0.007999999999968
 50
90.1913638583991855
 51
180.1913638584285025
  0
ARC
  5
BB3C
  8
0
 10
5151.7828509850260161
 20
238.2504261833854002
 30
0.0
 40
0.0080000000000187
 50
270.1913638585033937
 51
337.8019056119958918
  0
LINE
  5
BB3D
  8
0
 10
5151.7828777044123854
 20
238.2424262280057974
 30
0.0
 11
5151.7598778326946558
 21
238.2423494097724017
 31
0.0
  0
ARC
  5
BB3E
  8
0
 10
5151.7598511133101056
 20
238.2503493651518909
 30
0.0
 40
0.007999999999968
 50
180.1913638584285025
 51
270.1913638585033937
  0
LINE
  5
BB3F
  8
0
 10
5150.2270295474509112
 20
238.9901867412455942
 30
0.0
 11
5151.0251156764097686
 21
238.9928523024821061
 31
0.0
  0
LINE
  5
BB40
  8
0
 10
5151.6569467212093514
 20
238.99496258141059
 30
0.0
 11
5151.7493630729459255
 21
238.9952712466485139
 31
0.0
  0
LINE
  5
BB41
  8
0
 10
5151.7493630729459255
 20
238.9952712466485139
 30
0.0
 11
5151.7518680153380046
 21
238.2452754298176956
 31
0.0
  0
LINE
  5
BB42
  8
0
 10
5151.7518680153380046
 20
238.2452754298176956
 30
0.0
 11
5151.6569467212093514
 21
238.2449583982181025
 31
0.0
  0
LINE
  5
BB43
  8
0
 10
5151.0251156764097686
 20
238.2428481192895902
 30
0.0
 11
5150.2295028137132249
 21
238.2401908186184016
 31
0.0
  0
LINE
  5
BB44
  8
0
 10
5150.1759444433755561
 20
240.6150251835541098
 30
0.0
 11
5150.2261111606576378
 21
240.5651924585916106
 31
0.0
  0
LINE
  5
BB45
  8
0
 10
5150.2261111606576378
 20
240.5651924585916106
 30
0.0
 11
5149.3461160689093958
 21
240.5622533261849014
 31
0.0
  0
LINE
  5
BB46
  8
0
 10
5149.3461160689093958
 20
240.5622533261849014
 30
0.0
 11
5149.3959487938718667
 21
240.6124200434664999
 31
0.0
  0
LINE
  5
BB47
  8
0
 10
5149.3959487938718667
 20
240.6124200434664999
 30
0.0
 11
5150.1759444433755561
 21
240.6150251835541098
 31
0.0
  0
LINE
  5
BB48
  8
0
 10
5150.2261111606576378
 20
240.5651924585916106
 30
0.0
 11
5150.2313548400652508
 21
238.9952012153592023
 31
0.0
  0
LINE
  5
BB49
  8
0
 10
5149.3461160689093958
 20
240.5622533261849014
 30
0.0
 11
5149.4025607708099415
 21
223.6623475869322135
 31
0.0
  0
LINE
  5
BB4A
  8
0
 10
5149.4025607708099415
 20
223.6623475869322135
 30
0.0
 11
5149.4527274880911136
 21
223.6125148619696006
 31
0.0
  0
LINE
  5
BB4B
  8
0
 10
5149.4527274880911136
 20
223.6125148619696006
 30
0.0
 11
5150.2327231375948031
 21
223.6151200020572958
 31
0.0
  0
LINE
  5
BB4C
  8
0
 10
5150.2327231375948031
 20
223.6151200020572958
 30
0.0
 11
5150.2825558625581834
 21
223.665286719338809
 31
0.0
  0
LINE
  5
BB4D
  8
0
 10
5150.2825558625581834
 20
223.665286719338809
 30
0.0
 11
5149.4025607708099415
 21
223.6623475869322135
 31
0.0
  0
LINE
  5
BB4E
  8
0
 10
5150.2825558625581834
 20
223.665286719338809
 30
0.0
 11
5150.2773121831505705
 21
225.2352779625711889
 31
0.0
  0
ARC
  5
BB4F
  8
0
 10
5151.9410839401680278
 20
226.7049067344406126
 30
0.0
 40
2.219897562176357
 50
216.5914313127159119
 51
221.454531741684093
  0
ARC
  5
BB50
  8
0
 10
5150.7538800006350357
 20
225.8289842956600069
 30
0.0
 40
0.7445551539913554
 50
206.2230951514135882
 51
216.931106897552695
  0
ARC
  5
BB51
  8
0
 10
5150.306263293739903
 20
225.6146331389959983
 30
0.0
 40
0.2483530462315314
 50
157.0615102177779931
 51
207.4913875498949949
  0
ARC
  5
BB52
  8
0
 10
5150.7738033058949441
 20
225.3995573997995905
 30
0.0
 40
0.7629105904805626
 50
141.9098630480764029
 51
155.8712102044760002
  0
ARC
  5
BB53
  8
0
 10
5152.1929539699640372
 20
224.3363526272470949
 30
0.0
 40
2.5360272492905862
 50
139.1454012793498123
 51
142.7839785851635099
  0
LINE
  5
BB54
  8
0
 10
5150.2747738415300773
 20
225.9952737236301914
 30
0.0
 11
5150.2338931816839249
 21
238.2352054543092095
 31
0.0
  0
ARC
  5
BB55
  8
0
 10
5151.8976649387068392
 20
239.7048342261734888
 30
0.0
 40
2.219897562176357
 50
216.5914313127159119
 51
221.4545317415150123
  0
ARC
  5
BB56
  8
0
 10
5150.7104609991738471
 20
238.8289117873927978
 30
0.0
 40
0.7445551539913554
 50
206.2230951514150945
 51
216.931106897552695
  0
ARC
  5
BB57
  8
0
 10
5150.2628442922787144
 20
238.6145606307287892
 30
0.0
 40
0.2483530462315314
 50
157.0615102177779931
 51
207.4913875498949949
  0
ARC
  5
BB58
  8
0
 10
5150.7303843044319365
 20
238.3994848915324951
 30
0.0
 40
0.7629105904805626
 50
141.9098630480764029
 51
155.8712102044760002
  0
ARC
  5
BB59
  8
0
 10
5152.1495349685019391
 20
237.3362801189798859
 30
0.0
 40
2.5360272492905862
 50
139.1454012794833091
 51
142.7839785851635099
  0
LINE
  5
BB5A
  8
0
 10
5152.2707166861546284
 20
226.0157196610562096
 30
0.0
 11
5152.4807155148673701
 21
226.0164210449258917
 31
0.0
  0
ARC
  5
BB5B
  8
0
 10
5152.4807823133323836
 20
225.9964211564771972
 30
0.0
 40
0.019999999999996
 50
0.1913635719413202
 51
90.1913638584512967
  0
LINE
  5
BB5C
  8
0
 10
5152.500782201779657
 20
225.9964879548408874
 30
0.0
 11
5152.5032789878650874
 21
225.248933069383213
 31
0.0
  0
ARC
  5
BB5D
  8
0
 10
5152.4832790993177696
 20
225.2488662710190965
 30
0.0
 40
0.0200000000999978
 50
270.1913748532974751
 51
0.1913635719234075
  0
LINE
  5
BB5E
  8
0
 10
5152.4833459016190318
 20
225.2288663824830905
 30
0.0
 11
5152.4367388722957912
 21
225.2287107087730078
 31
0.0
  0
LINE
  5
BB5F
  8
0
 10
5152.3198684006783878
 20
225.228406621922403
 30
0.0
 11
5152.2733467848556757
 21
225.2282512424322931
 31
0.0
  0
ARC
  5
BB60
  8
0
 10
5152.2452676494904154
 20
225.251898119468791
 30
0.0
 40
0.0080000000000102
 50
270.1913638585033937
 51
0.1913638584301222
  0
LINE
  5
BB61
  8
0
 10
5152.2452943688767846
 20
225.2438981640891882
 30
0.0
 11
5152.2222944971599645
 21
225.2438213458559062
 31
0.0
  0
ARC
  5
BB62
  8
0
 10
5152.2222677777754143
 20
225.2518213012353954
 30
0.0
 40
0.007999999999968
 50
180.1913638584285025
 51
270.1913638585033937
  0
LINE
  5
BB63
  8
0
 10
5152.2532800979442982
 20
225.2481843324173099
 30
0.0
 11
5152.2507835961687306
 21
225.99565297414361
 31
0.0
  0
ARC
  5
BB64
  8
0
 10
5152.2732799863943001
 20
225.2482511308811013
 30
0.0
 40
0.02
 50
180.1913638584285025
 51
270.1913638584513251
  0
ARC
  5
BB65
  8
0
 10
5152.2707834846187325
 20
225.9957197726074014
 30
0.0
 40
0.02
 50
90.1913638584512967
 51
180.1913638584285025
  0
ARC
  5
BB66
  8
0
 10
5152.3792961822437064
 20
224.8470910335954045
 30
0.0
 40
0.3859186949643807
 50
81.4399080708678298
 51
98.8582485736404237
  0
ARC
  5
BB67
  8
0
 10
5152.2427964219141359
 20
225.991799504402195
 30
0.0
 40
0.0080000000000102
 50
0.1913638584301222
 51
90.1913638583991855
  0
LINE
  5
BB68
  8
0
 10
5152.2427697025277666
 20
225.9997994597817126
 30
0.0
 11
5152.2197698308118561
 21
225.9997226415482885
 31
0.0
  0
ARC
  5
BB69
  8
0
 10
5152.2197965501982253
 20
225.9917226861687993
 30
0.0
 40
0.007999999999968
 50
90.1913638583991855
 51
180.1913638584285025
  0
ARC
  5
BB6A
  8
0
 10
5151.8237987589109252
 20
225.9904000765857859
 30
0.0
 40
0.0080000000000187
 50
0.1913638584806037
 51
90.1913638583991855
  0
LINE
  5
BB6B
  8
0
 10
5151.823772039524556
 20
225.9984000319653035
 30
0.0
 11
5151.800772167809555
 21
225.9983232137319931
 31
0.0
  0
ARC
  5
BB6C
  8
0
 10
5151.8007988871950147
 20
225.9903232583525039
 30
0.0
 40
0.007999999999968
 50
90.1913638583991855
 51
180.1913638584285025
  0
ARC
  5
BB6D
  8
0
 10
5151.8262699864881142
 20
225.2504986916524956
 30
0.0
 40
0.0080000000000187
 50
270.1913638585033937
 51
0.1913638584789753
  0
LINE
  5
BB6E
  8
0
 10
5151.8262967058726645
 20
225.2424987362728928
 30
0.0
 11
5151.8032968341576634
 21
225.2424219180396108
 31
0.0
  0
ARC
  5
BB6F
  8
0
 10
5151.8032701147722037
 20
225.2504218734189863
 30
0.0
 40
0.007999999999968
 50
180.1913638584285025
 51
270.1913638585033937
  0
LINE
  5
BB70
  8
0
 10
5150.2704485489130093
 20
225.9902592495126896
 30
0.0
 11
5151.0032989306318996
 21
225.9927069271491007
 31
0.0
  0
LINE
  5
BB71
  8
0
 10
5151.6351328725841086
 20
225.9948172157538977
 30
0.0
 11
5151.7927820744089331
 21
225.9953437549156092
 31
0.0
  0
LINE
  5
BB72
  8
0
 10
5151.7927820744089331
 20
225.9953437549156092
 30
0.0
 11
5151.7952870168001027
 21
225.2453479380849046
 31
0.0
  0
LINE
  5
BB73
  8
0
 10
5151.7952870168001027
 20
225.2453479380849046
 30
0.0
 11
5151.6342565072609432
 21
225.2448101055520908
 31
0.0
  0
LINE
  5
BB74
  8
0
 10
5151.0024225653078247
 20
225.2426998169472938
 30
0.0
 11
5150.2729218151762325
 21
225.2402633268856107
 31
0.0
  0
CIRCLE
  5
BB76
  8
0
 10
5151.3411071264099519
 20
230.5630160359322076
 30
0.0
 40
0.0945000000000026
  0
LINE
  5
BB77
  8
0
 10
5152.3446662604492303
 20
271.2704946485998789
 30
0.0
 11
5152.3936025023231196
 21
271.2706580928016251
 31
0.0
  0
LINE
  5
BB78
  8
0
 10
5153.8840397854100956
 20
268.7327619226322213
 30
0.0
 11
5153.9354152099313069
 21
268.7461877892192774
 31
0.0
  0
LINE
  5
BB79
  8
0
 10
5153.8840397854100956
 20
268.7741052196321903
 30
0.0
 11
5153.9354158650630779
 21
268.7875312573241899
 31
0.0
  0
ENDSEC
  0
EOF
