  0
SECTION
  2
HEADER
  9
$ACADVER
  1
AC1009
  9
$INSBASE
 10
5200.9900857397205982
 20
156.4143978144088862
 30
0.0
  9
$EXTMIN
 10
5172.3202468752060668
 20
156.4018186073708137
 30
-0.0000000000000058
  9
$EXTMAX
 10
5229.3755181454253034
 20
238.066577344279608
 30
0.0000000000000104
  9
$LIMMIN
 10
0.0
 20
0.0
  9
$LIMMAX
 10
11.6929133858000007
 20
8.2677165353999982
  9
$ORTHOMODE
 70
     0
  9
$REGENMODE
 70
     1
  9
$FILLMODE
 70
     1
  9
$QTEXTMODE
 70
     0
  9
$MIRRTEXT
 70
     0
  9
$DRAGMODE
 70
     2
  9
$LTSCALE
 40
0.6431102362
  9
$OSMODE
 70
  4095
  9
$ATTMODE
 70
     1
  9
$TEXTSIZE
 40
0.2
  9
$TRACEWID
 40
0.05
  9
$TEXTSTYLE
  7
STANDARD
  9
$CLAYER
  8
0
  9
$CELTYPE
  6
BYLAYER
  9
$CECOLOR
 62
   256
  9
$DIMSCALE
 40
1.0
  9
$DIMASZ
 40
0.1875
  9
$DIMEXO
 40
0.0625
  9
$DIMDLI
 40
0.4443307087
  9
$DIMRND
 40
0.0
  9
$DIMDLE
 40
0.0
  9
$DIMEXE
 40
0.125
  9
$DIMTP
 40
0.01
  9
$DIMTM
 40
0.01
  9
$DIMTXT
 40
2.0
  9
$DIMCEN
 40
0.1052362205
  9
$DIMTSZ
 40
0.0
  9
$DIMTOL
 70
     1
  9
$DIMLIM
 70
     0
  9
$DIMTIH
 70
     1
  9
$DIMTOH
 70
     1
  9
$DIMSE1
 70
     0
  9
$DIMSE2
 70
     0
  9
$DIMTAD
 70
     0
  9
$DIMZIN
 70
     0
  9
$DIMBLK
  1

  9
$DIMASO
 70
     1
  9
$DIMSHO
 70
     1
  9
$DIMPOST
  1
\X
  9
$DIMAPOST
  1

  9
$DIMALT
 70
     1
  9
$DIMALTD
 70
     2
  9
$DIMALTF
 40
25.3999999999999986
  9
$DIMLFAC
 40
1.0
  9
$DIMTOFL
 70
     0
  9
$DIMTVP
 40
0.0
  9
$DIMTIX
 70
     0
  9
$DIMSOXD
 70
     0
  9
$DIMSAH
 70
     0
  9
$DIMBLK1
  1

  9
$DIMBLK2
  1

  9
$DIMSTYLE
  2
STANDARD
  9
$DIMCLRD
 70
     0
  9
$DIMCLRE
 70
     0
  9
$DIMCLRT
 70
     0
  9
$DIMTFAC
 40
1.0
  9
$DIMGAP
 40
0.09
  9
$LUNITS
 70
     2
  9
$LUPREC
 70
     4
  9
$SKETCHINC
 40
0.1
  9
$FILLETRAD
 40
0.0
  9
$AUNITS
 70
     0
  9
$AUPREC
 70
     0
  9
$MENU
  1
.
  9
$ELEVATION
 40
0.0
  9
$PELEVATION
 40
0.0
  9
$THICKNESS
 40
0.0
  9
$LIMCHECK
 70
     0
  9
$BLIPMODE
 70
     0
  9
$CHAMFERA
 40
0.0
  9
$CHAMFERB
 40
0.0
  9
$SKPOLY
 70
     0
  9
$TDCREATE
 40
2458060.468368056230247
  9
$TDUPDATE
 40
2460998.7872453709132969
  9
$TDINDWG
 40
0.4164769676
  9
$TDUSRTIMER
 40
0.4164769676
  9
$USRTIMER
 70
     1
  9
$ANGBASE
 50
0.0
  9
$ANGDIR
 70
     0
  9
$PDMODE
 70
     0
  9
$PDSIZE
 40
0.3125
  9
$PLINEWID
 40
0.0
  9
$COORDS
 70
     1
  9
$SPLFRAME
 70
     0
  9
$SPLINETYPE
 70
     6
  9
$SPLINESEGS
 70
     8
  9
$ATTDIA
 70
     1
  9
$ATTREQ
 70
     1
  9
$HANDLING
 70
     1
  9
$HANDSEED
  5
B71A
  9
$SURFTAB1
 70
     6
  9
$SURFTAB2
 70
     6
  9
$SURFTYPE
 70
     6
  9
$SURFU
 70
     6
  9
$SURFV
 70
     6
  9
$UCSNAME
  2

  9
$UCSORG
 10
0.0
 20
0.0
 30
0.0
  9
$UCSXDIR
 10
1.0
 20
0.0
 30
0.0
  9
$UCSYDIR
 10
0.0
 20
1.0
 30
0.0
  9
$PUCSNAME
  2

  9
$PUCSORG
 10
0.0
 20
0.0
 30
0.0
  9
$PUCSXDIR
 10
1.0
 20
0.0
 30
0.0
  9
$PUCSYDIR
 10
0.0
 20
1.0
 30
0.0
  9
$USERI1
 70
     0
  9
$USERI2
 70
     0
  9
$USERI3
 70
     0
  9
$USERI4
 70
     0
  9
$USERI5
 70
     0
  9
$USERR1
 40
0.0
  9
$USERR2
 40
0.0
  9
$USERR3
 40
0.0
  9
$USERR4
 40
0.0
  9
$USERR5
 40
0.0
  9
$WORLDVIEW
 70
     1
  9
$SHADEDGE
 70
     3
  9
$SHADEDIF
 70
    70
  9
$TILEMODE
 70
     1
  9
$MAXACTVP
 70
    64
  9
$PLIMCHECK
 70
     0
  9
$PEXTMIN
 10
1.0000000000000000E+20
 20
1.0000000000000000E+20
 30
1.0000000000000000E+20
  9
$PEXTMAX
 10
-1.0000000000000000E+20
 20
-1.0000000000000000E+20
 30
-1.0000000000000000E+20
  9
$PLIMMIN
 10
0.0
 20
0.0
  9
$PLIMMAX
 10
12.0
 20
9.0
  9
$UNITMODE
 70
     0
  9
$VISRETAIN
 70
     1
  9
$PLINEGEN
 70
     0
  9
$PSLTSCALE
 70
     1
  0
ENDSEC
  0
SECTION
  2
TABLES
  0
TABLE
  2
VPORT
 70
     1
  0
VPORT
  2
*ACTIVE
 70
     0
 10
0.0
 20
0.0
 11
1.0
 21
1.0
 12
1397.3038151275029577
 22
71.2389357790753053
 13
0.0
 23
0.0
 14
1.0
 24
1.0
 15
0.0
 25
0.0
 16
0.0
 26
0.0
 36
17.1152628219792007
 17
3803.5440673828129547
 27
125.9952621967499056
 37
0.0
 40
82.2556591881418768
 41
2.2182448036951499
 42
50.0
 43
0.0
 44
0.0
 50
0.0
 51
0.0
 71
     0
 72
   100
 73
     1
 74
     1
 75
     0
 76
     0
 77
     0
 78
     0
  0
ENDTAB
  0
TABLE
  2
LTYPE
 70
     2
  0
LTYPE
  2
CONTINUOUS
 70
     0
  3
Solid line
 72
    65
 73
     0
 40
0.0
  0
LTYPE
  2
PHANTOM2
 70
     0
  3
___ _ _ ___ _ _ ___ _ _ ___ _ _
 72
    65
 73
     6
 40
1.25
 49
0.625
 49
-0.125
 49
0.125
 49
-0.125
 49
0.125
 49
-0.125
  0
ENDTAB
  0
TABLE
  2
LAYER
 70
     2
  0
LAYER
  2
0
 70
     0
 62
   255
  6
CONTINUOUS
  0
LAYER
  2
DEFPOINTS
 70
     0
 62
     7
  6
CONTINUOUS
  0
ENDTAB
  0
TABLE
  2
STYLE
 70
     1
  0
STYLE
  2
STANDARD
 70
     0
 40
0.0
 41
0.8
 50
0.0
 71
     0
 42
0.2
  3
txt
  4

  0
ENDTAB
  0
TABLE
  2
VIEW
 70
     0
  0
ENDTAB
  0
TABLE
  2
UCS
 70
     0
  0
ENDTAB
  0
TABLE
  2
APPID
 70
     9
  0
APPID
  2
ACAD
 70
     0
  0
APPID
  2
ACAD_MLEADERVER
 70
     0
  0
APPID
  2
ACAD_EXEMPT_FROM_CAD_STANDARDS
 70
     0
  0
APPID
  2
ACAD_NAV_VCDISPLAY
 70
     0
  0
APPID
  2
ACAECLAYERSTANDARD
 70
     0
  0
APPID
  2
ACCMTRANSPARENCY
 70
     0
  0
APPID
  2
ACAD_DSTYLE_DIMJAG
 70
     0
  0
APPID
  2
ACAD_DSTYLE_DIMTALN
 70
     0
  0
APPID
  2
ACDBATTR
 70
     0
  0
ENDTAB
  0
TABLE
  2
DIMSTYLE
 70
     1
  0
DIMSTYLE
  2
STANDARD
 70
     0
  3

  4

  5

  6

  7

 40
1.0
 41
0.1875
 42
0.0625
 43
0.38
 44
0.125
 45
0.0
 46
0.0
 47
0.01
 48
0.01
140
0.15625
141
0.09
142
0.0
143
25.3999999999999986
144
1.0
145
0.0
146
1.0
147
0.09
 71
     1
 72
     0
 73
     1
 74
     1
 75
     0
 76
     0
 77
     0
 78
     4
170
     0
171
     2
172
     0
173
     0
174
     0
175
     0
176
     0
177
     0
178
     0
  0
ENDTAB
  0
ENDSEC
  0
SECTION
  2
BLOCKS
  0
BLOCK
  8
0
  2
$MODEL_SPACE
 70
     0
 10
0.0
 20
0.0
 30
0.0
  3
$MODEL_SPACE
  1

  0
ENDBLK
  5
21
  8
0
  0
BLOCK
 67
     1
  8
0
  2
$PAPER_SPACE
 70
     0
 10
0.0
 20
0.0
 30
0.0
  3
$PAPER_SPACE
  1

  0
ENDBLK
  5
1D
 67
     1
  8
0
  0
BLOCK
  8
0
  2
_FILLED
 70
     0
 10
0.0
 20
0.0
 30
0.0
  3
_FILLED
  1

  0
SOLID
  5
A5FC
  8
0
  6
BYBLOCK
 62
     0
 10
0.0
 20
0.0
 30
0.0
 11
-1.0
 21
0.1666666667
 31
0.0
 12
-1.0
 22
-0.1666666667
 32
0.0
 13
-1.0
 23
-0.1666666667
 33
0.0
  0
ENDBLK
  5
A5FD
  8
0
  6
BYBLOCK
 62
     0
  0
BLOCK
  8
0
  2
A$C854D2D05
 70
     0
 10
0.0
 20
0.0
 30
0.0
  3
A$C854D2D05
  1

  0
LINE
  5
B163
  8
0
 10
62.5802977659767521
 20
37.7171134218237114
 30
0.0
 11
18.6072977659767389
 21
37.7171134218237114
 31
0.0
  0
LINE
  5
B164
  8
0
 10
18.6072977659767389
 20
37.7171134218237114
 30
0.0
 11
18.6072977659767389
 21
37.7951134218237215
 31
0.0
  0
LINE
  5
B165
  8
0
 10
19.0500019798767504
 20
37.7951134218237215
 30
0.0
 11
18.2812977659767206
 21
37.7951134218237215
 31
0.0
  0
LINE
  5
B166
  8
0
 10
18.2812977659767206
 20
37.7951134218237215
 30
0.0
 11
18.2812977659767206
 21
38.712613421823697
 31
0.0
  0
LINE
  5
B167
  8
0
 10
18.2812977659767206
 20
38.7707466213237169
 30
0.0
 11
18.2812977659767206
 21
39.0576134218237314
 31
0.0
  0
LINE
  5
B168
  8
0
 10
18.2812977659767206
 20
39.557613421823703
 30
0.0
 11
18.2812977659767206
 21
116.1167612742200959
 31
0.0
  0
LINE
  5
B169
  8
0
 10
19.0500019798767504
 20
37.7951134218237215
 30
0.0
 11
19.0500019798767504
 21
116.0411134220236988
 31
0.0
  0
LINE
  5
B16A
  8
0
 10
19.0138765534062983
 20
116.1211134220236971
 30
0.0
 11
18.284091427576751
 21
116.1211134220236971
 31
0.0
  0
LINE
  5
B16B
  8
0
 10
19.0552977659767215
 20
116.0411134220236988
 30
0.0
 11
18.2812977659767206
 21
116.0411134220236988
 31
0.0
  0
LINE
  5
B16C
  8
0
 10
19.0552977659767215
 20
116.0411134220236988
 30
0.0
 11
19.0538521864864414
 21
116.0825094019099026
 31
0.0
  0
ARC
  5
B16D
  8
0
 10
19.0138765534062486
 20
116.0811134220237051
 30
0.0
 40
0.04
 50
2.0000000260387938
 51
89.9999999999869686
  0
LINE
  5
B16E
  8
0
 10
18.3009487178749204
 20
116.0040334726237035
 30
0.0
 11
18.3412977659767193
 21
116.0033291774236943
 31
0.0
  0
LINE
  5
B16F
  8
0
 10
18.284091427576751
 20
116.1211134220236971
 30
0.0
 11
18.2812977659767206
 21
116.0411134220236988
 31
0.0
  0
ARC
  5
B170
  8
0
 10
18.3012977659766989
 20
116.0240304265273039
 30
0.0
 40
0.02
 50
179.9999999999787974
 51
269.0000000772046747
  0
LINE
  5
B171
  8
0
 10
18.301646814108441
 20
116.1367582281231989
 30
0.0
 11
18.6002977659767303
 21
116.131545256323605
 31
0.0
  0
ARC
  5
B172
  8
0
 10
18.3012977659767486
 20
116.1167612742200959
 30
0.0
 40
0.02
 50
88.9999999916071971
 51
180.0
  0
LINE
  5
B173
  8
0
 10
18.2812977659767206
 20
38.7707466213237169
 30
0.0
 11
18.3412977659767193
 21
38.7738910881236905
 31
0.0
  0
LINE
  5
B174
  8
0
 10
18.2812977659767206
 20
38.712613421823697
 30
0.0
 11
18.3412977659767193
 21
38.712613421823697
 31
0.0
  0
LINE
  5
B175
  8
0
 10
18.3412977659767193
 20
37.7951134218237215
 30
0.0
 11
18.3412977659767193
 21
116.0411134220236988
 31
0.0
  0
ARC
  5
B176
  8
0
 10
18.5802977659766917
 20
116.1118913111236992
 30
0.0
 40
0.0200000000000094
 50
27.4584693396840507
 51
88.9999999920730147
  0
LINE
  5
B177
  8
0
 10
18.6002977659767303
 20
116.1211134220236971
 30
0.0
 11
18.6002977659767303
 21
119.3251665047236969
 31
0.0
  0
LINE
  5
B178
  8
0
 10
18.6631589365767283
 20
116.1211134220236971
 30
0.0
 11
18.6631589365767283
 21
119.2612357262237026
 31
0.0
  0
LINE
  5
B179
  8
0
 10
18.2717704147767108
 20
39.0576134218237314
 30
0.0
 11
18.3412977659767193
 21
39.0576134218237314
 31
0.0
  0
LINE
  5
B17A
  8
0
 10
18.2717704147767108
 20
39.0576134218237314
 30
0.0
 11
18.2717704147767108
 21
39.557613421823703
 31
0.0
  0
LINE
  5
B17B
  8
0
 10
18.2717704147767108
 20
39.557613421823703
 30
0.0
 11
18.3412977659767193
 21
39.557613421823703
 31
0.0
  0
LINE
  5
B17C
  8
0
 10
18.3412977659767193
 20
39.051555045923692
 30
0.0
 11
18.2812977659767206
 21
39.0505168418237432
 31
0.0
  0
LINE
  5
B17D
  8
0
 10
18.3412977659767193
 20
39.0355580919237184
 30
0.0
 11
18.2812977659767206
 21
39.0345198879237216
 31
0.0
  0
LINE
  5
B17E
  8
0
 10
18.3412977659767193
 20
39.0296967606552201
 30
0.0
 11
18.2812977659767206
 21
39.0286585566236965
 31
0.0
  0
LINE
  5
B17F
  8
0
 10
18.3412977659767193
 20
38.8686607257237213
 30
0.0
 11
18.2812977659767206
 21
38.8676134218237266
 31
0.0
  0
LINE
  5
B180
  8
0
 10
18.3412977659767193
 20
38.8846582889237311
 30
0.0
 11
18.2812977659767206
 21
38.8836109850237222
 31
0.0
  0
LINE
  5
B181
  8
0
 10
18.3412977659767193
 20
38.9584872088457814
 30
0.0
 11
18.2812977659767206
 21
38.9584872088457814
 31
0.0
  0
LINE
  5
B182
  8
0
 10
18.3412977659767193
 20
38.9740661179237122
 30
0.0
 11
18.2812977659767206
 21
38.9751134218237212
 31
0.0
  0
LINE
  5
B183
  8
0
 10
18.3412977659767193
 20
39.5636717977236572
 30
0.0
 11
18.2812977659767206
 21
39.5647100018237268
 31
0.0
  0
LINE
  5
B184
  8
0
 10
18.3412977659767193
 20
39.5796687517237373
 30
0.0
 11
18.2812977659767206
 21
39.5807069558237004
 31
0.0
  0
LINE
  5
B185
  8
0
 10
18.3412977659767193
 20
39.585530083092209
 30
0.0
 11
18.2812977659767206
 21
39.586568287123761
 31
0.0
  0
LINE
  5
B186
  8
0
 10
18.3412977659767193
 20
39.6411607257237222
 30
0.0
 11
18.2812977659767206
 21
39.6401134218237203
 31
0.0
  0
LINE
  5
B187
  8
0
 10
18.3412977659767193
 20
39.6571582889237106
 30
0.0
 11
18.2812977659767206
 21
39.6561109850237301
 31
0.0
  0
LINE
  5
B188
  8
0
 10
18.3412977659767193
 20
39.8376134218237112
 30
0.0
 11
18.2812977659767206
 21
39.8376134218237112
 31
0.0
  0
LINE
  5
B189
  8
0
 10
18.3412977659767193
 20
39.7465661179237202
 30
0.0
 11
18.2812977659767206
 21
39.7476134218237291
 31
0.0
  0
LINE
  5
B18A
  8
0
 10
18.3412977659767193
 20
39.7305685548237193
 30
0.0
 11
18.2812977659767206
 21
39.7316158587237283
 31
0.0
  0
LINE
  5
B18B
  8
0
 10
18.3412977659767193
 20
115.9381134220237044
 30
0.0
 11
18.2812977659767206
 21
115.9381134220237044
 31
0.0
  0
LINE
  5
B18C
  8
0
 10
62.5802977659767521
 20
37.7171134218237114
 30
0.0
 11
62.5802977659767521
 21
37.7951134218237215
 31
0.0
  0
LINE
  5
B18D
  8
0
 10
62.1375935520767371
 20
37.7951134218237215
 30
0.0
 11
62.9062977659766602
 21
37.7951134218237215
 31
0.0
  0
LINE
  5
B18E
  8
0
 10
62.9062977659766602
 20
37.7951134218237215
 30
0.0
 11
62.9062977659766602
 21
38.712613421823697
 31
0.0
  0
LINE
  5
B18F
  8
0
 10
62.9062977659766602
 20
38.7707466213237169
 30
0.0
 11
62.9062977659767668
 21
39.0576134218237314
 31
0.0
  0
LINE
  5
B190
  8
0
 10
62.9062977659766602
 20
39.557613421823703
 30
0.0
 11
62.9062977659766602
 21
116.1167612742200959
 31
0.0
  0
LINE
  5
B191
  8
0
 10
62.1375935520767371
 20
37.7951134218237215
 30
0.0
 11
62.1375935520767371
 21
116.0411134220236988
 31
0.0
  0
LINE
  5
B192
  8
0
 10
62.1737189785471784
 20
116.1211134220236971
 30
0.0
 11
62.9035041043766725
 21
116.1211134220236971
 31
0.0
  0
LINE
  5
B193
  8
0
 10
62.1322977659766593
 20
116.0411134220236988
 30
0.0
 11
62.9062977659766602
 21
116.0411134220236988
 31
0.0
  0
LINE
  5
B194
  8
0
 10
62.1322977659766593
 20
116.0411134220236988
 30
0.0
 11
62.1337433454669892
 21
116.0825094019099026
 31
0.0
  0
ARC
  5
B195
  8
0
 10
62.1737189785471784
 20
116.0811134220237051
 30
0.0
 40
0.04
 50
90.0000000000097771
 51
177.9999999739611951
  0
LINE
  5
B196
  8
0
 10
62.8866468140785102
 20
116.0040334726237035
 30
0.0
 11
62.8462977659767219
 21
116.0033291774236943
 31
0.0
  0
LINE
  5
B197
  8
0
 10
62.9035041043766725
 20
116.1211134220236971
 30
0.0
 11
62.9062977659767668
 21
116.0411134220236988
 31
0.0
  0
ARC
  5
B198
  8
0
 10
62.8862977659766784
 20
116.0240304265273039
 30
0.0
 40
0.02
 50
270.9999999227919716
 51
0.0000000000195413
  0
LINE
  5
B199
  8
0
 10
62.8859487178450465
 20
116.1367582281231989
 30
0.0
 11
61.9369487178449774
 21
116.1201933713671934
 31
0.0
  0
ARC
  5
B19A
  8
0
 10
62.8862977659766784
 20
116.1167612742200959
 30
0.0
 40
0.02
 50
0.0
 51
91.0000000083895344
  0
LINE
  5
B19B
  8
0
 10
62.9062977659766602
 20
38.7707466213237169
 30
0.0
 11
62.8462977659767219
 21
38.7738910881236905
 31
0.0
  0
LINE
  5
B19C
  8
0
 10
62.9062977659766602
 20
38.712613421823697
 30
0.0
 11
62.8462977659767219
 21
38.712613421823697
 31
0.0
  0
LINE
  5
B19D
  8
0
 10
62.8462977659767219
 20
37.7951134218237215
 30
0.0
 11
62.8462977659767219
 21
116.0411134220236988
 31
0.0
  0
ARC
  5
B19E
  8
0
 10
62.6072977659766821
 20
116.1118913111236992
 30
0.0
 40
0.0200000000000094
 50
91.0000000079302538
 51
152.5415306603159138
  0
LINE
  5
B19F
  8
0
 10
62.5872977659767002
 20
116.131545256323605
 30
0.0
 11
62.5872977659767002
 21
119.3625333238236976
 31
0.0
  0
LINE
  5
B1A0
  8
0
 10
62.5244365953767485
 20
116.1304480105002028
 30
0.0
 11
62.5244365953767485
 21
119.3000333238236976
 31
0.0
  0
LINE
  5
B1A1
  8
0
 10
62.9158251171767233
 20
39.0576134218237314
 30
0.0
 11
62.8462977659767219
 21
39.0576134218237314
 31
0.0
  0
LINE
  5
B1A2
  8
0
 10
62.9158251171767233
 20
39.0576134218237314
 30
0.0
 11
62.9158251171767233
 21
39.557613421823703
 31
0.0
  0
LINE
  5
B1A3
  8
0
 10
62.9158251171767233
 20
39.557613421823703
 30
0.0
 11
62.8462977659767219
 21
39.557613421823703
 31
0.0
  0
LINE
  5
B1A4
  8
0
 10
62.8462977659767219
 20
39.051555045923692
 30
0.0
 11
62.9062977659766602
 21
39.0505168418237432
 31
0.0
  0
LINE
  5
B1A5
  8
0
 10
62.8462977659767219
 20
39.0355580919237184
 30
0.0
 11
62.9062977659766602
 21
39.0345198879237216
 31
0.0
  0
LINE
  5
B1A6
  8
0
 10
62.8462977659767219
 20
39.0296967606552201
 30
0.0
 11
62.9062977659766602
 21
39.0286585566236965
 31
0.0
  0
LINE
  5
B1A7
  8
0
 10
62.8462977659767219
 20
38.8686607257237213
 30
0.0
 11
62.9062977659766602
 21
38.8676134218237266
 31
0.0
  0
LINE
  5
B1A8
  8
0
 10
62.8462977659767219
 20
38.8846582889237311
 30
0.0
 11
62.9062977659766602
 21
38.8836109850237222
 31
0.0
  0
LINE
  5
B1A9
  8
0
 10
62.8462977659767219
 20
38.9584872088457814
 30
0.0
 11
62.9062977659766602
 21
38.9584872088457814
 31
0.0
  0
LINE
  5
B1AA
  8
0
 10
62.8462977659767219
 20
38.9740661179237122
 30
0.0
 11
62.9062977659766602
 21
38.9751134218237212
 31
0.0
  0
LINE
  5
B1AB
  8
0
 10
62.8462977659767219
 20
39.5636717977236572
 30
0.0
 11
62.9062977659766602
 21
39.5647100018237268
 31
0.0
  0
LINE
  5
B1AC
  8
0
 10
62.8462977659767219
 20
39.5796687517237373
 30
0.0
 11
62.9062977659766602
 21
39.5807069558237004
 31
0.0
  0
LINE
  5
B1AD
  8
0
 10
62.8462977659767219
 20
39.585530083092209
 30
0.0
 11
62.9062977659766602
 21
39.586568287123761
 31
0.0
  0
LINE
  5
B1AE
  8
0
 10
62.8462977659767219
 20
39.6411607257237222
 30
0.0
 11
62.9062977659766602
 21
39.6401134218237203
 31
0.0
  0
LINE
  5
B1AF
  8
0
 10
62.8462977659767219
 20
39.6571582889237106
 30
0.0
 11
62.9062977659766602
 21
39.6561109850237301
 31
0.0
  0
LINE
  5
B1B0
  8
0
 10
62.8462977659767219
 20
39.8376134218237112
 30
0.0
 11
62.9062977659766602
 21
39.8376134218237112
 31
0.0
  0
LINE
  5
B1B1
  8
0
 10
62.8462977659767219
 20
39.7465661179237202
 30
0.0
 11
62.9062977659766602
 21
39.7476134218237291
 31
0.0
  0
LINE
  5
B1B2
  8
0
 10
62.8462977659767219
 20
39.7305685548237193
 30
0.0
 11
62.9062977659766602
 21
39.7316158587237283
 31
0.0
  0
LINE
  5
B1B3
  8
0
 10
62.8462977659767219
 20
115.9381134220237044
 30
0.0
 11
62.9062977659766602
 21
115.9381134220237044
 31
0.0
  0
LINE
  5
B1B4
  8
0
 10
62.1375935520767371
 20
38.7611134218237225
 30
0.0
 11
19.0500019798767504
 21
38.7611134218237225
 31
0.0
  0
LINE
  5
B1B5
  8
0
 10
44.10029776597667
 20
38.7611134218237083
 30
0.0
 11
44.10029776597667
 21
119.3251665047236969
 31
0.0
  0
LINE
  5
B1B6
  8
0
 10
44.0374365953766684
 20
38.7611134218237083
 30
0.0
 11
44.0374365953766684
 21
119.2612357262237026
 31
0.0
  0
LINE
  5
B1B7
  8
0
 10
62.5244365953767485
 20
119.3000333238236976
 30
0.0
 11
44.10029776597667
 21
119.3000333238236976
 31
0.0
  0
LINE
  5
B1B8
  8
0
 10
61.9369487178446434
 20
113.1540334726242065
 30
0.0
 11
62.1375935520767371
 21
113.150531203981302
 31
0.0
  0
LINE
  5
B1B9
  8
0
 10
61.9172977659767412
 20
116.1001964174641046
 30
0.0
 11
61.9172977659767412
 21
113.1740304265272954
 31
0.0
  0
ARC
  5
B1BA
  8
0
 10
61.937297765976723
 20
116.1001964174641046
 30
0.0
 40
0.02
 50
91.0000000084221341
 51
180.0000000000194973
  0
ARC
  5
B1BB
  8
0
 10
61.937297765976723
 20
113.1740304265272954
 30
0.0
 40
0.02
 50
180.0000000000194973
 51
268.9999999903042749
  0
LINE
  5
B1BC
  8
0
 10
61.9172977659766772
 20
113.3691134220237018
 30
0.0
 11
44.10029776597667
 21
113.3691134220237018
 31
0.0
  0
LINE
  5
B1BD
  8
0
 10
61.9172977659766772
 20
115.9151134220236941
 30
0.0
 11
44.10029776597667
 21
115.9151134220236941
 31
0.0
  0
LINE
  5
B1BE
  8
0
 10
44.0374365953766684
 20
119.2612357262237026
 30
0.0
 11
44.10029776597667
 21
119.3251665047236969
 31
0.0
  0
LINE
  5
B1BF
  8
0
 10
44.0374365953766684
 20
119.2612357262237026
 30
0.0
 11
18.6631589365767283
 21
119.2612357262237026
 31
0.0
  0
LINE
  5
B1C0
  8
0
 10
62.5872977659767002
 20
119.3625333238236976
 30
0.0
 11
37.0872977659767002
 21
119.3625333238236976
 31
0.0
  0
LINE
  5
B1C1
  8
0
 10
62.5244365953767485
 20
119.3000333238236976
 30
0.0
 11
62.5872977659767002
 21
119.3625333238236976
 31
0.0
  0
LINE
  5
B1C2
  8
0
 10
44.10029776597667
 20
119.3251665047236969
 30
0.0
 11
18.6002977659767303
 21
119.3251665047236969
 31
0.0
  0
LINE
  5
B1C3
  8
0
 10
37.0872977659767002
 20
119.3625333238236976
 30
0.0
 11
37.0872977659767002
 21
119.3251665047236969
 31
0.0
  0
LINE
  5
B1C4
  8
0
 10
18.6631589365767283
 20
119.2612357262237026
 30
0.0
 11
18.6002977659767303
 21
119.3251665047236969
 31
0.0
  0
CIRCLE
  5
B1C5
  8
0
 10
20.60030717927674
 20
116.5713119956237023
 30
0.0
 40
0.9381757812926885
  0
CIRCLE
  5
B1C6
  8
0
 10
20.60030717927674
 20
116.5713119956237023
 30
0.0
 40
0.8971380783999975
  0
CIRCLE
  5
B1C7
  8
0
 10
42.100297553376663
 20
116.5707425913236932
 30
0.0
 40
0.9381757812926885
  0
CIRCLE
  5
B1C8
  8
0
 10
42.100297553376663
 20
116.5707425913236932
 30
0.0
 40
0.8971380783999975
  0
CIRCLE
  5
B1C9
  8
0
 10
58.8372977659767287
 20
75.6745333237236935
 30
0.0
 40
0.3945247403998919
  0
CIRCLE
  5
B1CA
  8
0
 10
58.8372977659767287
 20
75.6745333237236935
 30
0.0
 40
0.37452472617169
  0
LINE
  5
B1CB
  8
0
 10
20.4006209071124509
 20
75.1903369076237169
 30
0.0
 11
20.4006209071124509
 21
76.0703369076237124
 31
0.0
  0
LINE
  5
B1CC
  8
0
 10
20.4006209071124509
 20
76.0703369076237124
 30
0.0
 11
42.2999743928420031
 21
76.0703369076237124
 31
0.0
  0
LINE
  5
B1CD
  8
0
 10
42.2999743928420031
 20
76.0703369076237124
 30
0.0
 11
42.2999743928420031
 21
75.1903369076237169
 31
0.0
  0
LINE
  5
B1CE
  8
0
 10
42.2999743928420031
 20
75.1903369076237169
 30
0.0
 11
20.4006209071124509
 21
75.1903369076237169
 31
0.0
  0
LINE
  5
B1CF
  8
0
 10
20.4006209071124509
 20
75.1903369076237169
 30
0.0
 11
20.3503053796124398
 21
75.2403629916236838
 31
0.0
  0
LINE
  5
B1D0
  8
0
 10
20.3503053796124398
 20
75.2403629916236838
 30
0.0
 11
20.3502952405124695
 21
76.0202779848236929
 31
0.0
  0
LINE
  5
B1D1
  8
0
 10
20.3502952405124695
 20
76.0202779848236929
 30
0.0
 11
20.4006209071124509
 21
76.0703369076237124
 31
0.0
  0
LINE
  5
B1D2
  8
0
 10
42.2999743928420031
 20
75.1903369076237169
 30
0.0
 11
42.350289920342
 21
75.2403629916236838
 31
0.0
  0
LINE
  5
B1D3
  8
0
 10
42.350289920342
 20
75.2403629916236838
 30
0.0
 11
42.3503000594419916
 21
76.0202779848236929
 31
0.0
  0
LINE
  5
B1D4
  8
0
 10
42.3503000594419916
 20
76.0202779848236929
 30
0.0
 11
42.2999743928420031
 21
76.0703369076237124
 31
0.0
  0
LINE
  5
B1D5
  8
0
 10
37.124664748541818
 20
119.3251665047236969
 30
0.0
 11
37.0872977659767002
 21
119.3625333238236976
 31
0.0
  0
LINE
  5
B1D6
  8
0
 10
40.5937977659767171
 20
37.7171134218237114
 30
0.0
 11
-0.0000002788318625
 21
-0.0000000124735209
 31
0.0
  0
ENDBLK
  5
B1DA
  8
0
  0
ENDSEC
  0
SECTION
  2
ENTITIES
  0
ATTDEF
  5
3930
  8
DEFPOINTS
 10
5200.9851323739139843
 20
156.4130314201881902
 30
0.0
 40
0.001
  1
K-702430-L
  3

  2
MODELNUMBER
 70
     0
1001
ACDBATTR
1070
     0
1070
     1
  0
ATTDEF
  5
3931
  8
DEFPOINTS
 10
5200.9851323739139843
 20
156.4113647535214966
 30
0.0
 40
0.001
  1
KOHLER
  3

  2
BRANDNAME
 70
     0
1001
ACDBATTR
1070
     0
1070
     1
  0
ATTDEF
  5
3932
  8
DEFPOINTS
 10
5200.9851323739139843
 20
156.4096980868548883
 30
0.0
 40
0.001
  1
SHOWER DOOR
  3

  2
PRODUCT
 70
     0
1001
ACDBATTR
1070
     0
1070
     1
  0
LINE
  5
B59D
  8
0
 10
5228.9765857397724176
 20
156.4143978144088862
 30
0.0
 11
5173.0035857396705978
 21
156.4143978144088862
 31
0.0
  0
LINE
  5
B59E
  8
0
 10
5173.0035857396705978
 20
156.4143978144088862
 30
0.0
 11
5173.0035857396705978
 21
156.4923978144088892
 31
0.0
  0
LINE
  5
B59F
  8
0
 10
5173.4462899535719771
 20
156.4923978144088892
 30
0.0
 11
5172.677585739672395
 21
156.4923978144088892
 31
0.0
  0
LINE
  5
B5A0
  8
0
 10
5172.677585739672395
 20
156.4923978144088892
 30
0.0
 11
5172.677585739672395
 21
157.4098978144089074
 31
0.0
  0
LINE
  5
B5A1
  8
0
 10
5172.677585739672395
 20
157.4680310139088988
 30
0.0
 11
5172.677585739672395
 21
157.7548978144089915
 31
0.0
  0
LINE
  5
B5A2
  8
0
 10
5172.677585739672395
 20
158.2548978144089062
 30
0.0
 11
5172.677585739672395
 21
234.8140456668052991
 31
0.0
  0
LINE
  5
B5A3
  8
0
 10
5173.4462899535719771
 20
156.4923978144088892
 30
0.0
 11
5173.4462899535719771
 21
234.7383978146089021
 31
0.0
  0
LINE
  5
B5A4
  8
0
 10
5173.4101645271011876
 20
234.8183978146089999
 30
0.0
 11
5172.6803794012721482
 21
234.8183978146089999
 31
0.0
  0
LINE
  5
B5A5
  8
0
 10
5173.4515857396718275
 20
234.7383978146089021
 30
0.0
 11
5172.677585739672395
 21
234.7383978146089021
 31
0.0
  0
LINE
  5
B5A6
  8
0
 10
5173.4515857396718275
 20
234.7383978146089021
 30
0.0
 11
5173.4501401601819452
 21
234.7797937944951912
 31
0.0
  0
ARC
  5
B5A7
  8
0
 10
5173.4101645271011876
 20
234.7783978146090078
 30
0.0
 40
0.04
 50
2.0000000260382969
 51
90.0
  0
LINE
  5
B5A8
  8
0
 10
5172.6972366915688326
 20
234.7013178652090062
 30
0.0
 11
5172.7375857396718857
 21
234.7006135700088976
 31
0.0
  0
LINE
  5
B5A9
  8
0
 10
5172.6803794012721482
 20
234.8183978146089999
 30
0.0
 11
5172.677585739672395
 21
234.7383978146089021
 31
0.0
  0
ARC
  5
B5AA
  8
0
 10
5172.6975857396728316
 20
234.7213148191125924
 30
0.0
 40
0.02
 50
179.9999999999787974
 51
269.0000000772112116
  0
LINE
  5
B5AB
  8
0
 10
5172.6979347878032058
 20
234.8340426207084874
 30
0.0
 11
5172.9965857396719002
 21
234.8288296489089078
 31
0.0
  0
ARC
  5
B5AC
  8
0
 10
5172.6975857396728316
 20
234.8140456668052991
 30
0.0
 40
0.02
 50
88.999999991581177
 51
180.0
  0
LINE
  5
B5AD
  8
0
 10
5172.677585739672395
 20
157.4680310139088988
 30
0.0
 11
5172.7375857396718857
 21
157.4711754807088937
 31
0.0
  0
LINE
  5
B5AE
  8
0
 10
5172.677585739672395
 20
157.4098978144089074
 30
0.0
 11
5172.7375857396718857
 21
157.4098978144089074
 31
0.0
  0
LINE
  5
B5AF
  8
0
 10
5172.7375857396718857
 20
156.4923978144088892
 30
0.0
 11
5172.7375857396718857
 21
234.7383978146089021
 31
0.0
  0
ARC
  5
B5B0
  8
0
 10
5172.9765857396723732
 20
234.8091757037090019
 30
0.0
 40
0.0200000000000094
 50
27.4584693396861503
 51
88.9999999920502205
  0
LINE
  5
B5B1
  8
0
 10
5172.9965857396719002
 20
234.8183978146089999
 30
0.0
 11
5172.9965857396719002
 21
238.0224508973089996
 31
0.0
  0
LINE
  5
B5B2
  8
0
 10
5173.0594469102716175
 20
234.8183978146089999
 30
0.0
 11
5173.0594469102716175
 21
237.9585201188089911
 31
0.0
  0
LINE
  5
B5B3
  8
0
 10
5172.6680583884717635
 20
157.7548978144089915
 30
0.0
 11
5172.7375857396718857
 21
157.7548978144089915
 31
0.0
  0
LINE
  5
B5B4
  8
0
 10
5172.6680583884717635
 20
157.7548978144089915
 30
0.0
 11
5172.6680583884717635
 21
158.2548978144089062
 31
0.0
  0
LINE
  5
B5B5
  8
0
 10
5172.6680583884717635
 20
158.2548978144089062
 30
0.0
 11
5172.7375857396718857
 21
158.2548978144089062
 31
0.0
  0
LINE
  5
B5B6
  8
0
 10
5172.7375857396718857
 20
157.7488394385088952
 30
0.0
 11
5172.677585739672395
 21
157.7478012344089962
 31
0.0
  0
LINE
  5
B5B7
  8
0
 10
5172.7375857396718857
 20
157.7328424845090069
 30
0.0
 11
5172.677585739672395
 21
157.7318042805090101
 31
0.0
  0
LINE
  5
B5B8
  8
0
 10
5172.7375857396718857
 20
157.7269811532403878
 30
0.0
 11
5172.677585739672395
 21
157.7259429492088998
 31
0.0
  0
LINE
  5
B5B9
  8
0
 10
5172.7375857396718857
 20
157.5659451183088891
 30
0.0
 11
5172.677585739672395
 21
157.5648978144089938
 31
0.0
  0
LINE
  5
B5BA
  8
0
 10
5172.7375857396718857
 20
157.5819426815089059
 30
0.0
 11
5172.677585739672395
 21
157.580895377608897
 31
0.0
  0
LINE
  5
B5BB
  8
0
 10
5172.7375857396718857
 20
157.6557716014310131
 30
0.0
 11
5172.677585739672395
 21
157.6557716014310131
 31
0.0
  0
LINE
  5
B5BC
  8
0
 10
5172.7375857396718857
 20
157.6713505105088871
 30
0.0
 11
5172.677585739672395
 21
157.672397814408896
 31
0.0
  0
LINE
  5
B5BD
  8
0
 10
5172.7375857396718857
 20
158.2609561903088888
 30
0.0
 11
5172.677585739672395
 21
158.2619943944089869
 31
0.0
  0
LINE
  5
B5BE
  8
0
 10
5172.7375857396718857
 20
158.2769531443090045
 30
0.0
 11
5172.677585739672395
 21
158.2779913484089036
 31
0.0
  0
LINE
  5
B5BF
  8
0
 10
5172.7375857396718857
 20
158.2828144756774122
 30
0.0
 11
5172.677585739672395
 21
158.283852679709014
 31
0.0
  0
LINE
  5
B5C0
  8
0
 10
5172.7375857396718857
 20
158.3384451183090107
 30
0.0
 11
5172.677585739672395
 21
158.3373978144090017
 31
0.0
  0
LINE
  5
B5C1
  8
0
 10
5172.7375857396718857
 20
158.3544426815089139
 30
0.0
 11
5172.677585739672395
 21
158.3533953776089902
 31
0.0
  0
LINE
  5
B5C2
  8
0
 10
5172.7375857396718857
 20
158.5348978144089074
 30
0.0
 11
5172.677585739672395
 21
158.5348978144089074
 31
0.0
  0
LINE
  5
B5C3
  8
0
 10
5172.7375857396718857
 20
158.443850510508895
 30
0.0
 11
5172.677585739672395
 21
158.4448978144089892
 31
0.0
  0
LINE
  5
B5C4
  8
0
 10
5172.7375857396718857
 20
158.4278529474088941
 30
0.0
 11
5172.677585739672395
 21
158.4289002513089031
 31
0.0
  0
LINE
  5
B5C5
  8
0
 10
5172.7375857396718857
 20
234.6353978146090071
 30
0.0
 11
5172.677585739672395
 21
234.6353978146090071
 31
0.0
  0
LINE
  5
B5C6
  8
0
 10
5228.9765857397724176
 20
156.4143978144088862
 30
0.0
 11
5228.9765857397724176
 21
156.4923978144088892
 31
0.0
  0
LINE
  5
B5C7
  8
0
 10
5228.5338815258719478
 20
156.4923978144088892
 30
0.0
 11
5229.3025857397706204
 21
156.4923978144088892
 31
0.0
  0
LINE
  5
B5C8
  8
0
 10
5229.3025857397706204
 20
156.4923978144088892
 30
0.0
 11
5229.3025857397706204
 21
157.4098978144089074
 31
0.0
  0
LINE
  5
B5C9
  8
0
 10
5229.3025857397706204
 20
157.4680310139088988
 30
0.0
 11
5229.3025857397706204
 21
157.7548978144089915
 31
0.0
  0
LINE
  5
B5CA
  8
0
 10
5229.3025857397706204
 20
158.2548978144089062
 30
0.0
 11
5229.3025857397706204
 21
234.8140456668052991
 31
0.0
  0
LINE
  5
B5CB
  8
0
 10
5228.5338815258719478
 20
156.4923978144088892
 30
0.0
 11
5228.5338815258719478
 21
234.7383978146089021
 31
0.0
  0
LINE
  5
B5CC
  8
0
 10
5228.5700069523427373
 20
234.8183978146089999
 30
0.0
 11
5229.2997920781717767
 21
234.8183978146089999
 31
0.0
  0
LINE
  5
B5CD
  8
0
 10
5228.5285857397720974
 20
234.7383978146089021
 30
0.0
 11
5229.3025857397706204
 21
234.7383978146089021
 31
0.0
  0
LINE
  5
B5CE
  8
0
 10
5228.5285857397720974
 20
234.7383978146089021
 30
0.0
 11
5228.5300313192619797
 21
234.7797937944951912
 31
0.0
  0
ARC
  5
B5CF
  8
0
 10
5228.5700069523427373
 20
234.7783978146090078
 30
0.0
 40
0.04
 50
90.0
 51
177.9999999739617067
  0
LINE
  5
B5D0
  8
0
 10
5229.2829347878741828
 20
234.7013178652090062
 30
0.0
 11
5229.2425857397720392
 21
234.7006135700088976
 31
0.0
  0
LINE
  5
B5D1
  8
0
 10
5229.2997920781717767
 20
234.8183978146089999
 30
0.0
 11
5229.3025857397706204
 21
234.7383978146089021
 31
0.0
  0
ARC
  5
B5D2
  8
0
 10
5229.2825857397720029
 20
234.7213148191125924
 30
0.0
 40
0.02
 50
270.9999999227886747
 51
0.0000000000195413
  0
LINE
  5
B5D3
  8
0
 10
5229.2822366916398096
 20
234.8340426207084874
 30
0.0
 11
5228.3332366916401952
 21
234.8174777639524109
 31
0.0
  0
ARC
  5
B5D4
  8
0
 10
5229.2825857397720029
 20
234.8140456668052991
 30
0.0
 40
0.02
 50
0.0
 51
91.0000000083667686
  0
LINE
  5
B5D5
  8
0
 10
5229.3025857397706204
 20
157.4680310139088988
 30
0.0
 11
5229.2425857397720392
 21
157.4711754807088937
 31
0.0
  0
LINE
  5
B5D6
  8
0
 10
5229.3025857397706204
 20
157.4098978144089074
 30
0.0
 11
5229.2425857397720392
 21
157.4098978144089074
 31
0.0
  0
LINE
  5
B5D7
  8
0
 10
5229.2425857397720392
 20
156.4923978144088892
 30
0.0
 11
5229.2425857397720392
 21
234.7383978146089021
 31
0.0
  0
ARC
  5
B5D8
  8
0
 10
5229.0035857397706422
 20
234.8091757037090019
 30
0.0
 40
0.0200000000000094
 50
91.0000000079497937
 51
152.5415306603138106
  0
LINE
  5
B5D9
  8
0
 10
5228.9835857397720247
 20
234.8288296489089078
 30
0.0
 11
5228.9835857397720247
 21
238.0598177164089861
 31
0.0
  0
LINE
  5
B5DA
  8
0
 10
5228.9207245691732169
 20
234.8277324030854061
 30
0.0
 11
5228.9207245691732169
 21
237.9973177164089861
 31
0.0
  0
LINE
  5
B5DB
  8
0
 10
5229.3121130909730709
 20
157.7548978144089915
 30
0.0
 11
5229.2425857397720392
 21
157.7548978144089915
 31
0.0
  0
LINE
  5
B5DC
  8
0
 10
5229.3121130909730709
 20
157.7548978144089915
 30
0.0
 11
5229.3121130909730709
 21
158.2548978144089062
 31
0.0
  0
LINE
  5
B5DD
  8
0
 10
5229.3121130909730709
 20
158.2548978144089062
 30
0.0
 11
5229.2425857397720392
 21
158.2548978144089062
 31
0.0
  0
LINE
  5
B5DE
  8
0
 10
5229.2425857397720392
 20
157.7488394385088952
 30
0.0
 11
5229.3025857397706204
 21
157.7478012344089962
 31
0.0
  0
LINE
  5
B5DF
  8
0
 10
5229.2425857397720392
 20
157.7328424845090069
 30
0.0
 11
5229.3025857397706204
 21
157.7318042805090101
 31
0.0
  0
LINE
  5
B5E0
  8
0
 10
5229.2425857397720392
 20
157.7269811532403878
 30
0.0
 11
5229.3025857397706204
 21
157.7259429492088998
 31
0.0
  0
LINE
  5
B5E1
  8
0
 10
5229.2425857397720392
 20
157.5659451183088891
 30
0.0
 11
5229.3025857397706204
 21
157.5648978144089938
 31
0.0
  0
LINE
  5
B5E2
  8
0
 10
5229.2425857397720392
 20
157.5819426815089059
 30
0.0
 11
5229.3025857397706204
 21
157.580895377608897
 31
0.0
  0
LINE
  5
B5E3
  8
0
 10
5229.2425857397720392
 20
157.6557716014310131
 30
0.0
 11
5229.3025857397706204
 21
157.6557716014310131
 31
0.0
  0
LINE
  5
B5E4
  8
0
 10
5229.2425857397720392
 20
157.6713505105088871
 30
0.0
 11
5229.3025857397706204
 21
157.672397814408896
 31
0.0
  0
LINE
  5
B5E5
  8
0
 10
5229.2425857397720392
 20
158.2609561903088888
 30
0.0
 11
5229.3025857397706204
 21
158.2619943944089869
 31
0.0
  0
LINE
  5
B5E6
  8
0
 10
5229.2425857397720392
 20
158.2769531443090045
 30
0.0
 11
5229.3025857397706204
 21
158.2779913484089036
 31
0.0
  0
LINE
  5
B5E7
  8
0
 10
5229.2425857397720392
 20
158.2828144756774122
 30
0.0
 11
5229.3025857397706204
 21
158.283852679709014
 31
0.0
  0
LINE
  5
B5E8
  8
0
 10
5229.2425857397720392
 20
158.3384451183090107
 30
0.0
 11
5229.3025857397706204
 21
158.3373978144090017
 31
0.0
  0
LINE
  5
B5E9
  8
0
 10
5229.2425857397720392
 20
158.3544426815089139
 30
0.0
 11
5229.3025857397706204
 21
158.3533953776089902
 31
0.0
  0
LINE
  5
B5EA
  8
0
 10
5229.2425857397720392
 20
158.5348978144089074
 30
0.0
 11
5229.3025857397706204
 21
158.5348978144089074
 31
0.0
  0
LINE
  5
B5EB
  8
0
 10
5229.2425857397720392
 20
158.443850510508895
 30
0.0
 11
5229.3025857397706204
 21
158.4448978144089892
 31
0.0
  0
LINE
  5
B5EC
  8
0
 10
5229.2425857397720392
 20
158.4278529474088941
 30
0.0
 11
5229.3025857397706204
 21
158.4289002513089031
 31
0.0
  0
LINE
  5
B5ED
  8
0
 10
5229.2425857397720392
 20
234.6353978146090071
 30
0.0
 11
5229.3025857397706204
 21
234.6353978146090071
 31
0.0
  0
LINE
  5
B5EE
  8
0
 10
5228.5338815258719478
 20
157.4583978144088974
 30
0.0
 11
5173.4462899535719771
 21
157.4583978144088974
 31
0.0
  0
LINE
  5
B5EF
  8
0
 10
5203.9965857396719002
 20
157.4583978144088974
 30
0.0
 11
5203.9965857396719002
 21
238.0224508973089996
 31
0.0
  0
LINE
  5
B5F0
  8
0
 10
5203.9337245690721829
 20
157.4583978144088974
 30
0.0
 11
5203.9337245690721829
 21
237.9585201188089911
 31
0.0
  0
LINE
  5
B5F1
  8
0
 10
5228.9207245691732169
 20
237.9973177164089861
 30
0.0
 11
5203.9965857396719002
 21
237.9973177164089861
 31
0.0
  0
LINE
  5
B5F2
  8
0
 10
5228.3332366916401952
 20
231.851317865209495
 30
0.0
 11
5228.5338815258719478
 21
231.8478155965665906
 31
0.0
  0
LINE
  5
B5F3
  8
0
 10
5228.3135857397728614
 20
234.7974808100493931
 30
0.0
 11
5228.3135857397728614
 21
231.8713148191125981
 31
0.0
  0
ARC
  5
B5F4
  8
0
 10
5228.3335857397723885
 20
234.7974808100493931
 30
0.0
 40
0.02
 50
91.0000000084188656
 51
180.0000000000194973
  0
ARC
  5
B5F5
  8
0
 10
5228.3335857397723885
 20
231.8713148191125981
 30
0.0
 40
0.02
 50
180.0000000000194973
 51
268.9999999902781269
  0
LINE
  5
B5F6
  8
0
 10
5228.3135857397728614
 20
232.0663978146089903
 30
0.0
 11
5203.9965857396719002
 21
232.0663978146089903
 31
0.0
  0
LINE
  5
B5F7
  8
0
 10
5228.3135857397728614
 20
234.612397814609011
 30
0.0
 11
5203.9965857396719002
 21
234.6123978146088973
 31
0.0
  0
LINE
  5
B5F8
  8
0
 10
5203.9337245690721829
 20
237.9585201188089911
 30
0.0
 11
5203.9965857396719002
 21
238.0224508973089996
 31
0.0
  0
LINE
  5
B5F9
  8
0
 10
5203.9337245690721829
 20
237.9585201188089911
 30
0.0
 11
5173.0594469102716175
 21
237.9585201188089911
 31
0.0
  0
LINE
  5
B5FA
  8
0
 10
5228.9835857397720247
 20
238.0598177164089861
 30
0.0
 11
5197.9835857396719803
 21
238.0598177164089861
 31
0.0
  0
LINE
  5
B5FB
  8
0
 10
5228.9207245691732169
 20
237.9973177164089861
 30
0.0
 11
5228.9835857397720247
 21
238.0598177164089861
 31
0.0
  0
LINE
  5
B5FC
  8
0
 10
5203.9965857396719002
 20
238.0224508973089996
 30
0.0
 11
5172.9965857396719002
 21
238.0224508973089996
 31
0.0
  0
LINE
  5
B5FD
  8
0
 10
5197.9835857396719803
 20
238.0598177164089861
 30
0.0
 11
5197.9835857396719803
 21
238.0224508973089996
 31
0.0
  0
LINE
  5
B5FE
  8
0
 10
5173.0594469102716175
 20
237.9585201188089911
 30
0.0
 11
5172.9965857396719002
 21
238.0224508973089996
 31
0.0
  0
CIRCLE
  5
B5FF
  8
0
 10
5174.9965951529720769
 20
235.268596388209005
 30
0.0
 40
0.9381757812926885
  0
CIRCLE
  5
B600
  8
0
 10
5174.9965951529720769
 20
235.268596388209005
 30
0.0
 40
0.8971380783999975
  0
CIRCLE
  5
B601
  8
0
 10
5201.9965855270720567
 20
235.2680269839090101
 30
0.0
 40
0.9381757812926885
  0
CIRCLE
  5
B602
  8
0
 10
5201.9965855270720567
 20
235.2680269839090101
 30
0.0
 40
0.8971380783999975
  0
CIRCLE
  5
B603
  8
0
 10
5225.4843309524721917
 20
194.3718177163088967
 30
0.0
 40
0.3945247403998919
  0
CIRCLE
  5
B604
  8
0
 10
5225.4843309524721917
 20
194.3718177163088967
 30
0.0
 40
0.37452472617169
  0
LINE
  5
B605
  8
0
 10
5174.5469096592496498
 20
193.887621300208906
 30
0.0
 11
5174.5469096592496498
 21
194.7676213002089014
 31
0.0
  0
LINE
  5
B606
  8
0
 10
5174.5469096592496498
 20
194.7676213002089014
 30
0.0
 11
5202.44626182500906
 21
194.7676213001768986
 31
0.0
  0
LINE
  5
B607
  8
0
 10
5202.44626182500906
 20
194.7676213001768986
 30
0.0
 11
5202.44626182500906
 21
193.8876213001769031
 31
0.0
  0
LINE
  5
B608
  8
0
 10
5202.44626182500906
 20
193.8876213001769031
 30
0.0
 11
5174.5469096592496498
 21
193.887621300208906
 31
0.0
  0
LINE
  5
B609
  8
0
 10
5174.5469096592496498
 20
193.887621300208906
 30
0.0
 11
5174.4965941317486795
 21
193.9376473842089013
 31
0.0
  0
LINE
  5
B60A
  8
0
 10
5174.4965941317486795
 20
193.9376473842089013
 30
0.0
 11
5174.4965839926499029
 21
194.7175623774089104
 31
0.0
  0
LINE
  5
B60B
  8
0
 10
5174.4965839926499029
 20
194.7175623774089104
 30
0.0
 11
5174.5469096592496498
 21
194.7676213002089014
 31
0.0
  0
LINE
  5
B60C
  8
0
 10
5202.44626182500906
 20
193.8876213001769031
 30
0.0
 11
5202.4965773525100303
 21
193.9376473841768984
 31
0.0
  0
LINE
  5
B60D
  8
0
 10
5202.4965773525100303
 20
193.9376473841768984
 30
0.0
 11
5202.4965874916097164
 21
194.7175623773769075
 31
0.0
  0
LINE
  5
B60E
  8
0
 10
5202.4965874916097164
 20
194.7175623773769075
 30
0.0
 11
5202.44626182500906
 21
194.7676213001768986
 31
0.0
  0
LINE
  5
B60F
  8
0
 10
5198.0209527222368706
 20
238.0224508973089996
 30
0.0
 11
5197.9835857396719803
 21
238.0598177164089861
 31
0.0
  0
ENDSEC
  0
EOF
