  0
SECTION
  2
HEADER
  9
$ACADVER
  1
AC1009
  9
$INSBASE
 10
5364.3928680139415519
 20
238.5407164849362971
 30
0.0
  9
$EXTMIN
 10
5335.7693573977057895
 20
236.5620111031882971
 30
-0.0000000000112498
  9
$EXTMAX
 10
5392.9595731592471566
 20
243.5292103534343084
 30
0.0000000000002956
  9
$LIMMIN
 10
0.0
 20
0.0
  9
$LIMMAX
 10
11.6929133858000007
 20
8.2677165353999982
  9
$ORTHOMODE
 70
     0
  9
$REGENMODE
 70
     1
  9
$FILLMODE
 70
     1
  9
$QTEXTMODE
 70
     0
  9
$MIRRTEXT
 70
     0
  9
$DRAGMODE
 70
     2
  9
$LTSCALE
 40
0.6431102362
  9
$OSMODE
 70
  4095
  9
$ATTMODE
 70
     1
  9
$TEXTSIZE
 40
0.2
  9
$TRACEWID
 40
0.05
  9
$TEXTSTYLE
  7
STANDARD
  9
$CLAYER
  8
0
  9
$CELTYPE
  6
BYLAYER
  9
$CECOLOR
 62
   256
  9
$DIMSCALE
 40
1.0
  9
$DIMASZ
 40
0.1875
  9
$DIMEXO
 40
0.0625
  9
$DIMDLI
 40
0.4443307087
  9
$DIMRND
 40
0.0
  9
$DIMDLE
 40
0.0
  9
$DIMEXE
 40
0.125
  9
$DIMTP
 40
0.01
  9
$DIMTM
 40
0.01
  9
$DIMTXT
 40
2.0
  9
$DIMCEN
 40
0.1052362205
  9
$DIMTSZ
 40
0.0
  9
$DIMTOL
 70
     1
  9
$DIMLIM
 70
     0
  9
$DIMTIH
 70
     1
  9
$DIMTOH
 70
     1
  9
$DIMSE1
 70
     0
  9
$DIMSE2
 70
     0
  9
$DIMTAD
 70
     0
  9
$DIMZIN
 70
     0
  9
$DIMBLK
  1

  9
$DIMASO
 70
     1
  9
$DIMSHO
 70
     1
  9
$DIMPOST
  1
\X
  9
$DIMAPOST
  1

  9
$DIMALT
 70
     1
  9
$DIMALTD
 70
     2
  9
$DIMALTF
 40
25.3999999999999986
  9
$DIMLFAC
 40
1.0
  9
$DIMTOFL
 70
     0
  9
$DIMTVP
 40
0.0
  9
$DIMTIX
 70
     0
  9
$DIMSOXD
 70
     0
  9
$DIMSAH
 70
     0
  9
$DIMBLK1
  1

  9
$DIMBLK2
  1

  9
$DIMSTYLE
  2
STANDARD
  9
$DIMCLRD
 70
     0
  9
$DIMCLRE
 70
     0
  9
$DIMCLRT
 70
     0
  9
$DIMTFAC
 40
1.0
  9
$DIMGAP
 40
0.09
  9
$LUNITS
 70
     2
  9
$LUPREC
 70
     4
  9
$SKETCHINC
 40
0.1
  9
$FILLETRAD
 40
0.0
  9
$AUNITS
 70
     0
  9
$AUPREC
 70
     0
  9
$MENU
  1
.
  9
$ELEVATION
 40
0.0
  9
$PELEVATION
 40
0.0
  9
$THICKNESS
 40
0.0
  9
$LIMCHECK
 70
     0
  9
$BLIPMODE
 70
     0
  9
$CHAMFERA
 40
0.0
  9
$CHAMFERB
 40
0.0
  9
$SKPOLY
 70
     0
  9
$TDCREATE
 40
2458060.468368056230247
  9
$TDUPDATE
 40
2460998.7873263889923692
  9
$TDINDWG
 40
0.417472338
  9
$TDUSRTIMER
 40
0.417472338
  9
$USRTIMER
 70
     1
  9
$ANGBASE
 50
0.0
  9
$ANGDIR
 70
     0
  9
$PDMODE
 70
     0
  9
$PDSIZE
 40
0.3125
  9
$PLINEWID
 40
0.0
  9
$COORDS
 70
     1
  9
$SPLFRAME
 70
     0
  9
$SPLINETYPE
 70
     6
  9
$SPLINESEGS
 70
     8
  9
$ATTDIA
 70
     1
  9
$ATTREQ
 70
     1
  9
$HANDLING
 70
     1
  9
$HANDSEED
  5
C7B3
  9
$SURFTAB1
 70
     6
  9
$SURFTAB2
 70
     6
  9
$SURFTYPE
 70
     6
  9
$SURFU
 70
     6
  9
$SURFV
 70
     6
  9
$UCSNAME
  2

  9
$UCSORG
 10
0.0
 20
0.0
 30
0.0
  9
$UCSXDIR
 10
1.0
 20
0.0
 30
0.0
  9
$UCSYDIR
 10
0.0
 20
1.0
 30
0.0
  9
$PUCSNAME
  2

  9
$PUCSORG
 10
0.0
 20
0.0
 30
0.0
  9
$PUCSXDIR
 10
1.0
 20
0.0
 30
0.0
  9
$PUCSYDIR
 10
0.0
 20
1.0
 30
0.0
  9
$USERI1
 70
     0
  9
$USERI2
 70
     0
  9
$USERI3
 70
     0
  9
$USERI4
 70
     0
  9
$USERI5
 70
     0
  9
$USERR1
 40
0.0
  9
$USERR2
 40
0.0
  9
$USERR3
 40
0.0
  9
$USERR4
 40
0.0
  9
$USERR5
 40
0.0
  9
$WORLDVIEW
 70
     1
  9
$SHADEDGE
 70
     3
  9
$SHADEDIF
 70
    70
  9
$TILEMODE
 70
     1
  9
$MAXACTVP
 70
    64
  9
$PLIMCHECK
 70
     0
  9
$PEXTMIN
 10
1.0000000000000000E+20
 20
1.0000000000000000E+20
 30
1.0000000000000000E+20
  9
$PEXTMAX
 10
-1.0000000000000000E+20
 20
-1.0000000000000000E+20
 30
-1.0000000000000000E+20
  9
$PLIMMIN
 10
0.0
 20
0.0
  9
$PLIMMAX
 10
12.0
 20
9.0
  9
$UNITMODE
 70
     0
  9
$VISRETAIN
 70
     1
  9
$PLINEGEN
 70
     0
  9
$PSLTSCALE
 70
     1
  0
ENDSEC
  0
SECTION
  2
TABLES
  0
TABLE
  2
VPORT
 70
     1
  0
VPORT
  2
*ACTIVE
 70
     0
 10
0.0
 20
0.0
 11
1.0
 21
1.0
 12
1560.820397895663973
 22
114.0503485315613972
 13
0.0
 23
0.0
 14
1.0
 24
1.0
 15
0.0
 25
0.0
 16
0.0
 26
0.0
 36
17.1152628219792007
 17
3803.5440673828129547
 27
125.9952621967499056
 37
0.0
 40
25.8673094405891391
 41
2.2182448036951499
 42
50.0
 43
0.0
 44
0.0
 50
0.0
 51
0.0
 71
     0
 72
   100
 73
     1
 74
     1
 75
     0
 76
     0
 77
     0
 78
     0
  0
ENDTAB
  0
TABLE
  2
LTYPE
 70
     2
  0
LTYPE
  2
CONTINUOUS
 70
     0
  3
Solid line
 72
    65
 73
     0
 40
0.0
  0
LTYPE
  2
PHANTOM2
 70
     0
  3
___ _ _ ___ _ _ ___ _ _ ___ _ _
 72
    65
 73
     6
 40
1.25
 49
0.625
 49
-0.125
 49
0.125
 49
-0.125
 49
0.125
 49
-0.125
  0
ENDTAB
  0
TABLE
  2
LAYER
 70
     2
  0
LAYER
  2
0
 70
     0
 62
   255
  6
CONTINUOUS
  0
LAYER
  2
DEFPOINTS
 70
     0
 62
     7
  6
CONTINUOUS
  0
ENDTAB
  0
TABLE
  2
STYLE
 70
     1
  0
STYLE
  2
STANDARD
 70
     0
 40
0.0
 41
0.8
 50
0.0
 71
     0
 42
0.2
  3
txt
  4

  0
ENDTAB
  0
TABLE
  2
VIEW
 70
     0
  0
ENDTAB
  0
TABLE
  2
UCS
 70
     0
  0
ENDTAB
  0
TABLE
  2
APPID
 70
     9
  0
APPID
  2
ACAD
 70
     0
  0
APPID
  2
ACAD_MLEADERVER
 70
     0
  0
APPID
  2
ACAD_EXEMPT_FROM_CAD_STANDARDS
 70
     0
  0
APPID
  2
ACAD_NAV_VCDISPLAY
 70
     0
  0
APPID
  2
ACAECLAYERSTANDARD
 70
     0
  0
APPID
  2
ACCMTRANSPARENCY
 70
     0
  0
APPID
  2
ACAD_DSTYLE_DIMJAG
 70
     0
  0
APPID
  2
ACAD_DSTYLE_DIMTALN
 70
     0
  0
APPID
  2
ACDBATTR
 70
     0
  0
ENDTAB
  0
TABLE
  2
DIMSTYLE
 70
     1
  0
DIMSTYLE
  2
STANDARD
 70
     0
  3

  4

  5

  6

  7

 40
1.0
 41
0.1875
 42
0.0625
 43
0.38
 44
0.125
 45
0.0
 46
0.0
 47
0.01
 48
0.01
140
0.15625
141
0.09
142
0.0
143
25.3999999999999986
144
1.0
145
0.0
146
1.0
147
0.09
 71
     1
 72
     0
 73
     1
 74
     1
 75
     0
 76
     0
 77
     0
 78
     4
170
     0
171
     2
172
     0
173
     0
174
     0
175
     0
176
     0
177
     0
178
     0
  0
ENDTAB
  0
ENDSEC
  0
SECTION
  2
BLOCKS
  0
BLOCK
  8
0
  2
$MODEL_SPACE
 70
     0
 10
0.0
 20
0.0
 30
0.0
  3
$MODEL_SPACE
  1

  0
ENDBLK
  5
21
  8
0
  0
BLOCK
 67
     1
  8
0
  2
$PAPER_SPACE
 70
     0
 10
0.0
 20
0.0
 30
0.0
  3
$PAPER_SPACE
  1

  0
ENDBLK
  5
1D
 67
     1
  8
0
  0
BLOCK
  8
0
  2
_FILLED
 70
     0
 10
0.0
 20
0.0
 30
0.0
  3
_FILLED
  1

  0
SOLID
  5
A5FC
  8
0
  6
BYBLOCK
 62
     0
 10
0.0
 20
0.0
 30
0.0
 11
-1.0
 21
0.1666666667
 31
0.0
 12
-1.0
 22
-0.1666666667
 32
0.0
 13
-1.0
 23
-0.1666666667
 33
0.0
  0
ENDBLK
  5
A5FD
  8
0
  6
BYBLOCK
 62
     0
  0
BLOCK
  8
0
  2
A$C854D2D05
 70
     0
 10
0.0
 20
0.0
 30
0.0
  3
A$C854D2D05
  1

  0
LINE
  5
B163
  8
0
 10
62.5802977659767521
 20
37.7171134218237114
 30
0.0
 11
18.6072977659767389
 21
37.7171134218237114
 31
0.0
  0
LINE
  5
B164
  8
0
 10
18.6072977659767389
 20
37.7171134218237114
 30
0.0
 11
18.6072977659767389
 21
37.7951134218237215
 31
0.0
  0
LINE
  5
B165
  8
0
 10
19.0500019798767504
 20
37.7951134218237215
 30
0.0
 11
18.2812977659767206
 21
37.7951134218237215
 31
0.0
  0
LINE
  5
B166
  8
0
 10
18.2812977659767206
 20
37.7951134218237215
 30
0.0
 11
18.2812977659767206
 21
38.712613421823697
 31
0.0
  0
LINE
  5
B167
  8
0
 10
18.2812977659767206
 20
38.7707466213237169
 30
0.0
 11
18.2812977659767206
 21
39.0576134218237314
 31
0.0
  0
LINE
  5
B168
  8
0
 10
18.2812977659767206
 20
39.557613421823703
 30
0.0
 11
18.2812977659767206
 21
116.1167612742200959
 31
0.0
  0
LINE
  5
B169
  8
0
 10
19.0500019798767504
 20
37.7951134218237215
 30
0.0
 11
19.0500019798767504
 21
116.0411134220236988
 31
0.0
  0
LINE
  5
B16A
  8
0
 10
19.0138765534062983
 20
116.1211134220236971
 30
0.0
 11
18.284091427576751
 21
116.1211134220236971
 31
0.0
  0
LINE
  5
B16B
  8
0
 10
19.0552977659767215
 20
116.0411134220236988
 30
0.0
 11
18.2812977659767206
 21
116.0411134220236988
 31
0.0
  0
LINE
  5
B16C
  8
0
 10
19.0552977659767215
 20
116.0411134220236988
 30
0.0
 11
19.0538521864864414
 21
116.0825094019099026
 31
0.0
  0
ARC
  5
B16D
  8
0
 10
19.0138765534062486
 20
116.0811134220237051
 30
0.0
 40
0.04
 50
2.0000000260387938
 51
89.9999999999869686
  0
LINE
  5
B16E
  8
0
 10
18.3009487178749204
 20
116.0040334726237035
 30
0.0
 11
18.3412977659767193
 21
116.0033291774236943
 31
0.0
  0
LINE
  5
B16F
  8
0
 10
18.284091427576751
 20
116.1211134220236971
 30
0.0
 11
18.2812977659767206
 21
116.0411134220236988
 31
0.0
  0
ARC
  5
B170
  8
0
 10
18.3012977659766989
 20
116.0240304265273039
 30
0.0
 40
0.02
 50
179.9999999999787974
 51
269.0000000772046747
  0
LINE
  5
B171
  8
0
 10
18.301646814108441
 20
116.1367582281231989
 30
0.0
 11
18.6002977659767303
 21
116.131545256323605
 31
0.0
  0
ARC
  5
B172
  8
0
 10
18.3012977659767486
 20
116.1167612742200959
 30
0.0
 40
0.02
 50
88.9999999916071971
 51
180.0
  0
LINE
  5
B173
  8
0
 10
18.2812977659767206
 20
38.7707466213237169
 30
0.0
 11
18.3412977659767193
 21
38.7738910881236905
 31
0.0
  0
LINE
  5
B174
  8
0
 10
18.2812977659767206
 20
38.712613421823697
 30
0.0
 11
18.3412977659767193
 21
38.712613421823697
 31
0.0
  0
LINE
  5
B175
  8
0
 10
18.3412977659767193
 20
37.7951134218237215
 30
0.0
 11
18.3412977659767193
 21
116.0411134220236988
 31
0.0
  0
ARC
  5
B176
  8
0
 10
18.5802977659766917
 20
116.1118913111236992
 30
0.0
 40
0.0200000000000094
 50
27.4584693396840507
 51
88.9999999920730147
  0
LINE
  5
B177
  8
0
 10
18.6002977659767303
 20
116.1211134220236971
 30
0.0
 11
18.6002977659767303
 21
119.3251665047236969
 31
0.0
  0
LINE
  5
B178
  8
0
 10
18.6631589365767283
 20
116.1211134220236971
 30
0.0
 11
18.6631589365767283
 21
119.2612357262237026
 31
0.0
  0
LINE
  5
B179
  8
0
 10
18.2717704147767108
 20
39.0576134218237314
 30
0.0
 11
18.3412977659767193
 21
39.0576134218237314
 31
0.0
  0
LINE
  5
B17A
  8
0
 10
18.2717704147767108
 20
39.0576134218237314
 30
0.0
 11
18.2717704147767108
 21
39.557613421823703
 31
0.0
  0
LINE
  5
B17B
  8
0
 10
18.2717704147767108
 20
39.557613421823703
 30
0.0
 11
18.3412977659767193
 21
39.557613421823703
 31
0.0
  0
LINE
  5
B17C
  8
0
 10
18.3412977659767193
 20
39.051555045923692
 30
0.0
 11
18.2812977659767206
 21
39.0505168418237432
 31
0.0
  0
LINE
  5
B17D
  8
0
 10
18.3412977659767193
 20
39.0355580919237184
 30
0.0
 11
18.2812977659767206
 21
39.0345198879237216
 31
0.0
  0
LINE
  5
B17E
  8
0
 10
18.3412977659767193
 20
39.0296967606552201
 30
0.0
 11
18.2812977659767206
 21
39.0286585566236965
 31
0.0
  0
LINE
  5
B17F
  8
0
 10
18.3412977659767193
 20
38.8686607257237213
 30
0.0
 11
18.2812977659767206
 21
38.8676134218237266
 31
0.0
  0
LINE
  5
B180
  8
0
 10
18.3412977659767193
 20
38.8846582889237311
 30
0.0
 11
18.2812977659767206
 21
38.8836109850237222
 31
0.0
  0
LINE
  5
B181
  8
0
 10
18.3412977659767193
 20
38.9584872088457814
 30
0.0
 11
18.2812977659767206
 21
38.9584872088457814
 31
0.0
  0
LINE
  5
B182
  8
0
 10
18.3412977659767193
 20
38.9740661179237122
 30
0.0
 11
18.2812977659767206
 21
38.9751134218237212
 31
0.0
  0
LINE
  5
B183
  8
0
 10
18.3412977659767193
 20
39.5636717977236572
 30
0.0
 11
18.2812977659767206
 21
39.5647100018237268
 31
0.0
  0
LINE
  5
B184
  8
0
 10
18.3412977659767193
 20
39.5796687517237373
 30
0.0
 11
18.2812977659767206
 21
39.5807069558237004
 31
0.0
  0
LINE
  5
B185
  8
0
 10
18.3412977659767193
 20
39.585530083092209
 30
0.0
 11
18.2812977659767206
 21
39.586568287123761
 31
0.0
  0
LINE
  5
B186
  8
0
 10
18.3412977659767193
 20
39.6411607257237222
 30
0.0
 11
18.2812977659767206
 21
39.6401134218237203
 31
0.0
  0
LINE
  5
B187
  8
0
 10
18.3412977659767193
 20
39.6571582889237106
 30
0.0
 11
18.2812977659767206
 21
39.6561109850237301
 31
0.0
  0
LINE
  5
B188
  8
0
 10
18.3412977659767193
 20
39.8376134218237112
 30
0.0
 11
18.2812977659767206
 21
39.8376134218237112
 31
0.0
  0
LINE
  5
B189
  8
0
 10
18.3412977659767193
 20
39.7465661179237202
 30
0.0
 11
18.2812977659767206
 21
39.7476134218237291
 31
0.0
  0
LINE
  5
B18A
  8
0
 10
18.3412977659767193
 20
39.7305685548237193
 30
0.0
 11
18.2812977659767206
 21
39.7316158587237283
 31
0.0
  0
LINE
  5
B18B
  8
0
 10
18.3412977659767193
 20
115.9381134220237044
 30
0.0
 11
18.2812977659767206
 21
115.9381134220237044
 31
0.0
  0
LINE
  5
B18C
  8
0
 10
62.5802977659767521
 20
37.7171134218237114
 30
0.0
 11
62.5802977659767521
 21
37.7951134218237215
 31
0.0
  0
LINE
  5
B18D
  8
0
 10
62.1375935520767371
 20
37.7951134218237215
 30
0.0
 11
62.9062977659766602
 21
37.7951134218237215
 31
0.0
  0
LINE
  5
B18E
  8
0
 10
62.9062977659766602
 20
37.7951134218237215
 30
0.0
 11
62.9062977659766602
 21
38.712613421823697
 31
0.0
  0
LINE
  5
B18F
  8
0
 10
62.9062977659766602
 20
38.7707466213237169
 30
0.0
 11
62.9062977659767668
 21
39.0576134218237314
 31
0.0
  0
LINE
  5
B190
  8
0
 10
62.9062977659766602
 20
39.557613421823703
 30
0.0
 11
62.9062977659766602
 21
116.1167612742200959
 31
0.0
  0
LINE
  5
B191
  8
0
 10
62.1375935520767371
 20
37.7951134218237215
 30
0.0
 11
62.1375935520767371
 21
116.0411134220236988
 31
0.0
  0
LINE
  5
B192
  8
0
 10
62.1737189785471784
 20
116.1211134220236971
 30
0.0
 11
62.9035041043766725
 21
116.1211134220236971
 31
0.0
  0
LINE
  5
B193
  8
0
 10
62.1322977659766593
 20
116.0411134220236988
 30
0.0
 11
62.9062977659766602
 21
116.0411134220236988
 31
0.0
  0
LINE
  5
B194
  8
0
 10
62.1322977659766593
 20
116.0411134220236988
 30
0.0
 11
62.1337433454669892
 21
116.0825094019099026
 31
0.0
  0
ARC
  5
B195
  8
0
 10
62.1737189785471784
 20
116.0811134220237051
 30
0.0
 40
0.04
 50
90.0000000000097771
 51
177.9999999739611951
  0
LINE
  5
B196
  8
0
 10
62.8866468140785102
 20
116.0040334726237035
 30
0.0
 11
62.8462977659767219
 21
116.0033291774236943
 31
0.0
  0
LINE
  5
B197
  8
0
 10
62.9035041043766725
 20
116.1211134220236971
 30
0.0
 11
62.9062977659767668
 21
116.0411134220236988
 31
0.0
  0
ARC
  5
B198
  8
0
 10
62.8862977659766784
 20
116.0240304265273039
 30
0.0
 40
0.02
 50
270.9999999227919716
 51
0.0000000000195413
  0
LINE
  5
B199
  8
0
 10
62.8859487178450465
 20
116.1367582281231989
 30
0.0
 11
61.9369487178449774
 21
116.1201933713671934
 31
0.0
  0
ARC
  5
B19A
  8
0
 10
62.8862977659766784
 20
116.1167612742200959
 30
0.0
 40
0.02
 50
0.0
 51
91.0000000083895344
  0
LINE
  5
B19B
  8
0
 10
62.9062977659766602
 20
38.7707466213237169
 30
0.0
 11
62.8462977659767219
 21
38.7738910881236905
 31
0.0
  0
LINE
  5
B19C
  8
0
 10
62.9062977659766602
 20
38.712613421823697
 30
0.0
 11
62.8462977659767219
 21
38.712613421823697
 31
0.0
  0
LINE
  5
B19D
  8
0
 10
62.8462977659767219
 20
37.7951134218237215
 30
0.0
 11
62.8462977659767219
 21
116.0411134220236988
 31
0.0
  0
ARC
  5
B19E
  8
0
 10
62.6072977659766821
 20
116.1118913111236992
 30
0.0
 40
0.0200000000000094
 50
91.0000000079302538
 51
152.5415306603159138
  0
LINE
  5
B19F
  8
0
 10
62.5872977659767002
 20
116.131545256323605
 30
0.0
 11
62.5872977659767002
 21
119.3625333238236976
 31
0.0
  0
LINE
  5
B1A0
  8
0
 10
62.5244365953767485
 20
116.1304480105002028
 30
0.0
 11
62.5244365953767485
 21
119.3000333238236976
 31
0.0
  0
LINE
  5
B1A1
  8
0
 10
62.9158251171767233
 20
39.0576134218237314
 30
0.0
 11
62.8462977659767219
 21
39.0576134218237314
 31
0.0
  0
LINE
  5
B1A2
  8
0
 10
62.9158251171767233
 20
39.0576134218237314
 30
0.0
 11
62.9158251171767233
 21
39.557613421823703
 31
0.0
  0
LINE
  5
B1A3
  8
0
 10
62.9158251171767233
 20
39.557613421823703
 30
0.0
 11
62.8462977659767219
 21
39.557613421823703
 31
0.0
  0
LINE
  5
B1A4
  8
0
 10
62.8462977659767219
 20
39.051555045923692
 30
0.0
 11
62.9062977659766602
 21
39.0505168418237432
 31
0.0
  0
LINE
  5
B1A5
  8
0
 10
62.8462977659767219
 20
39.0355580919237184
 30
0.0
 11
62.9062977659766602
 21
39.0345198879237216
 31
0.0
  0
LINE
  5
B1A6
  8
0
 10
62.8462977659767219
 20
39.0296967606552201
 30
0.0
 11
62.9062977659766602
 21
39.0286585566236965
 31
0.0
  0
LINE
  5
B1A7
  8
0
 10
62.8462977659767219
 20
38.8686607257237213
 30
0.0
 11
62.9062977659766602
 21
38.8676134218237266
 31
0.0
  0
LINE
  5
B1A8
  8
0
 10
62.8462977659767219
 20
38.8846582889237311
 30
0.0
 11
62.9062977659766602
 21
38.8836109850237222
 31
0.0
  0
LINE
  5
B1A9
  8
0
 10
62.8462977659767219
 20
38.9584872088457814
 30
0.0
 11
62.9062977659766602
 21
38.9584872088457814
 31
0.0
  0
LINE
  5
B1AA
  8
0
 10
62.8462977659767219
 20
38.9740661179237122
 30
0.0
 11
62.9062977659766602
 21
38.9751134218237212
 31
0.0
  0
LINE
  5
B1AB
  8
0
 10
62.8462977659767219
 20
39.5636717977236572
 30
0.0
 11
62.9062977659766602
 21
39.5647100018237268
 31
0.0
  0
LINE
  5
B1AC
  8
0
 10
62.8462977659767219
 20
39.5796687517237373
 30
0.0
 11
62.9062977659766602
 21
39.5807069558237004
 31
0.0
  0
LINE
  5
B1AD
  8
0
 10
62.8462977659767219
 20
39.585530083092209
 30
0.0
 11
62.9062977659766602
 21
39.586568287123761
 31
0.0
  0
LINE
  5
B1AE
  8
0
 10
62.8462977659767219
 20
39.6411607257237222
 30
0.0
 11
62.9062977659766602
 21
39.6401134218237203
 31
0.0
  0
LINE
  5
B1AF
  8
0
 10
62.8462977659767219
 20
39.6571582889237106
 30
0.0
 11
62.9062977659766602
 21
39.6561109850237301
 31
0.0
  0
LINE
  5
B1B0
  8
0
 10
62.8462977659767219
 20
39.8376134218237112
 30
0.0
 11
62.9062977659766602
 21
39.8376134218237112
 31
0.0
  0
LINE
  5
B1B1
  8
0
 10
62.8462977659767219
 20
39.7465661179237202
 30
0.0
 11
62.9062977659766602
 21
39.7476134218237291
 31
0.0
  0
LINE
  5
B1B2
  8
0
 10
62.8462977659767219
 20
39.7305685548237193
 30
0.0
 11
62.9062977659766602
 21
39.7316158587237283
 31
0.0
  0
LINE
  5
B1B3
  8
0
 10
62.8462977659767219
 20
115.9381134220237044
 30
0.0
 11
62.9062977659766602
 21
115.9381134220237044
 31
0.0
  0
LINE
  5
B1B4
  8
0
 10
62.1375935520767371
 20
38.7611134218237225
 30
0.0
 11
19.0500019798767504
 21
38.7611134218237225
 31
0.0
  0
LINE
  5
B1B5
  8
0
 10
44.10029776597667
 20
38.7611134218237083
 30
0.0
 11
44.10029776597667
 21
119.3251665047236969
 31
0.0
  0
LINE
  5
B1B6
  8
0
 10
44.0374365953766684
 20
38.7611134218237083
 30
0.0
 11
44.0374365953766684
 21
119.2612357262237026
 31
0.0
  0
LINE
  5
B1B7
  8
0
 10
62.5244365953767485
 20
119.3000333238236976
 30
0.0
 11
44.10029776597667
 21
119.3000333238236976
 31
0.0
  0
LINE
  5
B1B8
  8
0
 10
61.9369487178446434
 20
113.1540334726242065
 30
0.0
 11
62.1375935520767371
 21
113.150531203981302
 31
0.0
  0
LINE
  5
B1B9
  8
0
 10
61.9172977659767412
 20
116.1001964174641046
 30
0.0
 11
61.9172977659767412
 21
113.1740304265272954
 31
0.0
  0
ARC
  5
B1BA
  8
0
 10
61.937297765976723
 20
116.1001964174641046
 30
0.0
 40
0.02
 50
91.0000000084221341
 51
180.0000000000194973
  0
ARC
  5
B1BB
  8
0
 10
61.937297765976723
 20
113.1740304265272954
 30
0.0
 40
0.02
 50
180.0000000000194973
 51
268.9999999903042749
  0
LINE
  5
B1BC
  8
0
 10
61.9172977659766772
 20
113.3691134220237018
 30
0.0
 11
44.10029776597667
 21
113.3691134220237018
 31
0.0
  0
LINE
  5
B1BD
  8
0
 10
61.9172977659766772
 20
115.9151134220236941
 30
0.0
 11
44.10029776597667
 21
115.9151134220236941
 31
0.0
  0
LINE
  5
B1BE
  8
0
 10
44.0374365953766684
 20
119.2612357262237026
 30
0.0
 11
44.10029776597667
 21
119.3251665047236969
 31
0.0
  0
LINE
  5
B1BF
  8
0
 10
44.0374365953766684
 20
119.2612357262237026
 30
0.0
 11
18.6631589365767283
 21
119.2612357262237026
 31
0.0
  0
LINE
  5
B1C0
  8
0
 10
62.5872977659767002
 20
119.3625333238236976
 30
0.0
 11
37.0872977659767002
 21
119.3625333238236976
 31
0.0
  0
LINE
  5
B1C1
  8
0
 10
62.5244365953767485
 20
119.3000333238236976
 30
0.0
 11
62.5872977659767002
 21
119.3625333238236976
 31
0.0
  0
LINE
  5
B1C2
  8
0
 10
44.10029776597667
 20
119.3251665047236969
 30
0.0
 11
18.6002977659767303
 21
119.3251665047236969
 31
0.0
  0
LINE
  5
B1C3
  8
0
 10
37.0872977659767002
 20
119.3625333238236976
 30
0.0
 11
37.0872977659767002
 21
119.3251665047236969
 31
0.0
  0
LINE
  5
B1C4
  8
0
 10
18.6631589365767283
 20
119.2612357262237026
 30
0.0
 11
18.6002977659767303
 21
119.3251665047236969
 31
0.0
  0
CIRCLE
  5
B1C5
  8
0
 10
20.60030717927674
 20
116.5713119956237023
 30
0.0
 40
0.9381757812926885
  0
CIRCLE
  5
B1C6
  8
0
 10
20.60030717927674
 20
116.5713119956237023
 30
0.0
 40
0.8971380783999975
  0
CIRCLE
  5
B1C7
  8
0
 10
42.100297553376663
 20
116.5707425913236932
 30
0.0
 40
0.9381757812926885
  0
CIRCLE
  5
B1C8
  8
0
 10
42.100297553376663
 20
116.5707425913236932
 30
0.0
 40
0.8971380783999975
  0
CIRCLE
  5
B1C9
  8
0
 10
58.8372977659767287
 20
75.6745333237236935
 30
0.0
 40
0.3945247403998919
  0
CIRCLE
  5
B1CA
  8
0
 10
58.8372977659767287
 20
75.6745333237236935
 30
0.0
 40
0.37452472617169
  0
LINE
  5
B1CB
  8
0
 10
20.4006209071124509
 20
75.1903369076237169
 30
0.0
 11
20.4006209071124509
 21
76.0703369076237124
 31
0.0
  0
LINE
  5
B1CC
  8
0
 10
20.4006209071124509
 20
76.0703369076237124
 30
0.0
 11
42.2999743928420031
 21
76.0703369076237124
 31
0.0
  0
LINE
  5
B1CD
  8
0
 10
42.2999743928420031
 20
76.0703369076237124
 30
0.0
 11
42.2999743928420031
 21
75.1903369076237169
 31
0.0
  0
LINE
  5
B1CE
  8
0
 10
42.2999743928420031
 20
75.1903369076237169
 30
0.0
 11
20.4006209071124509
 21
75.1903369076237169
 31
0.0
  0
LINE
  5
B1CF
  8
0
 10
20.4006209071124509
 20
75.1903369076237169
 30
0.0
 11
20.3503053796124398
 21
75.2403629916236838
 31
0.0
  0
LINE
  5
B1D0
  8
0
 10
20.3503053796124398
 20
75.2403629916236838
 30
0.0
 11
20.3502952405124695
 21
76.0202779848236929
 31
0.0
  0
LINE
  5
B1D1
  8
0
 10
20.3502952405124695
 20
76.0202779848236929
 30
0.0
 11
20.4006209071124509
 21
76.0703369076237124
 31
0.0
  0
LINE
  5
B1D2
  8
0
 10
42.2999743928420031
 20
75.1903369076237169
 30
0.0
 11
42.350289920342
 21
75.2403629916236838
 31
0.0
  0
LINE
  5
B1D3
  8
0
 10
42.350289920342
 20
75.2403629916236838
 30
0.0
 11
42.3503000594419916
 21
76.0202779848236929
 31
0.0
  0
LINE
  5
B1D4
  8
0
 10
42.3503000594419916
 20
76.0202779848236929
 30
0.0
 11
42.2999743928420031
 21
76.0703369076237124
 31
0.0
  0
LINE
  5
B1D5
  8
0
 10
37.124664748541818
 20
119.3251665047236969
 30
0.0
 11
37.0872977659767002
 21
119.3625333238236976
 31
0.0
  0
LINE
  5
B1D6
  8
0
 10
40.5937977659767171
 20
37.7171134218237114
 30
0.0
 11
-0.0000002788318625
 21
-0.0000000124735209
 31
0.0
  0
ENDBLK
  5
B1DA
  8
0
  0
ENDSEC
  0
SECTION
  2
ENTITIES
  0
ATTDEF
  5
3930
  8
DEFPOINTS
 10
5364.387914648133119
 20
238.5393500907154873
 30
0.0
 40
0.001
  1
K-702430-L
  3

  2
MODELNUMBER
 70
     0
1001
ACDBATTR
1070
     0
1070
     1
  0
ATTDEF
  5
3931
  8
DEFPOINTS
 10
5364.387914648133119
 20
238.5376834240489075
 30
0.0
 40
0.001
  1
KOHLER
  3

  2
BRANDNAME
 70
     0
1001
ACDBATTR
1070
     0
1070
     1
  0
ATTDEF
  5
3932
  8
DEFPOINTS
 10
5364.387914648133119
 20
238.5360167573822139
 30
0.0
 40
0.001
  1
SHOWER DOOR
  3

  2
PRODUCT
 70
     0
1001
ACDBATTR
1070
     0
1070
     1
  0
LINE
  5
C453
  8
0
 10
5336.080367983891847
 20
241.7105332844861039
 30
0.0
 11
5336.080367983891847
 21
238.2196664849363117
 31
0.0
  0
LINE
  5
C454
  8
0
 10
5336.6984069538921176
 20
238.2196664849363117
 30
0.0
 11
5336.080367983891847
 21
238.2196664849363117
 31
0.0
  0
LINE
  5
C455
  8
0
 10
5336.6984069538921176
 20
238.859666484936298
 30
0.0
 11
5336.080367983891847
 21
238.859666484936298
 31
0.0
  0
LINE
  5
C456
  8
0
 10
5336.8543679838921889
 20
238.7497895549363136
 30
0.0
 11
5336.8543679838921889
 21
238.324771114796107
 31
0.0
  0
ARC
  5
C457
  8
0
 10
5336.7005727373416448
 20
238.5612728378561087
 30
0.0
 40
0.3416132183817347
 50
269.6367497634466872
 51
277.128489146873676
  0
ARC
  5
C458
  8
0
 10
5336.7151611160506945
 20
238.4431919784236982
 30
0.0
 40
0.222634809618232
 50
277.1741987094362116
 51
287.3386526596175941
  0
ARC
  5
C459
  8
0
 10
5336.7442415462419376
 20
238.3500468315830005
 30
0.0
 40
0.1250556632804092
 50
287.3386526596175941
 51
306.394555513040018
  0
ARC
  5
C45A
  8
0
 10
5336.7692695525911404
 20
238.3160929150824927
 30
0.0
 40
0.0828742746402176
 50
306.394555513040018
 51
331.798796285404876
  0
ARC
  5
C45B
  8
0
 10
5336.7570467982332048
 20
238.3226470290829866
 30
0.0
 40
0.096743381837054
 50
331.798796285404876
 51
349.2568542875491744
  0
ARC
  5
C45C
  8
0
 10
5336.7146058555927084
 20
238.3303269307660059
 30
0.0
 40
0.139872511944489
 50
349.4067678620194215
 51
357.7235800898343996
  0
LINE
  5
C45D
  8
0
 10
5336.080367983891847
 20
238.4106836777033038
 30
0.0
 11
5336.0708406626918077
 21
238.3330898730862089
 31
0.0
  0
ARC
  5
C45E
  8
0
 10
5336.0868406326917466
 20
238.3321110268362872
 30
0.0
 40
0.0160000000000278
 50
180.1109528369937038
 51
246.1376611440825002
  0
ARC
  5
C45F
  8
0
 10
5336.1947817857917471
 20
238.8296650013363092
 30
0.0
 40
0.1224999999999785
 50
159.0656155100172953
 51
200.9343844899827047
  0
ARC
  5
C460
  8
0
 10
5336.7005727373416448
 20
238.518060132016501
 30
0.0
 40
0.3416132183817347
 50
82.8715108531263667
 51
90.3632502365532559
  0
ARC
  5
C461
  8
0
 10
5336.7151611160506945
 20
238.6361409914489116
 30
0.0
 40
0.222634809618232
 50
72.6613473403823491
 51
82.8258012905637884
  0
ARC
  5
C462
  8
0
 10
5336.7442415462419376
 20
238.7292861382896092
 30
0.0
 40
0.1250556632804092
 50
53.6054444869600388
 51
72.6613473403823491
  0
ARC
  5
C463
  8
0
 10
5336.7692695525911404
 20
238.7632400547900886
 30
0.0
 40
0.0828742746402176
 50
28.2012037145937207
 51
53.6054444869600388
  0
ARC
  5
C464
  8
0
 10
5336.7570467982332048
 20
238.7566859407895095
 30
0.0
 40
0.096743381837054
 50
10.7431457124507705
 51
28.2012037145937207
  0
ARC
  5
C465
  8
0
 10
5336.7249764985454021
 20
238.750558538181906
 30
0.0
 40
0.1293937703886354
 50
359.6594909189500981
 51
10.7616961617766993
  0
ARC
  5
C466
  8
0
 10
5336.1003679840869154
 20
238.9118936320163016
 30
0.0
 40
0.0200000002248522
 50
180.0
 51
271.0000714703714948
  0
LINE
  5
C467
  8
0
 10
5336.1007170571638198
 20
238.8918966783236897
 30
0.0
 11
5336.3795133478843127
 21
238.8967630857648885
 31
0.0
  0
ARC
  5
C468
  8
0
 10
5336.3793664428440024
 20
238.9167640873282039
 30
0.0
 40
0.0200015410561701
 50
270.4208232914268137
 51
359.9985896525433873
  0
LINE
  5
C469
  8
0
 10
5336.3993679838931712
 20
238.9167635949860937
 30
0.0
 11
5336.3993679838931712
 21
239.3978875387861081
 31
0.0
  0
ARC
  5
C46A
  8
0
 10
5337.0493687931029854
 20
240.5341942787563028
 30
0.0
 40
0.0199983525693022
 50
359.9953197797033795
 51
89.0022361725547455
  0
LINE
  5
C46B
  8
0
 10
5337.0497170320923033
 20
240.5541895990861008
 30
0.0
 11
5336.4190189357177587
 21
240.5651984753837098
 31
0.0
  0
LINE
  5
C46C
  8
0
 10
5336.3993679838931712
 20
240.5851954291860864
 30
0.0
 11
5336.3993679838931712
 21
240.916319372986095
 31
0.0
  0
ARC
  5
C46D
  8
0
 10
5336.3793679838918251
 20
240.916319372986095
 30
0.0
 40
0.0200000000000087
 50
0.0000000000195413
 51
87.598936564176384
  0
LINE
  5
C46E
  8
0
 10
5336.3802058678502362
 20
240.9363018140400072
 30
0.0
 11
5336.1009165191480861
 21
240.9411828079265945
 31
0.0
  0
ARC
  5
C46F
  8
0
 10
5336.1003706931123816
 20
240.9211863686533945
 30
0.0
 40
0.020003887363862
 50
88.4364333984184441
 51
179.3781544341051131
  0
ARC
  5
C470
  8
0
 10
5336.4193679838917888
 20
240.5851954292861024
 30
0.0
 40
0.0199999999999925
 50
180.0000002865035071
 51
268.9999998710840146
  0
LINE
  5
C471
  8
0
 10
5336.080367983891847
 20
241.7105332844861039
 30
0.0
 11
5336.3806658233452254
 21
241.6947953468371963
 31
0.0
  0
ARC
  5
C472
  8
0
 10
5336.37736869649234
 20
241.6318823977094041
 30
0.0
 40
0.0629992874042944
 50
359.9993811320856025
 51
87.0000009970827648
  0
LINE
  5
C473
  8
0
 10
5336.44036798389061
 20
241.6318817172362969
 30
0.0
 11
5336.4403555016442624
 21
240.5648260442376056
 31
0.0
  0
ARC
  5
C474
  8
0
 10
5336.1824226166354492
 20
238.8311664853777927
 30
0.0
 40
0.0320546324337371
 50
90.9999999467630829
 51
117.2387476976882965
  0
LINE
  5
C475
  8
0
 10
5336.1818631861906397
 20
238.8632162357363029
 30
0.0
 11
5336.3794374569642969
 21
238.8666649072771122
 31
0.0
  0
ARC
  5
C476
  8
0
 10
5336.3773109430821933
 20
238.9297280567525092
 30
0.0
 40
0.0630989927260863
 50
271.931304143736611
 51
328.0938932148479239
  0
LINE
  5
C477
  8
0
 10
5336.8543679838921889
 20
238.734666484936298
 30
0.0
 11
5337.738050011004816
 21
238.734666484936298
 31
0.0
  0
LINE
  5
C478
  8
0
 10
5336.4063679838918688
 20
238.8737111673667073
 30
0.0
 11
5336.4063679838918688
 21
238.859666484936298
 31
0.0
  0
LINE
  5
C479
  8
0
 10
5336.8543679838921889
 20
238.3346664849362924
 30
0.0
 11
5337.491893134349084
 21
238.3346664849362924
 31
0.0
  0
LINE
  5
C47A
  8
0
 10
5339.3068914339492039
 20
238.3346664849362924
 30
0.0
 11
5339.5243680138919444
 21
238.3346664849362924
 31
0.0
  0
LINE
  5
C47B
  8
0
 10
5340.2743680138919444
 20
238.3346664849362924
 30
0.0
 11
5363.5243680138919444
 21
238.3346664849362924
 31
0.0
  0
LINE
  5
C47C
  8
0
 10
5364.2743680138919444
 20
238.3346664849362071
 30
0.0
 11
5364.4918918698185735
 21
238.3346664849362924
 31
0.0
  0
LINE
  5
C47D
  8
0
 10
5366.3068901694177839
 20
238.3346664849362924
 30
0.0
 11
5391.9313680439918244
 21
238.3346664849362071
 31
0.0
  0
LINE
  5
C47E
  8
0
 10
5339.0608202343992161
 20
238.734666484936298
 30
0.0
 11
5339.5243680138919444
 21
238.734666484936298
 31
0.0
  0
LINE
  5
C47F
  8
0
 10
5340.2743680138919444
 20
238.734666484936298
 30
0.0
 11
5363.5243680138919444
 21
238.734666484936298
 31
0.0
  0
LINE
  5
C480
  8
0
 10
5337.0693679347268699
 20
239.512541483986098
 30
0.0
 11
5337.8474348553490927
 21
239.512541483986098
 31
0.0
  0
LINE
  5
C481
  8
0
 10
5337.069367983891425
 20
239.5825881683362866
 30
0.0
 11
5338.1328679262478545
 21
239.5825881683362866
 31
0.0
  0
LINE
  5
C482
  8
0
 10
5337.069367983891425
 20
239.7834987223363044
 30
0.0
 11
5337.5868997644301999
 21
239.7834987223363044
 31
0.0
  0
LINE
  5
C483
  8
0
 10
5337.069367983891425
 20
240.0115414849362878
 30
0.0
 11
5338.1882940529576445
 21
240.0115414849362878
 31
0.0
  0
LINE
  5
C484
  8
0
 10
5337.069367983891425
 20
240.0185414849362928
 30
0.0
 11
5338.1882940529576445
 21
240.0185414831549906
 31
0.0
  0
LINE
  5
C485
  8
0
 10
5337.069367983891425
 20
240.2335414849362962
 30
0.0
 11
5337.675170588340734
 21
240.2335414849362962
 31
0.0
  0
LINE
  5
C486
  8
0
 10
5337.0693672102179335
 20
240.4505414849363092
 30
0.0
 11
5391.7163680439916789
 21
240.4505414849363092
 31
0.0
  0
LINE
  5
C487
  8
0
 10
5337.0693675709280797
 20
239.9871350752931107
 30
0.0
 11
5338.1882940529576445
 21
239.9871350753309969
 31
0.0
  0
LINE
  5
C488
  8
0
 10
5338.6082940529586267
 20
239.987135075082989
 30
0.0
 11
5365.1890358442369688
 21
239.9871350762443001
 31
0.0
  0
LINE
  5
C489
  8
0
 10
5365.6090358442361321
 20
239.9835414849505071
 30
0.0
 11
5391.7163680439916789
 21
239.9835414860970957
 31
0.0
  0
LINE
  5
C48A
  8
0
 10
5338.9497970600486951
 20
239.5100704424363016
 30
0.0
 11
5364.8481766466284171
 21
239.5100704424363016
 31
0.0
  0
LINE
  5
C48B
  8
0
 10
5338.6643639892490683
 20
239.5825881683362866
 30
0.0
 11
5365.1336097175280884
 21
239.5825881683362866
 31
0.0
  0
LINE
  5
C48C
  8
0
 10
5339.2112025042461028
 20
239.7834987210817133
 30
0.0
 11
5364.5861899916417315
 21
239.7834987223673124
 31
0.0
  0
LINE
  5
C48D
  8
0
 10
5339.1214175051682105
 20
240.2335414849362962
 30
0.0
 11
5350.8649517638423276
 21
240.2335414849362962
 31
0.0
  0
LINE
  5
C48E
  8
0
 10
5351.9489953631982644
 20
240.2335414849362962
 30
0.0
 11
5364.6759133243367614
 21
240.2335414849362962
 31
0.0
  0
LINE
  5
C48F
  8
0
 10
5338.6082940529586267
 20
240.0115414849362026
 30
0.0
 11
5365.1890358442369688
 21
240.0115414849362878
 31
0.0
  0
LINE
  5
C490
  8
0
 10
5365.1890358442369688
 20
240.0185414849362928
 30
0.0
 11
5338.6082940529586267
 21
240.0185414849362928
 31
0.0
  0
ARC
  5
C491
  8
0
 10
5350.8649735642238738
 20
240.483541483985789
 30
0.0
 40
0.2499999999996814
 50
269.9950037204720275
 51
294.4003762019904116
  0
ARC
  5
C492
  8
0
 10
5339.053691292613621
 20
262.9288527698396933
 30
0.0
 40
25.6129035474210198
 50
297.7217440963623858
 51
298.2826307211745984
  0
ARC
  5
C493
  8
0
 10
5351.2506892254477862
 20
240.2648798648413049
 30
0.0
 40
0.1246852319550613
 50
88.8849077064896136
 51
119.3214441276777933
  0
ARC
  5
C494
  8
0
 10
5351.4081405266788352
 20
207.5891284970707886
 30
0.0
 40
32.80077933234233
 50
89.7292045638855313
 51
90.2707954360623575
  0
ARC
  5
C495
  8
0
 10
5351.5625627166709819
 20
240.262034651676089
 30
0.0
 40
0.1275082564245194
 50
63.2362533392820225
 51
89.7292045638855313
  0
ARC
  5
C496
  8
0
 10
5365.2669523798822411
 20
265.7856176745827952
 30
0.0
 40
28.8425801977789185
 50
241.7608000027279047
 51
242.2707040450767977
  0
ARC
  5
C497
  8
0
 10
5351.9489735642237065
 20
240.4835414839859027
 30
0.0
 40
0.2499999999997636
 50
245.8401908406374901
 51
270.0049959568095232
  0
LINE
  5
C498
  8
0
 10
5364.6528446425127186
 20
239.588203995064589
 30
0.0
 11
5366.1452866762938356
 21
239.5882041146577137
 31
0.0
  0
ARC
  5
C499
  8
0
 10
5365.3990529820412121
 20
351.7545347986028901
 30
0.0
 40
111.7947941687960025
 50
269.6175588262823908
 51
270.3824536695548204
  0
ARC
  5
C49A
  8
0
 10
5365.9167743381649416
 20
239.7752173535334066
 30
0.0
 40
0.2952826445827195
 50
320.7032947760285992
 51
39.2968627240037378
  0
ARC
  5
C49B
  8
0
 10
5364.8813564527172275
 20
239.7752178071154958
 30
0.0
 40
0.2952825990478155
 50
140.7032845796925926
 51
219.2968561694700895
  0
ARC
  5
C49C
  8
0
 10
5365.1771859655364096
 20
181.7760295091777891
 30
0.0
 40
58.1885640393695027
 50
89.9883319333884231
 51
90.5163038174219423
  0
ARC
  5
C49D
  8
0
 10
5365.6388022912724409
 20
185.878546387622805
 30
0.0
 40
54.0860563456099115
 50
89.4634511313693253
 51
90.0315329308053833
  0
LINE
  5
C49E
  8
0
 10
5364.0480591327686852
 20
241.3277680048362015
 30
0.0
 11
5364.5113680138920245
 21
241.3277680048362015
 31
0.0
  0
LINE
  5
C49F
  8
0
 10
5365.2613680138920245
 20
241.3277680048362868
 30
0.0
 11
5365.7375313796210321
 21
241.3277680048362868
 31
0.0
  0
LINE
  5
C4A0
  8
0
 10
5365.7678680139415519
 20
241.0825991439363065
 30
0.0
 11
5365.7678680139415519
 21
241.3000790160527913
 31
0.0
  0
LINE
  5
C4A1
  8
0
 10
5364.0472088079595778
 20
241.230330430336295
 30
0.0
 11
5364.5113680138920245
 21
241.230330430336295
 31
0.0
  0
LINE
  5
C4A2
  8
0
 10
5365.2613680138920245
 20
241.230330430336295
 30
0.0
 11
5365.4992228326418626
 21
241.230330430336295
 31
0.0
  0
ARC
  5
C4A3
  8
0
 10
5365.4992228326418626
 20
246.2581533684507065
 30
0.0
 40
5.0278229381143902
 50
270.0
 51
271.4772470870087773
  0
ARC
  5
C4A4
  8
0
 10
5365.6001610295443243
 20
242.3440815993278079
 30
0.0
 40
1.11244986094298
 50
271.4772470870087773
 51
277.6986349530674261
  0
LINE
  5
C4A5
  8
0
 10
5365.7491876781850806
 20
241.2416589258004933
 30
0.0
 11
5365.7678680139415519
 21
241.3000790160527913
 31
0.0
  0
ARC
  5
C4A6
  8
0
 10
5365.737828119686128
 20
241.2976299000220024
 30
0.0
 40
0.0301395656281046
 50
4.6609464222394097
 51
90.5641165581010341
  0
ARC
  5
C4A7
  8
0
 10
5365.7206093750701257
 20
241.0961623097188067
 30
0.0
 40
0.0285767964839341
 50
331.6652826185227809
 51
0.5701912203900125
  0
LINE
  5
C4A8
  8
0
 10
5365.7491876781850806
 20
241.2416589258004933
 30
0.0
 11
5365.7491847564915588
 21
241.0964466931349932
 31
0.0
  0
LINE
  5
C4A9
  8
0
 10
5365.7491847564915588
 20
241.0964466931349932
 30
0.0
 11
5365.7630323056364432
 21
241.0825991439363065
 31
0.0
  0
LINE
  5
C4AA
  8
0
 10
5365.7678680139415519
 20
240.7025991439363111
 30
0.0
 11
5365.7678680139415519
 21
240.4505414849363092
 31
0.0
  0
LINE
  5
C4AB
  8
0
 10
5365.5405806123580987
 20
240.5973497277801982
 30
0.0
 11
5365.540505809141905
 21
240.4882302696786951
 31
0.0
  0
LINE
  5
C4AC
  8
0
 10
5365.5617064492807913
 20
240.4884763773326029
 30
0.0
 11
5365.5622747977422478
 21
240.5416980576362107
 31
0.0
  0
ARC
  5
C4AD
  8
0
 10
5365.5925565952884426
 20
240.5413746816564071
 30
0.0
 40
0.0302835241449681
 50
90.6041705541677658
 51
179.3881679396091045
  0
ARC
  5
C4AE
  8
0
 10
5365.5780545938687283
 20
241.9166033703305914
 30
0.0
 40
1.3450216253392031
 50
270.6041705541676947
 51
273.6048728496550098
  0
ARC
  5
C4AF
  8
0
 10
5365.5859780594400945
 20
241.7908341785908988
 30
0.0
 40
1.219003091394711
 50
273.6048728496550098
 51
275.7562378824359826
  0
ARC
  5
C4B0
  8
0
 10
5365.7031652770174333
 20
240.6283165712544871
 30
0.0
 40
0.0505939030832276
 50
275.7562378824359826
 51
293.7660661544961158
  0
ARC
  5
C4B1
  8
0
 10
5365.1243929914789987
 20
240.7903014825760124
 30
0.0
 40
0.6343334350110096
 50
340.8308647987128097
 51
344.0715883277957232
  0
ARC
  5
C4B2
  8
0
 10
5365.537372738223894
 20
239.9886687677891075
 30
0.0
 40
0.5917210099698575
 50
86.2747460162372874
 51
89.6966263217633468
  0
ARC
  5
C4B3
  8
0
 10
5365.5715053004341826
 20
240.5129002052765088
 30
0.0
 40
0.0663795668559412
 50
77.1886095027334136
 51
86.2747460162372874
  0
ARC
  5
C4B4
  8
0
 10
5365.1572645698370252
 20
240.1396329213268075
 30
0.0
 40
0.6130625093022982
 50
44.8051084999626497
 51
45.5970529865439076
  0
LINE
  5
C4B5
  8
0
 10
5365.503586598966649
 20
240.4880663032363088
 30
0.0
 11
5365.2801475414917149
 21
240.4880663032363088
 31
0.0
  0
LINE
  5
C4B6
  8
0
 10
5364.4925884863923784
 20
240.4880663032363088
 30
0.0
 11
5363.9375491161918035
 21
240.4880663032363088
 31
0.0
  0
ARC
  5
C4B7
  8
0
 10
5365.5040416659176117
 20
244.542359300662298
 30
0.0
 40
4.0542930229650782
 50
269.9935689365516964
 51
270.7126498787177979
  0
ARC
  5
C4B8
  8
0
 10
5365.5040376855713475
 20
244.5430063159398912
 30
0.0
 40
4.0549400377034353
 50
270.712592407083207
 51
270.8148796613950822
  0
LINE
  5
C4B9
  8
0
 10
5364.2743680138919444
 20
238.734666484936298
 30
0.0
 11
5364.738048746475215
 21
238.734666484936298
 31
0.0
  0
LINE
  5
C4BA
  8
0
 10
5366.0608189698677961
 20
238.734666484936298
 30
0.0
 11
5391.9313680439918244
 21
238.734666484936298
 31
0.0
  0
LINE
  5
C4BB
  8
0
 10
5336.8491250272918478
 20
238.7863655914385106
 30
0.0
 11
5336.8491250272918478
 21
238.8655271200362904
 31
0.0
  0
LINE
  5
C4BC
  8
0
 10
5391.9366110005921655
 20
239.0936664849363069
 30
0.0
 11
5391.9366110005921655
 21
238.7863655923887052
 31
0.0
  0
LINE
  5
C4BD
  8
0
 10
5391.9366110005921655
 20
239.0936664849363069
 30
0.0
 11
5367.3993680138919444
 21
239.0936664849363069
 31
0.0
  0
LINE
  5
C4BE
  8
0
 10
5365.95053885132711
 20
239.5100704424363016
 30
0.0
 11
5391.7163680439916789
 21
239.5100704424363016
 31
0.0
  0
LINE
  5
C4BF
  8
0
 10
5365.6651057805283926
 20
239.5825881683362866
 30
0.0
 11
5391.7163680439916789
 21
239.5825881683362866
 31
0.0
  0
LINE
  5
C4C0
  8
0
 10
5366.2119408320668299
 20
239.7834987223363044
 30
0.0
 11
5391.7163680439916789
 21
239.7834987223363044
 31
0.0
  0
LINE
  5
C4C1
  8
0
 10
5365.6090358442361321
 20
240.0185414849362928
 30
0.0
 11
5391.7163680439916789
 21
240.0185414849362928
 31
0.0
  0
LINE
  5
C4C2
  8
0
 10
5391.7163680439916789
 20
240.0115414849362878
 30
0.0
 11
5365.6090358442361321
 21
240.0115414849362878
 31
0.0
  0
LINE
  5
C4C3
  8
0
 10
5366.1221583517217368
 20
240.2335414849362962
 30
0.0
 11
5380.8485852578496633
 21
240.2335414849362962
 31
0.0
  0
LINE
  5
C4C4
  8
0
 10
5381.9596436376323254
 20
240.2335414849362962
 30
0.0
 11
5391.7163680439916789
 21
240.2335414849364099
 31
0.0
  0
ARC
  5
C4C5
  8
0
 10
5380.862114447741078
 20
240.4831751385588063
 30
0.0
 40
0.2499999999996814
 50
266.8978226326241838
 51
294.4003762019904116
  0
ARC
  5
C4C6
  8
0
 10
5369.0508321761308252
 20
262.928486424412597
 30
0.0
 40
25.6129035474210198
 50
297.7217440963623858
 51
298.2826307211745984
  0
ARC
  5
C4C7
  8
0
 10
5381.2478301089640809
 20
240.2645135194142938
 30
0.0
 40
0.1246852319550613
 50
88.8849077064896136
 51
119.3214441276777933
  0
ARC
  5
C4C8
  8
0
 10
5381.4052814101960394
 20
207.588762151643806
 30
0.0
 40
32.80077933234233
 50
89.7292045638855313
 51
90.2707954360623575
  0
ARC
  5
C4C9
  8
0
 10
5381.5597036001881861
 20
240.2616683062491063
 30
0.0
 40
0.1275082564245194
 50
63.2362533392820225
 51
89.7292045638855313
  0
ARC
  5
C4CA
  8
0
 10
5395.2640932633976263
 20
265.7852513291558125
 30
0.0
 40
28.8425801977789185
 50
241.7608000027279047
 51
242.2707040450767977
  0
ARC
  5
C4CB
  8
0
 10
5381.9461144477409107
 20
240.4831751385588063
 30
0.0
 40
0.2499999999997636
 50
245.8401908406374901
 51
273.1021773671670871
  0
LINE
  5
C4CC
  8
0
 10
5392.7053680439921663
 20
241.7105332854362985
 30
0.0
 11
5392.7053680439921663
 21
238.2196664858865063
 31
0.0
  0
LINE
  5
C4CD
  8
0
 10
5392.0873290739918957
 20
238.2196664858865063
 30
0.0
 11
5392.7053680439921663
 21
238.2196664858865063
 31
0.0
  0
LINE
  5
C4CE
  8
0
 10
5392.0873290739918957
 20
238.8596664858864926
 30
0.0
 11
5392.7053680439921663
 21
238.8596664858864926
 31
0.0
  0
LINE
  5
C4CF
  8
0
 10
5391.9313680439918244
 20
238.7497895558865082
 30
0.0
 11
5391.9313680439918244
 21
238.3247711157463016
 31
0.0
  0
ARC
  5
C4D0
  8
0
 10
5392.08516329053964
 20
238.5612728388063033
 30
0.0
 40
0.3416132183817347
 50
262.871510853126324
 51
270.3632502365531991
  0
ARC
  5
C4D1
  8
0
 10
5392.0705749118342283
 20
238.4431919793738928
 30
0.0
 40
0.222634809618232
 50
252.6613473403822923
 51
262.8258012905637884
  0
ARC
  5
C4D2
  8
0
 10
5392.0414944816429852
 20
238.3500468325331951
 30
0.0
 40
0.1250556632804092
 50
233.6054444869600957
 51
252.6613473403822923
  0
ARC
  5
C4D3
  8
0
 10
5392.0164664752928729
 20
238.3160929160326873
 30
0.0
 40
0.0828742746402176
 50
208.2012037145937029
 51
233.6054444869600957
  0
ARC
  5
C4D4
  8
0
 10
5392.0286892296498991
 20
238.3226470300332096
 30
0.0
 40
0.096743381837054
 50
190.7431457124507119
 51
208.2012037145937029
  0
ARC
  5
C4D5
  8
0
 10
5392.0711301722903954
 20
238.3303269317162005
 30
0.0
 40
0.139872511944489
 50
182.2764199101656004
 51
190.5932321379789869
  0
LINE
  5
C4D6
  8
0
 10
5392.7053680439921663
 20
238.4106836786534984
 30
0.0
 11
5392.7148953651922056
 21
238.3330898740362045
 31
0.0
  0
ARC
  5
C4D7
  8
0
 10
5392.6988953951922667
 20
238.3321110277865102
 30
0.0
 40
0.016000000000024
 50
293.8623388559167893
 51
359.8890471568719818
  0
ARC
  5
C4D8
  8
0
 10
5392.5909542420922662
 20
238.8296650022863901
 30
0.0
 40
0.1224999999999785
 50
339.0656155100173237
 51
20.9343844899826905
  0
ARC
  5
C4D9
  8
0
 10
5392.08516329053964
 20
238.5180601329666956
 30
0.0
 40
0.3416132183817347
 50
89.6367497634467441
 51
97.1284891468736475
  0
ARC
  5
C4DA
  8
0
 10
5392.0705749118342283
 20
238.6361409923989925
 30
0.0
 40
0.222634809618232
 50
97.1741987094362258
 51
107.3386526596175941
  0
ARC
  5
C4DB
  8
0
 10
5392.0414944816429852
 20
238.7292861392396901
 30
0.0
 40
0.1250556632804092
 50
107.3386526596175941
 51
126.3945555130399043
  0
ARC
  5
C4DC
  8
0
 10
5392.0164664752928729
 20
238.7632400557403116
 30
0.0
 40
0.0828742746402176
 50
126.3945555130399043
 51
151.7987962854062118
  0
ARC
  5
C4DD
  8
0
 10
5392.0286892296498991
 20
238.756685941739704
 30
0.0
 40
0.096743381837054
 50
151.7987962854062118
 51
169.2568542875492028
  0
ARC
  5
C4DE
  8
0
 10
5392.0607595293386112
 20
238.7505585391321006
 30
0.0
 40
0.1293937703886354
 50
169.2383038382232883
 51
180.3405090810499019
  0
ARC
  5
C4DF
  8
0
 10
5392.6853680439990057
 20
238.9002210213797071
 30
0.0
 40
0.0199999999897077
 50
268.9999282074862208
 51
0.0
  0
LINE
  5
C4E0
  8
0
 10
5392.6850189708147809
 20
238.8802240679241891
 30
0.0
 11
5392.4060190019672518
 21
238.8850943801932942
 31
0.0
  0
ARC
  5
C4E1
  8
0
 10
5392.4063680757062684
 20
238.9050913653715895
 30
0.0
 40
0.0200000317174555
 50
180.0
 51
268.9999282074862208
  0
LINE
  5
C4E2
  8
0
 10
5392.3863680439917516
 20
238.9050913653715895
 30
0.0
 11
5392.3863680439917516
 21
239.3928875386860966
 31
0.0
  0
LINE
  5
C4E3
  8
0
 10
5391.7163680439916789
 20
239.4438903227803905
 30
0.0
 11
5391.7163680439916789
 21
240.5291926451861002
 31
0.0
  0
ARC
  5
C4E4
  8
0
 10
5391.736368043985749
 20
240.5291926451886013
 30
0.0
 40
0.0199999999936942
 50
90.9999998998567605
 51
180.0000000073686977
  0
LINE
  5
C4E5
  8
0
 10
5391.7360189958917545
 20
240.5491895990861053
 30
0.0
 11
5392.3667170778917352
 21
240.5601984484860907
 31
0.0
  0
ARC
  5
C4E6
  8
0
 10
5392.4063659453968285
 20
240.911319337625514
 30
0.0
 40
0.0199999999962975
 50
90.9999999072575463
 51
179.1699764454432966
  0
LINE
  5
C4E7
  8
0
 10
5392.406016897301015
 20
240.9313162915254054
 30
0.0
 11
5392.6850210942820922
 21
240.9361863274471034
 31
0.0
  0
ARC
  5
C4E8
  8
0
 10
5392.6853551183503441
 20
240.9161546974964949
 30
0.0
 40
0.0200344146477787
 50
2.6539717150762629
 51
90.9553431409643593
  0
ARC
  5
C4E9
  8
0
 10
5392.3663679961919115
 20
240.580195449607686
 30
0.0
 40
0.0200000477997588
 50
271.0000937216931902
 51
0.0
  0
LINE
  5
C4EA
  8
0
 10
5392.7053680439921663
 20
241.7105332854362985
 30
0.0
 11
5392.4050702045387879
 21
241.6947953477873057
 31
0.0
  0
ARC
  5
C4EB
  8
0
 10
5392.4083673313925829
 20
241.6318823986595987
 30
0.0
 40
0.0629992874042944
 50
92.9999990029172352
 51
180.0006188679128059
  0
LINE
  5
C4EC
  8
0
 10
5392.3453680439915843
 20
241.6318817181864915
 30
0.0
 11
5392.3453680439915843
 21
241.0610991439361896
 31
0.0
  0
LINE
  5
C4ED
  8
0
 10
5392.3453680439915843
 20
240.7240991439362006
 30
0.0
 11
5392.3453680439915843
 21
240.5598258006126002
 31
0.0
  0
LINE
  5
C4EE
  8
0
 10
5392.3453680439915843
 20
239.4132566967838898
 30
0.0
 11
5392.3453680439915843
 21
238.9296383822193093
 31
0.0
  0
ARC
  5
C4EF
  8
0
 10
5392.6033134112485641
 20
238.8311664863279873
 30
0.0
 40
0.0320546324337371
 50
62.761252302311668
 51
89.0000000532369171
  0
LINE
  5
C4F0
  8
0
 10
5392.6038728416915546
 20
238.8632162366864975
 30
0.0
 11
5392.4062985709197164
 21
238.8666649082273068
 31
0.0
  0
ARC
  5
C4F1
  8
0
 10
5392.408392470740182
 20
238.9296545439758006
 30
0.0
 40
0.0630244288207708
 50
180.0146926614617087
 51
268.0960762891958211
  0
LINE
  5
C4F2
  8
0
 10
5392.3793680439921445
 20
238.8737111683169871
 30
0.0
 11
5392.3793680439921445
 21
238.8596664858864926
 31
0.0
  0
LINE
  5
C4F3
  8
0
 10
5391.9366110005921655
 20
239.0256664849362949
 30
0.0
 11
5392.3453680439915843
 21
239.0256664849362949
 31
0.0
  0
LINE
  5
C4F4
  8
0
 10
5381.2076330114741722
 20
240.3825414839861025
 30
0.0
 11
5381.6002995403796376
 21
240.3825414839861025
 31
0.0
  0
LINE
  5
C4F5
  8
0
 10
5351.2094320994219743
 20
240.3825414839861025
 30
0.0
 11
5351.6042335556712715
 21
240.3825414839861025
 31
0.0
  0
LINE
  5
C4F6
  8
0
 10
5392.7148953651922056
 20
238.3330898740362045
 30
0.0
 11
5392.7148953651922056
 21
238.3320800439275899
 31
0.0
  0
LINE
  5
C4F7
  8
0
 10
5336.0708406626918077
 20
238.3330898730860952
 30
0.0
 11
5336.0708406626918077
 21
238.3320800429767132
 31
0.0
  0
LINE
  5
C4F8
  8
0
 10
5336.4190222335200815
 20
239.4178850353349901
 30
0.0
 11
5337.0497170320923033
 21
239.4288933688860936
 31
0.0
  0
ARC
  5
C4F9
  8
0
 10
5337.0493679996143328
 20
239.4488903073381039
 30
0.0
 40
0.0199999842781289
 50
270.9999559435693186
 51
0.0000442551786714
  0
LINE
  5
C4FA
  8
0
 10
5337.069367983891425
 20
239.4488903227860987
 30
0.0
 11
5337.0693671456047014
 21
240.5341926451858114
 31
0.0
  0
ARC
  5
C4FB
  8
0
 10
5336.4193687757406224
 20
239.3978872458772003
 30
0.0
 40
0.0200007918520368
 50
90.9927807115862066
 51
179.9991609110917068
  0
LINE
  5
C4FC
  8
0
 10
5364.674293185253191
 20
240.0202384087862981
 30
0.0
 11
5364.6763120382811394
 21
240.2860350712309128
 31
0.0
  0
ARC
  5
C4FD
  8
0
 10
5364.6912816471940459
 20
240.2859044332558085
 30
0.0
 40
0.0149701789324701
 50
134.6629836722082985
 51
179.4999993215973859
  0
ARC
  5
C4FE
  8
0
 10
5355.1575775127412271
 20
249.9324288275878985
 30
0.0
 40
13.5477341020625293
 50
314.6629836722083269
 51
314.8510271242926137
  0
ARC
  5
C4FF
  8
0
 10
5364.725809455547278
 20
240.3143109740146031
 30
0.0
 40
0.0191098034501705
 50
103.0988700276395065
 51
134.8510271242932106
  0
ARC
  5
C500
  8
0
 10
5366.1946729266483089
 20
-2421.1422922317651683
 30
0.0
 40
2661.4756235057789127
 50
90.002510706398823
 51
90.0317146710194578
  0
ARC
  5
C501
  8
0
 10
5366.0752390514608123
 20
240.321229248196687
 30
0.0
 40
0.0124209796308889
 50
32.2665290228740176
 51
76.9353553498055618
  0
ARC
  5
C502
  8
0
 10
5366.1067605503722007
 20
240.2859052889218106
 30
0.0
 40
0.0149996461837932
 50
0.4956722043778044
 51
45.2558826325079835
  0
LINE
  5
C503
  8
0
 10
5366.121759635258968
 20
240.2860350509218961
 30
0.0
 11
5366.1237785016728594
 21
240.0202384087862981
 31
0.0
  0
LINE
  5
C504
  8
0
 10
5364.6763120382811394
 20
240.2860350712309128
 30
0.0
 11
5366.121759635258968
 21
240.2860350509218961
 31
0.0
  0
LINE
  5
C505
  8
0
 10
5364.7123319634301879
 20
240.3278587337605927
 30
0.0
 11
5366.0857419069816387
 21
240.3278602934308879
 31
0.0
  0
LINE
  5
C506
  8
0
 10
5365.1890358442369688
 20
240.0202384087862981
 30
0.0
 11
5365.1890358442369688
 21
239.9599378985500948
 31
0.0
  0
LINE
  5
C507
  8
0
 10
5365.6090358442361321
 20
240.0202384087862981
 30
0.0
 11
5365.6090358442361321
 21
239.9599378341652027
 31
0.0
  0
LINE
  5
C508
  8
0
 10
5392.366717091492319
 20
239.4128840321860991
 30
0.0
 11
5391.7360189958917545
 21
239.4238933688860129
 31
0.0
  0
ARC
  5
C509
  8
0
 10
5391.73636804398393
 20
239.4438903227803905
 30
0.0
 40
0.0199999999905378
 50
180.0
 51
269.0000001052508196
  0
ARC
  5
C50A
  8
0
 10
5392.3663688545666446
 20
239.3928878748347131
 30
0.0
 40
0.0199991894280031
 50
359.9990369660779947
 51
89.002283840090783
  0
LINE
  5
C50B
  8
0
 10
5362.4892190672881043
 20
241.6339849720862958
 30
0.0
 11
5362.4488680131880756
 21
241.5936345301861934
 31
0.0
  0
LINE
  5
C50C
  8
0
 10
5362.4488680131880756
 20
241.5936345301861934
 30
0.0
 11
5362.4488680152880988
 21
241.467330774286296
 31
0.0
  0
LINE
  5
C50D
  8
0
 10
5362.4488680152880988
 20
241.467330774286296
 30
0.0
 11
5362.4892185558892379
 21
241.4269803417861908
 31
0.0
  0
LINE
  5
C50E
  8
0
 10
5362.4892185558892379
 20
241.4269803417861908
 30
0.0
 11
5364.2835144009877695
 21
241.4269803350863128
 31
0.0
  0
LINE
  5
C50F
  8
0
 10
5364.2835144009877695
 20
241.4269803350863128
 30
0.0
 11
5364.3238667320893001
 21
241.4673333363863037
 31
0.0
  0
LINE
  5
C510
  8
0
 10
5364.3238667320893001
 20
241.4673333363863037
 30
0.0
 11
5364.3238667320893001
 21
241.5936319680862994
 31
0.0
  0
LINE
  5
C511
  8
0
 10
5364.3238667320893001
 20
241.5936319680862994
 30
0.0
 11
5364.2835144009877695
 21
241.6339849693862902
 31
0.0
  0
LINE
  5
C512
  8
0
 10
5364.2835144009877695
 20
241.6339849693862902
 30
0.0
 11
5362.4892190672881043
 21
241.6339849720862958
 31
0.0
  0
LINE
  5
C513
  8
0
 10
5362.4488680131880756
 20
241.5936345301861934
 30
0.0
 11
5364.3238667320893001
 21
241.5936319680862994
 31
0.0
  0
LINE
  5
C514
  8
0
 10
5364.3238667320893001
 20
241.4673333363863037
 30
0.0
 11
5362.4488680152880988
 21
241.467330774286296
 31
0.0
  0
LINE
  5
C515
  8
0
 10
5366.1173194283819612
 20
240.2965589024308883
 30
0.0
 11
5366.0857419069816387
 21
240.3278602934308879
 31
0.0
  0
LINE
  5
C516
  8
0
 10
5366.1237785016728594
 20
240.0202384087862981
 30
0.0
 11
5364.674293185253191
 21
240.0202384087862981
 31
0.0
  0
LINE
  5
C517
  8
0
 10
5365.1336097175280884
 20
239.5882040335895056
 30
0.0
 11
5365.1336097175280884
 21
239.5399054641559928
 31
0.0
  0
LINE
  5
C518
  8
0
 10
5365.6651057805283926
 20
239.5882040761796077
 30
0.0
 11
5365.6651057805283926
 21
239.5399054641563907
 31
0.0
  0
LINE
  5
C519
  8
0
 10
5364.6727849753269766
 20
239.4576101788362905
 30
0.0
 11
5364.6710553080265527
 21
239.2626841533362949
 31
0.0
  0
ARC
  5
C51A
  8
0
 10
5364.6761436079550549
 20
239.2626397479652951
 30
0.0
 40
0.0050884936852762
 50
179.4999949305048972
 51
267.2821337016114853
  0
ARC
  5
C51B
  8
0
 10
5365.4001128066829551
 20
321.7871957010768256
 30
0.0
 40
82.5328161918943124
 50
269.4972334803683793
 51
270.5016052291102255
  0
ARC
  5
C51C
  8
0
 10
5366.1224759626011291
 20
239.2627237546425079
 30
0.0
 40
0.0051843786772868
 50
271.929860963034173
 51
359.5623371827946926
  0
LINE
  5
C51D
  8
0
 10
5366.1276601900271999
 20
239.2626841533362096
 30
0.0
 11
5366.125900090027244
 21
239.4576804151363092
 31
0.0
  0
ARC
  5
C51E
  8
0
 10
5365.3954518683658534
 20
319.9513945115485853
 30
0.0
 40
80.4970282907356705
 50
269.4856167978202279
 51
270.5199219837061264
  0
ARC
  5
C51F
  8
0
 10
5365.9630970915513899
 20
232.9465426803382115
 30
0.0
 40
6.5131727612450367
 50
88.567687874295558
 51
90.1104737483883582
  0
ARC
  5
C520
  8
0
 10
5364.8576499230375703
 20
231.5530255522047867
 30
0.0
 40
7.9067460543810393
 50
90.0686475678480321
 51
91.3397352685280453
  0
LINE
  5
C521
  8
0
 10
5365.95053885132711
 20
239.4562801127179057
 30
0.0
 11
5365.95053885132711
 21
239.5299211401363095
 31
0.0
  0
ARC
  5
C522
  8
0
 10
5365.938640206341006
 20
239.5299211401363095
 30
0.0
 40
0.0118986449872072
 50
0.0
 51
87.8762982766281482
  0
ARC
  5
C523
  8
0
 10
5365.670456129428203
 20
221.7611730936114043
 30
0.0
 40
17.7826675595825385
 50
89.1344569375047655
 51
90.0172388318083563
  0
ARC
  5
C524
  8
0
 10
5365.3993577489773088
 20
297.4270441462791723
 30
0.0
 40
57.8877486763787203
 50
269.4657881690300201
 51
270.5342118309700936
  0
LINE
  5
C525
  8
0
 10
5364.8481766466284171
 20
239.4562266225927942
 30
0.0
 11
5364.8481766466284171
 21
239.5299211401363095
 31
0.0
  0
ARC
  5
C526
  8
0
 10
5364.8600752916136116
 20
239.5299211401363095
 30
0.0
 40
0.0118986449872072
 50
92.1237017233718376
 51
180.0
  0
ARC
  5
C527
  8
0
 10
5365.1282593685273241
 20
221.7611730936114043
 30
0.0
 40
17.7826675595825385
 50
89.9827611678268937
 51
90.8655430624952345
  0
LINE
  5
C528
  8
0
 10
5367.3459852086107276
 20
239.5100704424363016
 30
0.0
 11
5367.3993680138919444
 21
239.4569288502362951
 31
0.0
  0
LINE
  5
C529
  8
0
 10
5367.3993680138919444
 20
239.4569288502362951
 30
0.0
 11
5367.3993680138919444
 21
238.9277447104362011
 31
0.0
  0
LINE
  5
C52A
  8
0
 10
5367.3993680138919444
 20
238.9277447104362864
 30
0.0
 11
5367.3368680138919444
 21
238.8655271200362904
 31
0.0
  0
LINE
  5
C52B
  8
0
 10
5367.3368680138919444
 20
238.8655271200362904
 30
0.0
 11
5336.4618679838922617
 21
238.8655271200362904
 31
0.0
  0
LINE
  5
C52C
  8
0
 10
5336.4618679838922617
 20
238.8655271200362904
 30
0.0
 11
5336.3993679838931712
 21
238.9277447104362864
 31
0.0
  0
LINE
  5
C52D
  8
0
 10
5336.3993679838931712
 20
238.9277447104362864
 30
0.0
 11
5367.3993680138919444
 21
238.9277447104362864
 31
0.0
  0
LINE
  5
C52E
  8
0
 10
5367.3368680138919444
 20
239.5100704424363016
 30
0.0
 11
5367.3368680138919444
 21
239.245523258136302
 31
0.0
  0
LINE
  5
C52F
  8
0
 10
5367.3368680138919444
 20
239.245523258136302
 30
0.0
 11
5336.4618679838922617
 21
239.245523258136302
 31
0.0
  0
LINE
  5
C530
  8
0
 10
5336.4618679838922617
 20
239.245523258136302
 30
0.0
 11
5336.3993679838931712
 21
239.1827421189362894
 31
0.0
  0
LINE
  5
C531
  8
0
 10
5336.4618679838922617
 20
239.4186328777342112
 30
0.0
 11
5336.4618679838922617
 21
239.245523258136302
 31
0.0
  0
LINE
  5
C532
  8
0
 10
5336.3993679838931712
 20
239.1827421189362042
 30
0.0
 11
5367.3993680138919444
 21
239.1827421189362894
 31
0.0
  0
LINE
  5
C533
  8
0
 10
5367.3368680138919444
 20
239.245523258136302
 30
0.0
 11
5367.3993680138919444
 21
239.1827421189362894
 31
0.0
  0
LINE
  5
C534
  8
0
 10
5362.7238110819953363
 20
241.4269803409102906
 30
0.0
 11
5362.7263678313529454
 21
241.1340058875896943
 31
0.0
  0
LINE
  5
C535
  8
0
 10
5362.7263678313529454
 20
241.1340058875896943
 30
0.0
 11
5364.0463680138918789
 21
241.133984970736293
 31
0.0
  0
LINE
  5
C536
  8
0
 10
5364.0463680138918789
 20
241.133984970736293
 30
0.0
 11
5364.0489249456450125
 21
241.4269803359622131
 31
0.0
  0
LINE
  5
C537
  8
0
 10
5362.7859743130920833
 20
241.1340049430596082
 30
0.0
 11
5362.7859743130920833
 21
241.1225991439362986
 31
0.0
  0
LINE
  5
C538
  8
0
 10
5362.7859743130920833
 20
241.1225991439362986
 30
0.0
 11
5363.9867617146910561
 21
241.1225991439362986
 31
0.0
  0
LINE
  5
C539
  8
0
 10
5363.9867617146910561
 20
241.1225991439362986
 30
0.0
 11
5363.9867617146910561
 21
241.1339859152635938
 31
0.0
  0
LINE
  5
C53A
  8
0
 10
5363.97636801389217
 20
241.0825991439363065
 30
0.0
 11
5363.9758584659921326
 21
241.111791120436294
 31
0.0
  0
ARC
  5
C53B
  8
0
 10
5363.9648601413027791
 20
241.1115991439440904
 30
0.0
 40
0.0110000000427084
 50
1.000000107536595
 51
90.0
  0
LINE
  5
C53C
  8
0
 10
5362.796368013880965
 20
241.0825991439363065
 30
0.0
 11
5362.7968775617446227
 21
241.111791120436294
 31
0.0
  0
ARC
  5
C53D
  8
0
 10
5362.8078758863921394
 20
241.1115991439363029
 30
0.0
 40
0.0109999999999298
 50
90.0
 51
178.9999998481605132
  0
LINE
  5
C53E
  8
0
 10
5361.4488680138920245
 20
241.0825991439363065
 30
0.0
 11
5361.3863680138920245
 21
241.0200991439363065
 31
0.0
  0
LINE
  5
C53F
  8
0
 10
5361.3863680138920245
 20
241.0200991439363065
 30
0.0
 11
5361.3863680138920245
 21
240.7650991439361974
 31
0.0
  0
LINE
  5
C540
  8
0
 10
5361.3863680138920245
 20
240.7650991439361974
 30
0.0
 11
5361.4488680138920245
 21
240.7025991439363111
 31
0.0
  0
LINE
  5
C541
  8
0
 10
5361.4488680138920245
 20
240.7025991439363111
 30
0.0
 11
5392.3238680439908421
 21
240.7025991439363111
 31
0.0
  0
LINE
  5
C542
  8
0
 10
5392.3863680439917516
 20
240.7650991439361974
 30
0.0
 11
5361.3863680138920245
 21
240.7650991439361974
 31
0.0
  0
LINE
  5
C543
  8
0
 10
5392.3863680439917516
 20
241.0200991439363065
 30
0.0
 11
5361.3863680138920245
 21
241.0200991439363065
 31
0.0
  0
LINE
  5
C544
  8
0
 10
5392.3238680439908421
 20
241.0825991439363065
 30
0.0
 11
5361.4488680138920245
 21
241.0825991439363065
 31
0.0
  0
LINE
  5
C545
  8
0
 10
5392.3238680439908421
 20
241.0825991439363065
 30
0.0
 11
5392.3863680439917516
 21
241.0200991439363065
 31
0.0
  0
LINE
  5
C546
  8
0
 10
5392.3863680439917516
 20
241.0200991439363065
 30
0.0
 11
5392.3863680439917516
 21
240.580195449607686
 31
0.0
  0
LINE
  5
C547
  8
0
 10
5392.3863680439917516
 20
240.7650991439361974
 30
0.0
 11
5392.3238680439908421
 21
240.7025991439363111
 31
0.0
  0
LINE
  5
C548
  8
0
 10
5362.6580655722918891
 20
240.6975555112362883
 30
0.0
 11
5362.6597669306929674
 21
240.502599143936294
 31
0.0
  0
LINE
  5
C549
  8
0
 10
5362.6597669306929674
 20
240.502599143936294
 30
0.0
 11
5364.1129690969919466
 21
240.502599143936294
 31
0.0
  0
LINE
  5
C54A
  8
0
 10
5364.1129690969919466
 20
240.502599143936294
 30
0.0
 11
5364.1146704554066673
 21
240.6975555112362883
 31
0.0
  0
ARC
  5
C54B
  8
0
 10
5364.1096706457919936
 20
240.6975991439362872
 30
0.0
 40
0.005000000000075
 50
359.499999742250111
 51
90.0
  0
ARC
  5
C54C
  8
0
 10
5362.6630653818547216
 20
240.6975991439736049
 30
0.0
 40
0.0049999999484989
 50
90.0
 51
180.5000006903086103
  0
LINE
  5
C54D
  8
0
 10
5362.835186911492201
 20
240.502599143936294
 30
0.0
 11
5362.835186911492201
 21
240.4505414849363092
 31
0.0
  0
LINE
  5
C54E
  8
0
 10
5363.9375491161918035
 20
240.502599143936294
 30
0.0
 11
5363.9375491161918035
 21
240.4505414849363092
 31
0.0
  0
ARC
  5
C54F
  8
0
 10
5364.3928680139415519
 20
237.2798134964340875
 30
0.0
 40
3.5104545083022689
 50
70.9167697246124931
 51
75.6263157986650043
  0
ARC
  5
C550
  8
0
 10
5364.3928680139415519
 20
237.2798134964363896
 30
0.0
 40
3.485562222199873
 50
70.7754662037350641
 51
75.2761454347715642
  0
LINE
  5
C551
  8
0
 10
5365.7343714106700645
 20
240.61621749453289
 30
0.0
 11
5365.7360600054353199
 21
240.7025991439363111
 31
0.0
  0
LINE
  5
C552
  8
0
 10
5389.4892203770914421
 20
241.6339849720862105
 30
0.0
 11
5389.4488693229923229
 21
241.5936345301861934
 31
0.0
  0
LINE
  5
C553
  8
0
 10
5389.4488693229923229
 20
241.5936345301861934
 30
0.0
 11
5389.4488693250914366
 21
241.467330774286296
 31
0.0
  0
LINE
  5
C554
  8
0
 10
5389.4488693250914366
 20
241.467330774286296
 30
0.0
 11
5389.4892198656916662
 21
241.4269803417861908
 31
0.0
  0
LINE
  5
C555
  8
0
 10
5389.4892198656916662
 20
241.4269803417861908
 30
0.0
 11
5391.2835157107920168
 21
241.4269803350861991
 31
0.0
  0
LINE
  5
C556
  8
0
 10
5391.2835157107920168
 20
241.4269803350861991
 30
0.0
 11
5391.3238680418917284
 21
241.4673333363863037
 31
0.0
  0
LINE
  5
C557
  8
0
 10
5391.3238680418917284
 20
241.4673333363863037
 30
0.0
 11
5391.3238680418917284
 21
241.5936319680862141
 31
0.0
  0
LINE
  5
C558
  8
0
 10
5391.3238680418917284
 20
241.5936319680862141
 30
0.0
 11
5391.2835157107920168
 21
241.633984969386205
 31
0.0
  0
LINE
  5
C559
  8
0
 10
5391.2835157107920168
 20
241.633984969386205
 30
0.0
 11
5389.4892203770914421
 21
241.6339849720862105
 31
0.0
  0
LINE
  5
C55A
  8
0
 10
5389.4488693229923229
 20
241.5936345301861934
 30
0.0
 11
5391.3238680418917284
 21
241.5936319680862141
 31
0.0
  0
LINE
  5
C55B
  8
0
 10
5391.3238680418917284
 20
241.4673333363863037
 30
0.0
 11
5389.4488693250914366
 21
241.467330774286296
 31
0.0
  0
LINE
  5
C55C
  8
0
 10
5389.7238123917995836
 20
241.4269803409102906
 30
0.0
 11
5389.7263691411571926
 21
241.1340058875896943
 31
0.0
  0
LINE
  5
C55D
  8
0
 10
5389.7263691411571926
 20
241.1340058875896943
 30
0.0
 11
5391.0463693236961262
 21
241.133984970736293
 31
0.0
  0
LINE
  5
C55E
  8
0
 10
5391.0463693236961262
 20
241.133984970736293
 30
0.0
 11
5391.0489262554483503
 21
241.4269803359622131
 31
0.0
  0
LINE
  5
C55F
  8
0
 10
5389.7859756228963306
 20
241.1340049430596082
 30
0.0
 11
5389.7859756228963306
 21
241.1225991439362986
 31
0.0
  0
LINE
  5
C560
  8
0
 10
5389.7859756228963306
 20
241.1225991439362986
 30
0.0
 11
5390.9867630244953034
 21
241.1225991439362986
 31
0.0
  0
LINE
  5
C561
  8
0
 10
5390.9867630244953034
 20
241.1225991439362986
 30
0.0
 11
5390.9867630244953034
 21
241.1339859152635938
 31
0.0
  0
LINE
  5
C562
  8
0
 10
5390.9763693236945983
 20
241.0825991439363065
 30
0.0
 11
5390.9758597757963798
 21
241.111791120436294
 31
0.0
  0
ARC
  5
C563
  8
0
 10
5390.9648614511061169
 20
241.1115991439440052
 30
0.0
 40
0.0110000000427084
 50
1.000000107536595
 51
90.0
  0
LINE
  5
C564
  8
0
 10
5389.7963693236833933
 20
241.0825991439363065
 30
0.0
 11
5389.7968788715488699
 21
241.1117911204148072
 31
0.0
  0
ARC
  5
C565
  8
0
 10
5389.8078771961945677
 20
241.1115991439363029
 30
0.0
 40
0.0109999999999298
 50
90.0
 51
178.9999998481605132
  0
LINE
  5
C566
  8
0
 10
5389.6580668820952269
 20
240.6975555112362883
 30
0.0
 11
5389.6597682404953957
 21
240.502599143936294
 31
0.0
  0
LINE
  5
C567
  8
0
 10
5389.6597682404953957
 20
240.502599143936294
 30
0.0
 11
5391.1129704067952844
 21
240.502599143936294
 31
0.0
  0
LINE
  5
C568
  8
0
 10
5391.1129704067952844
 20
240.502599143936294
 30
0.0
 11
5391.1146717652100051
 21
240.6975555112362883
 31
0.0
  0
ARC
  5
C569
  8
0
 10
5391.1096719555962409
 20
240.6975991439362872
 30
0.0
 40
0.0050000000000644
 50
359.4999997420856062
 51
90.0
  0
ARC
  5
C56A
  8
0
 10
5389.6630666916589689
 20
240.6975991439736049
 30
0.0
 40
0.0049999999485038
 50
90.0
 51
180.5000006902272105
  0
LINE
  5
C56B
  8
0
 10
5389.8351882212964483
 20
240.502599143936294
 30
0.0
 11
5389.8351882212964483
 21
240.4505414849363092
 31
0.0
  0
LINE
  5
C56C
  8
0
 10
5390.9375504259951413
 20
240.502599143936294
 30
0.0
 11
5390.9375504259951413
 21
240.4505414849363092
 31
0.0
  0
LINE
  5
C56D
  8
0
 10
5337.6521028512343037
 20
239.5883283739470926
 30
0.0
 11
5339.1445448850163302
 21
239.5883284935403026
 31
0.0
  0
ARC
  5
C56E
  8
0
 10
5338.3983111907637067
 20
351.7546591774855074
 30
0.0
 40
111.7947941687960025
 50
269.6175588262823908
 51
270.3824536695548204
  0
ARC
  5
C56F
  8
0
 10
5338.9160325468874362
 20
239.7753417324159102
 30
0.0
 40
0.2952826445827195
 50
320.7032947760285992
 51
39.2968627240037378
  0
ARC
  5
C570
  8
0
 10
5337.8806146614388126
 20
239.7753421859979994
 30
0.0
 40
0.2952825990478155
 50
140.7032845796925926
 51
219.2968561694700895
  0
ARC
  5
C571
  8
0
 10
5338.1764441742579947
 20
181.7761538880602927
 30
0.0
 40
58.1885640393695027
 50
89.9883319333884231
 51
90.5163038174219423
  0
ARC
  5
C572
  8
0
 10
5338.6380604999931165
 20
185.8786707665053939
 30
0.0
 40
54.0860563456099115
 50
89.4634511313693253
 51
90.0315329308053833
  0
LINE
  5
C573
  8
0
 10
5337.6735513939747761
 20
240.0203627876688017
 30
0.0
 11
5337.675570247003634
 21
240.2861594501135016
 31
0.0
  0
ARC
  5
C574
  8
0
 10
5337.6905398559156311
 20
240.2860288121383974
 30
0.0
 40
0.0149701789324701
 50
134.6629836722082985
 51
179.4999993215973859
  0
ARC
  5
C575
  8
0
 10
5328.1568357214628122
 20
249.9325532064704021
 30
0.0
 40
13.5477341020625293
 50
314.6629836722083269
 51
314.8510271242926137
  0
ARC
  5
C576
  8
0
 10
5337.7250676642688632
 20
240.3144353528971919
 30
0.0
 40
0.0191098034501705
 50
103.0988700276395065
 51
134.8510271242932106
  0
ARC
  5
C577
  8
0
 10
5339.193931135369894
 20
-2421.1421678528831762
 30
0.0
 40
2661.4756235057789127
 50
90.002510706398823
 51
90.0317146710194578
  0
ARC
  5
C578
  8
0
 10
5339.0744972601823974
 20
240.3213536270793043
 30
0.0
 40
0.0124209796308889
 50
32.2665290228740176
 51
76.9353553498055618
  0
ARC
  5
C579
  8
0
 10
5339.1060187590928763
 20
240.2860296678043142
 30
0.0
 40
0.0149996461837932
 50
0.4956722043778044
 51
45.2558826325079835
  0
LINE
  5
C57A
  8
0
 10
5339.1210178439796437
 20
240.2861594298043997
 30
0.0
 11
5339.1230367103962635
 21
240.0203627876688017
 31
0.0
  0
LINE
  5
C57B
  8
0
 10
5337.675570247003634
 20
240.2861594501135016
 30
0.0
 11
5339.1210178439796437
 21
240.2861594298043997
 31
0.0
  0
LINE
  5
C57C
  8
0
 10
5337.7115901721508635
 20
240.3279831126430963
 30
0.0
 11
5339.0850001157032239
 21
240.3279846723133915
 31
0.0
  0
LINE
  5
C57D
  8
0
 10
5338.1882940529576445
 20
240.0203627876688017
 30
0.0
 11
5338.1882940529576445
 21
239.9600622774327121
 31
0.0
  0
LINE
  5
C57E
  8
0
 10
5338.6082940529586267
 20
240.0203627876688017
 30
0.0
 11
5338.6082940529586267
 21
239.9600622130477916
 31
0.0
  0
LINE
  5
C57F
  8
0
 10
5339.1165776371035463
 20
240.2966832813135056
 30
0.0
 11
5339.0850001157032239
 21
240.3279846723135051
 31
0.0
  0
LINE
  5
C580
  8
0
 10
5339.1230367103962635
 20
240.0203627876688017
 30
0.0
 11
5337.6735513939747761
 21
240.0203627876688017
 31
0.0
  0
LINE
  5
C581
  8
0
 10
5338.1328679262478545
 20
239.5883284124720944
 30
0.0
 11
5338.1328679262478545
 21
239.5400298430384964
 31
0.0
  0
LINE
  5
C582
  8
0
 10
5338.6643639892490683
 20
239.5883284550621966
 30
0.0
 11
5338.6643639892490683
 21
239.540029843039008
 31
0.0
  0
LINE
  5
C583
  8
0
 10
5337.6720431840485617
 20
239.4577345577187941
 30
0.0
 11
5337.6703135167490473
 21
239.2628085322187985
 31
0.0
  0
ARC
  5
C584
  8
0
 10
5337.675401816674821
 20
239.2627641268479124
 30
0.0
 40
0.0050884936852762
 50
179.4999949305048972
 51
267.2821337016114853
  0
ARC
  5
C585
  8
0
 10
5338.4703787669659505
 20
305.5453718260794744
 30
0.0
 40
66.2924602029902985
 50
269.3126859169803993
 51
270.5631186373781247
  0
ARC
  5
C586
  8
0
 10
5339.1217341713227142
 20
239.2628481335250967
 30
0.0
 40
0.0051843786772868
 50
271.929860963034173
 51
359.5623371827946926
  0
LINE
  5
C587
  8
0
 10
5339.126918398748785
 20
239.2628085322187985
 30
0.0
 11
5339.1251582987488291
 21
239.4578047940188128
 31
0.0
  0
ARC
  5
C588
  8
0
 10
5338.3947100770874385
 20
319.9515188904312026
 30
0.0
 40
80.4970282907356705
 50
269.4856167978202279
 51
270.5199219837061264
  0
ARC
  5
C589
  8
0
 10
5338.9623553002720655
 20
232.9466670592208004
 30
0.0
 40
6.5131727612450367
 50
88.567687874295558
 51
90.1104737483883582
  0
ARC
  5
C58A
  8
0
 10
5337.8569081317591554
 20
231.553149931087404
 30
0.0
 40
7.9067460543810393
 50
90.0686475678480321
 51
91.3397352685280453
  0
LINE
  5
C58B
  8
0
 10
5338.9497970600486951
 20
239.4564044916004946
 30
0.0
 11
5338.9497970600486951
 21
239.5300455190188131
 31
0.0
  0
ARC
  5
C58C
  8
0
 10
5338.9378984150607721
 20
239.5300455190188131
 30
0.0
 40
0.0118986449872072
 50
359.9999999999984084
 51
87.8762982766281482
  0
ARC
  5
C58D
  8
0
 10
5338.6697143381479691
 20
221.7612974724939932
 30
0.0
 40
17.7826675595825385
 50
89.1344569375047655
 51
90.0172388318083563
  0
ARC
  5
C58E
  8
0
 10
5338.3986159576998034
 20
297.4271685251617896
 30
0.0
 40
57.8877486763787203
 50
269.4657881690300201
 51
270.5342118309700936
  0
LINE
  5
C58F
  8
0
 10
5337.8474348553490927
 20
239.4563510014754115
 30
0.0
 11
5337.8474348553490927
 21
239.5300455190188131
 31
0.0
  0
ARC
  5
C590
  8
0
 10
5337.8593335003361062
 20
239.5300455190188131
 30
0.0
 40
0.0118986449872072
 50
92.1237017233718376
 51
180.0
  0
ARC
  5
C591
  8
0
 10
5338.1275175772479997
 20
221.7612974724939932
 30
0.0
 40
17.7826675595825385
 50
89.9827611678268937
 51
90.8655430624952345
  0
LINE
  5
C5D0
  8
0
 10
5388.5113652395921235
 20
242.6445796265032016
 30
0.0
 11
5388.5113652395921235
 21
241.1215991438361925
 31
0.0
  0
LINE
  5
C5D1
  8
0
 10
5389.2613652395921235
 20
242.6449020956179936
 30
0.0
 11
5389.2613652395921235
 21
241.1215991438361925
 31
0.0
  0
LINE
  5
C5D2
  8
0
 10
5388.5084124836921546
 20
241.0905991438363003
 30
0.0
 11
5388.5084124836921546
 21
241.1135991438362964
 31
0.0
  0
ARC
  5
C5D3
  8
0
 10
5388.5164124836919655
 20
241.1135991438362964
 30
0.0
 40
0.0080000000000027
 50
90.0
 51
179.9999999999901945
  0
LINE
  5
C5D4
  8
0
 10
5388.5113652395921235
 20
241.1215991438361925
 30
0.0
 11
5389.2613652395921235
 21
241.1215991438361925
 31
0.0
  0
ARC
  5
C5D5
  8
0
 10
5388.5164124836919655
 20
241.0905991438363003
 30
0.0
 40
0.008000000000024
 50
180.0000000001008971
 51
270.0
  0
LINE
  5
C5D6
  8
0
 10
5389.2643179954920925
 20
241.0905991438363003
 30
0.0
 11
5389.2643179954920925
 21
241.1135991438362964
 31
0.0
  0
ARC
  5
C5D7
  8
0
 10
5389.2563179954922816
 20
241.1135991438362964
 30
0.0
 40
0.0080000000000027
 50
0.0000000000097707
 51
90.0
  0
ARC
  5
C5D8
  8
0
 10
5389.2563179954922816
 20
241.0905991438363003
 30
0.0
 40
0.008000000000024
 50
270.0
 51
359.9999999998991029
  0
LINE
  5
C5D9
  8
0
 10
5388.5084124836921546
 20
240.6945991438362
 30
0.0
 11
5388.5084124836921546
 21
240.6715991438362892
 31
0.0
  0
ARC
  5
C5DA
  8
0
 10
5388.5164124836919655
 20
240.6715991438362892
 30
0.0
 40
0.0080000000000027
 50
180.0000000000098055
 51
270.0
  0
ARC
  5
C5DB
  8
0
 10
5388.5164124836919655
 20
240.6945991438362
 30
0.0
 40
0.008000000000024
 50
90.0
 51
179.9999999998989892
  0
LINE
  5
C5DC
  8
0
 10
5389.2643179954920925
 20
240.6945991438362
 30
0.0
 11
5389.2643179954920925
 21
240.6715991438362892
 31
0.0
  0
ARC
  5
C5DD
  8
0
 10
5389.2563179954922816
 20
240.6715991438362892
 30
0.0
 40
0.0080000000000027
 50
270.0
 51
359.9999999999902229
  0
ARC
  5
C5DE
  8
0
 10
5389.2563179954922816
 20
240.6945991438362
 30
0.0
 40
0.008000000000024
 50
0.0000000001009635
 51
90.0
  0
LINE
  5
C5DF
  8
0
 10
5388.4925857119924331
 20
240.4505414849363092
 30
0.0
 11
5388.4925857119924331
 21
240.6435991438362976
 31
0.0
  0
ARC
  5
C5E0
  8
0
 10
5388.5125857119928696
 20
240.6435991438362976
 30
0.0
 40
0.02
 50
90.0
 51
180.0
  0
LINE
  5
C5E1
  8
0
 10
5388.5125857119928696
 20
240.6635991438363078
 30
0.0
 11
5389.2601447670922425
 21
240.6635991438363078
 31
0.0
  0
LINE
  5
C5E2
  8
0
 10
5389.2801447670908601
 20
240.6435991438362976
 30
0.0
 11
5389.2801447670908601
 21
240.4505414849363092
 31
0.0
  0
ARC
  5
C5E3
  8
0
 10
5389.2601447670922425
 20
240.6435991438362976
 30
0.0
 40
0.02
 50
0.0
 51
90.0
  0
LINE
  5
C5E4
  8
0
 10
5362.936365239492261
 20
243.5205991438361934
 30
0.0
 11
5362.936365239492261
 21
242.640599143836198
 31
0.0
  0
LINE
  5
C5E5
  8
0
 10
5362.936365239492261
 20
242.640599143836198
 30
0.0
 11
5364.5064138402631215
 21
242.640599143836198
 31
0.0
  0
LINE
  5
C5E6
  8
0
 10
5365.2657227135741778
 20
242.640599143836198
 30
0.0
 11
5388.5064166178499363
 21
242.640599143836198
 31
0.0
  0
LINE
  5
C5E7
  8
0
 10
5389.266319413220117
 20
242.640599143836198
 30
0.0
 11
5390.836368013991887
 21
242.640599143836198
 31
0.0
  0
LINE
  5
C5E8
  8
0
 10
5390.836368013991887
 20
242.640599143836198
 30
0.0
 11
5390.836368013991887
 21
243.5205991438361934
 31
0.0
  0
LINE
  5
C5E9
  8
0
 10
5390.836368013991887
 20
243.5205991438361934
 30
0.0
 11
5362.936365239492261
 21
243.5205991438361934
 31
0.0
  0
LINE
  5
C5EA
  8
0
 10
5390.836368013991887
 20
243.5205991438361934
 30
0.0
 11
5390.8863680139920689
 21
243.4705991438362958
 31
0.0
  0
LINE
  5
C5EB
  8
0
 10
5390.8863680139920689
 20
243.4705991438362958
 30
0.0
 11
5390.8863680139920689
 21
242.6905991438362946
 31
0.0
  0
LINE
  5
C5EC
  8
0
 10
5390.8863680139920689
 20
242.6905991438362946
 30
0.0
 11
5390.836368013991887
 21
242.640599143836198
 31
0.0
  0
LINE
  5
C5ED
  8
0
 10
5362.936365239492261
 20
243.5205991438361934
 30
0.0
 11
5362.8863652394920791
 21
243.4705991438362958
 31
0.0
  0
LINE
  5
C5EE
  8
0
 10
5362.8863652394920791
 20
243.4705991438362958
 30
0.0
 11
5362.8863652394920791
 21
242.6905991438362946
 31
0.0
  0
LINE
  5
C5EF
  8
0
 10
5362.8863652394920791
 20
242.6905991438362946
 30
0.0
 11
5362.936365239492261
 21
242.640599143836198
 31
0.0
  0
ARC
  5
C5F0
  8
0
 10
5364.8863652379486666
 20
242.5995416854858888
 30
0.0
 40
0.2592012638974107
 50
59.4063033833144374
 51
120.5937044779181946
  0
ARC
  5
C5F1
  8
0
 10
5364.21453178162119
 20
241.4632480602921021
 30
0.0
 40
1.5792480038641119
 50
52.9891306389446868
 51
59.4063033833144374
  0
ARC
  5
C5F2
  8
0
 10
5364.3509005498008264
 20
241.6441441176230001
 30
0.0
 40
1.352709211396431
 50
47.4456826529732965
 51
52.9891306389446868
  0
ARC
  5
C5F3
  8
0
 10
5366.2440111700852867
 20
240.6450319872728869
 30
0.0
 40
2.6460409590474971
 50
127.8083829237728963
 51
131.0470203681807106
  0
ARC
  5
C5F4
  8
0
 10
5365.2417762703371409
 20
241.9367151589781884
 30
0.0
 40
1.011134169551233
 50
118.8137802972971002
 51
127.8083829237728963
  0
ARC
  5
C5F5
  8
0
 10
5388.8863680155345719
 20
242.5995416854858888
 30
0.0
 40
0.2592012638974107
 50
59.4062955220817415
 51
120.5936966166855058
  0
ARC
  5
C5F6
  8
0
 10
5389.558201471862958
 20
241.4632480602921021
 30
0.0
 40
1.5792480038641119
 50
120.5936966166855058
 51
127.010869361055299
  0
ARC
  5
C5F7
  8
0
 10
5387.5287220833979518
 20
240.6450319872728869
 30
0.0
 40
2.6460409590474971
 50
48.9529796318192894
 51
52.191617076227061
  0
ARC
  5
C5F8
  8
0
 10
5388.5309569831470071
 20
241.9367151589781884
 30
0.0
 40
1.011134169551233
 50
52.191617076227061
 51
61.1862197027029211
  0
LINE
  5
C5F9
  8
0
 10
5365.2613680138920245
 20
242.6445796265032016
 30
0.0
 11
5365.2613680138920245
 21
241.1215991438361925
 31
0.0
  0
LINE
  5
C5FA
  8
0
 10
5364.5113680138920245
 20
242.6449020956179936
 30
0.0
 11
5364.5113680138920245
 21
241.1215991438361925
 31
0.0
  0
LINE
  5
C5FB
  8
0
 10
5365.2643207697919934
 20
241.0905991438363003
 30
0.0
 11
5365.2643207697919934
 21
241.1135991438362964
 31
0.0
  0
ARC
  5
C5FC
  8
0
 10
5365.2563207697921825
 20
241.1135991438362964
 30
0.0
 40
0.0080000000000027
 50
0.0000000000097707
 51
90.0
  0
LINE
  5
C5FD
  8
0
 10
5365.2613680138920245
 20
241.1215991438361925
 30
0.0
 11
5364.5113680138920245
 21
241.1215991438361925
 31
0.0
  0
ARC
  5
C5FE
  8
0
 10
5365.2563207697921825
 20
241.0905991438363003
 30
0.0
 40
0.0080000000000312
 50
270.0
 51
359.9999999998469207
  0
LINE
  5
C5FF
  8
0
 10
5364.5084152579920556
 20
241.0905991438363003
 30
0.0
 11
5364.5084152579920556
 21
241.1135991438362964
 31
0.0
  0
ARC
  5
C600
  8
0
 10
5364.5164152579918664
 20
241.1135991438362964
 30
0.0
 40
0.0080000000000027
 50
90.0
 51
179.9999999999901945
  0
ARC
  5
C601
  8
0
 10
5364.5164152579918664
 20
241.0905991438363003
 30
0.0
 40
0.0080000000000137
 50
180.0000000001514024
 51
270.0
  0
LINE
  5
C602
  8
0
 10
5365.2643207697919934
 20
240.6945991438362
 30
0.0
 11
5365.2643207697919934
 21
240.6715991438362892
 31
0.0
  0
ARC
  5
C603
  8
0
 10
5365.2563207697921825
 20
240.6715991438362892
 30
0.0
 40
0.0080000000000027
 50
270.0
 51
359.9999999999902229
  0
ARC
  5
C604
  8
0
 10
5365.2563207697921825
 20
240.6945991438363137
 30
0.0
 40
0.008000000000004
 50
359.9999999999478746
 51
90.0
  0
LINE
  5
C605
  8
0
 10
5364.5084152579920556
 20
240.6945991438362
 30
0.0
 11
5364.5084152579920556
 21
240.6715991438362892
 31
0.0
  0
ARC
  5
C606
  8
0
 10
5364.5164152579918664
 20
240.6715991438362892
 30
0.0
 40
0.0080000000000027
 50
180.0000000000098055
 51
270.0
  0
ARC
  5
C607
  8
0
 10
5364.5164152579918664
 20
240.6945991438362
 30
0.0
 40
0.0080000000000119
 50
90.0
 51
179.999999999947903
  0
LINE
  5
C608
  8
0
 10
5365.2801475414917149
 20
240.4505414849363092
 30
0.0
 11
5365.2801475414917149
 21
240.6435991438362976
 31
0.0
  0
ARC
  5
C609
  8
0
 10
5365.2601475414921879
 20
240.6435991438362976
 30
0.0
 40
0.02
 50
0.0
 51
90.0
  0
LINE
  5
C60A
  8
0
 10
5365.2601475414921879
 20
240.6635991438363078
 30
0.0
 11
5364.5125884863919055
 21
240.6635991438363078
 31
0.0
  0
LINE
  5
C60B
  8
0
 10
5364.4925884863923784
 20
240.6435991438362976
 30
0.0
 11
5364.4925884863923784
 21
240.4505414849363092
 31
0.0
  0
ARC
  5
C60C
  8
0
 10
5364.5125884863919055
 20
240.6435991438362976
 30
0.0
 40
0.02
 50
90.0
 51
180.0
  0
LINE
  5
C60D
  8
0
 10
5363.5243680138919444
 20
237.4535266955693089
 30
0.0
 11
5363.5243680138919444
 21
238.8655271200362904
 31
0.0
  0
LINE
  5
C60E
  8
0
 10
5364.2743680138919444
 20
237.4532042264544884
 30
0.0
 11
5364.2743680138919444
 21
238.8655271200362904
 31
0.0
  0
LINE
  5
C60F
  8
0
 10
5363.521415257991066
 20
239.4035071782363104
 30
0.0
 11
5363.521415257991066
 21
239.4265071782363066
 31
0.0
  0
ARC
  5
C610
  8
0
 10
5363.5294152579917863
 20
239.4265071782363066
 30
0.0
 40
0.0080000000000027
 50
90.0
 51
179.9999999999901945
  0
ARC
  5
C611
  8
0
 10
5363.5294152579917863
 20
239.4035071782363104
 30
0.0
 40
0.008000000000024
 50
180.0000000001008971
 51
270.0
  0
LINE
  5
C612
  8
0
 10
5364.2773207697919133
 20
239.4035071782363104
 30
0.0
 11
5364.2773207697919133
 21
239.4265071782363066
 31
0.0
  0
ARC
  5
C613
  8
0
 10
5364.269320769793012
 20
239.4265071782363066
 30
0.0
 40
0.0080000000000027
 50
0.0000000000097707
 51
90.0
  0
ARC
  5
C614
  8
0
 10
5364.269320769793012
 20
239.4035071782363104
 30
0.0
 40
0.008000000000024
 50
270.0
 51
359.9999999998991029
  0
LINE
  5
C615
  8
0
 10
5363.5055884862922539
 20
239.5100704424363016
 30
0.0
 11
5363.5055884862922539
 21
239.4545071782362982
 31
0.0
  0
ARC
  5
C616
  8
0
 10
5363.525588486291781
 20
239.4545071782362982
 30
0.0
 40
0.02
 50
180.0
 51
270.0
  0
LINE
  5
C617
  8
0
 10
5363.525588486291781
 20
239.4345071782362879
 30
0.0
 11
5364.2731475413929729
 21
239.4345071782362879
 31
0.0
  0
LINE
  5
C618
  8
0
 10
5364.2931475413915905
 20
239.4545071782362982
 30
0.0
 11
5364.2931475413915905
 21
239.5100704424363016
 31
0.0
  0
ARC
  5
C619
  8
0
 10
5364.2731475413929729
 20
239.4545071782362982
 30
0.0
 40
0.02
 50
270.0
 51
0.0
  0
LINE
  5
C61A
  8
0
 10
5337.949365239492181
 20
236.5775071782362033
 30
0.0
 11
5337.949365239492181
 21
237.4575071782363125
 31
0.0
  0
LINE
  5
C61B
  8
0
 10
5337.949365239492181
 20
237.4575071782363125
 30
0.0
 11
5339.519413840263951
 21
237.4575071782363125
 31
0.0
  0
LINE
  5
C61C
  8
0
 10
5340.2787227135731882
 20
237.4575071782363125
 30
0.0
 11
5363.5200133142097911
 21
237.4575071782363125
 31
0.0
  0
LINE
  5
C61D
  8
0
 10
5364.2793221875199379
 20
237.4575071782363125
 30
0.0
 11
5365.8493680138917625
 21
237.4575071782363125
 31
0.0
  0
LINE
  5
C61E
  8
0
 10
5365.8493680138917625
 20
237.4575071782363125
 30
0.0
 11
5365.8493680138917625
 21
236.5775071782362033
 31
0.0
  0
LINE
  5
C61F
  8
0
 10
5365.8493680138917625
 20
236.5775071782362033
 30
0.0
 11
5337.949365239492181
 21
236.5775071782362033
 31
0.0
  0
LINE
  5
C620
  8
0
 10
5365.8493680138917625
 20
236.5775071782362033
 30
0.0
 11
5365.8993680138919444
 21
236.6275071782363
 31
0.0
  0
LINE
  5
C621
  8
0
 10
5365.8993680138919444
 20
236.6275071782363
 30
0.0
 11
5365.8993680138919444
 21
237.4075071782363011
 31
0.0
  0
LINE
  5
C622
  8
0
 10
5365.8993680138919444
 20
237.4075071782363011
 30
0.0
 11
5365.8493680138917625
 21
237.4575071782363125
 31
0.0
  0
LINE
  5
C623
  8
0
 10
5337.949365239492181
 20
236.5775071782362033
 30
0.0
 11
5337.8993652394919991
 21
236.6275071782363
 31
0.0
  0
LINE
  5
C624
  8
0
 10
5337.8993652394919991
 20
236.6275071782363
 30
0.0
 11
5337.8993652394919991
 21
237.4075071782363011
 31
0.0
  0
LINE
  5
C625
  8
0
 10
5337.8993652394919991
 20
237.4075071782363011
 30
0.0
 11
5337.949365239492181
 21
237.4575071782363125
 31
0.0
  0
ARC
  5
C626
  8
0
 10
5339.8993652379485866
 20
237.4985646365865932
 30
0.0
 40
0.2592012638974107
 50
239.4062955220817059
 51
300.5936966166855768
  0
ARC
  5
C627
  8
0
 10
5339.22753178162111
 20
238.6348582617804936
 30
0.0
 40
1.5792480038641119
 50
300.5936966166855768
 51
307.0108693610553132
  0
ARC
  5
C628
  8
0
 10
5339.3639005498007464
 20
238.4539622044495957
 30
0.0
 40
1.352709211396431
 50
307.0108693610553132
 51
312.5543173470261991
  0
ARC
  5
C629
  8
0
 10
5341.2570111700852067
 20
239.4530743347995951
 30
0.0
 40
2.6460409590474971
 50
228.9529796318192894
 51
232.1916170762270895
  0
ARC
  5
C62A
  8
0
 10
5340.2547762703370609
 20
238.1613911630942084
 30
0.0
 40
1.011134169551233
 50
232.1916170762270895
 51
241.186219702702914
  0
ARC
  5
C62B
  8
0
 10
5363.8993707898353023
 20
237.4985646365865932
 30
0.0
 40
0.2592012638974107
 50
239.4063033833143948
 51
300.5937044779183225
  0
ARC
  5
C62C
  8
0
 10
5364.5712042461627789
 20
238.6348582617804936
 30
0.0
 40
1.5792480038641119
 50
232.9891306389446868
 51
239.4063033833143948
  0
ARC
  5
C62D
  8
0
 10
5364.434835477982233
 20
238.4539622044495957
 30
0.0
 40
1.352709211396431
 50
227.4456826529743978
 51
232.9891306389446868
  0
ARC
  5
C62E
  8
0
 10
5362.5417248576986822
 20
239.4530743347995951
 30
0.0
 40
2.6460409590474971
 50
307.8083829237729105
 51
311.0470203681800854
  0
ARC
  5
C62F
  8
0
 10
5363.5439597574459185
 20
238.1613911630942084
 30
0.0
 40
1.011134169551233
 50
298.8137802972971144
 51
307.8083829237729105
  0
LINE
  5
C630
  8
0
 10
5340.2743680138919444
 20
237.4535266955693089
 30
0.0
 11
5340.2743680138919444
 21
238.8655271200362904
 31
0.0
  0
LINE
  5
C631
  8
0
 10
5339.5243680138919444
 20
237.4532042264544884
 30
0.0
 11
5339.5243680138919444
 21
238.8655271200362904
 31
0.0
  0
LINE
  5
C632
  8
0
 10
5340.2773207697919133
 20
239.4035071782363104
 30
0.0
 11
5340.2773207697919133
 21
239.4265071782363066
 31
0.0
  0
ARC
  5
C633
  8
0
 10
5340.2693207697921025
 20
239.4265071782363066
 30
0.0
 40
0.0080000000000027
 50
0.0000000000097707
 51
90.0
  0
ARC
  5
C634
  8
0
 10
5340.2693207697921025
 20
239.4035071782363104
 30
0.0
 40
0.008000000000004
 50
270.0
 51
0.0000000000521102
  0
LINE
  5
C635
  8
0
 10
5339.521415257991066
 20
239.4035071782363104
 30
0.0
 11
5339.521415257991066
 21
239.4265071782363066
 31
0.0
  0
ARC
  5
C636
  8
0
 10
5339.5294152579917863
 20
239.4265071782363066
 30
0.0
 40
0.0080000000000027
 50
90.0
 51
179.9999999999901945
  0
ARC
  5
C637
  8
0
 10
5339.5294152579917863
 20
239.4035071782363104
 30
0.0
 40
0.0080000000000119
 50
180.0000000000505054
 51
270.0
  0
LINE
  5
C638
  8
0
 10
5340.2931475414907254
 20
239.5100704424363016
 30
0.0
 11
5340.2931475414907254
 21
239.4545071782362982
 31
0.0
  0
ARC
  5
C639
  8
0
 10
5340.2731475414921078
 20
239.4545071782362982
 30
0.0
 40
0.02
 50
270.0
 51
0.0
  0
LINE
  5
C63A
  8
0
 10
5340.2731475414921078
 20
239.4345071782362879
 30
0.0
 11
5339.5255884863918254
 21
239.4345071782362879
 31
0.0
  0
LINE
  5
C63B
  8
0
 10
5339.5055884863922984
 20
239.4545071782362982
 30
0.0
 11
5339.5055884863922984
 21
239.5100704424363016
 31
0.0
  0
ARC
  5
C63C
  8
0
 10
5339.5255884863918254
 20
239.4545071782362982
 30
0.0
 40
0.02
 50
180.0
 51
270.0
  0
LINE
  5
C63D
  8
0
 10
5339.5294152579917863
 20
239.3955071782363007
 30
0.0
 11
5340.2693207697921025
 21
239.3955071782363007
 31
0.0
  0
LINE
  5
C63E
  8
0
 10
5363.5294152579917863
 20
239.3955071782363007
 30
0.0
 11
5364.269320769793012
 21
239.3955071782363007
 31
0.0
  0
LINE
  5
C63F
  8
0
 10
5364.5022094436781117
 20
238.535205381842303
 30
0.0
 11
5364.4618583895771735
 21
238.4948549399422006
 31
0.0
  0
LINE
  5
C640
  8
0
 10
5364.4618583895771735
 20
238.4948549399422006
 30
0.0
 11
5364.4618926529428791
 21
238.3646656214424127
 31
0.0
  0
LINE
  5
C641
  8
0
 10
5364.4618926529428791
 20
238.3646656214424127
 30
0.0
 11
5364.5022431935449276
 21
238.3243151889423075
 31
0.0
  0
LINE
  5
C642
  8
0
 10
5364.5022431935449276
 20
238.3243151889423075
 30
0.0
 11
5366.2965390386425497
 21
238.3243151822422874
 31
0.0
  0
LINE
  5
C643
  8
0
 10
5366.2965390386425497
 20
238.3243151822422874
 30
0.0
 11
5366.3368913697440803
 21
238.3646681835423919
 31
0.0
  0
LINE
  5
C644
  8
0
 10
5366.3368913697440803
 20
238.3646681835423919
 30
0.0
 11
5366.336857108476579
 21
238.4948523778421929
 31
0.0
  0
LINE
  5
C645
  8
0
 10
5366.336857108476579
 20
238.4948523778421929
 30
0.0
 11
5366.2965047773777769
 21
238.5352053791422975
 31
0.0
  0
LINE
  5
C646
  8
0
 10
5366.2965047773777769
 20
238.5352053791422975
 30
0.0
 11
5364.5022094436781117
 21
238.535205381842303
 31
0.0
  0
LINE
  5
C647
  8
0
 10
5364.7393357434229983
 20
238.8256868214633073
 30
0.0
 11
5364.7352284335529475
 21
238.5352053814916076
 31
0.0
  0
LINE
  5
C648
  8
0
 10
5366.0595168938452844
 20
238.8282464496259934
 30
0.0
 11
5366.0635942810577035
 21
238.5352053794927087
 31
0.0
  0
LINE
  5
C649
  8
0
 10
5364.4618583895771735
 20
238.4948549399422006
 30
0.0
 11
5366.336857108476579
 21
238.4948523778421929
 31
0.0
  0
LINE
  5
C64A
  8
0
 10
5366.3368913697440803
 20
238.3646681835423919
 30
0.0
 11
5364.4618926529428791
 21
238.3646656214424127
 31
0.0
  0
LINE
  5
C64B
  8
0
 10
5364.5022094436781117
 20
238.535205381842303
 30
0.0
 11
5364.7352694474639065
 21
238.5381060100307025
 31
0.0
  0
LINE
  5
C64C
  8
0
 10
5366.2965047773777769
 20
238.5352053791422975
 30
0.0
 11
5366.0635537240677877
 21
238.5381202028297878
 31
0.0
  0
ARC
  5
C64D
  8
0
 10
5365.2920268144262081
 20
294.2204816339692002
 30
0.0
 40
55.3975519291204819
 50
269.4283611820463875
 51
270.7938139445250272
  0
LINE
  5
C64E
  8
0
 10
5366.0017928366132764
 20
238.827476733229787
 30
0.0
 11
5366.0017928366132764
 21
238.8376228734298081
 31
0.0
  0
ARC
  5
C64F
  8
0
 10
5365.4024971433018436
 20
305.0742789484127115
 30
0.0
 40
66.2393671718231047
 50
269.4797140823673089
 51
270.5183863288273756
  0
LINE
  5
C650
  8
0
 10
5364.8010054350143037
 20
238.8376427789297907
 30
0.0
 11
5364.8010054350143037
 21
238.8251058545365879
 31
0.0
  0
LINE
  5
C651
  8
0
 10
5364.8116104516975611
 20
238.8655271200362904
 30
0.0
 11
5364.8118893672790364
 21
238.8495482214098899
 31
0.0
  0
ARC
  5
C652
  8
0
 10
5364.8236650470225868
 20
238.8488910195272013
 30
0.0
 40
0.0117940047369879
 50
176.8056305475348893
 51
255.6195210139489973
  0
LINE
  5
C653
  8
0
 10
5365.9911878198281556
 20
238.8655271200362904
 30
0.0
 11
5365.9908895879134434
 21
238.8484416007297
 31
0.0
  0
ARC
  5
C654
  8
0
 10
5365.9797960740816052
 20
238.848040804354298
 30
0.0
 40
0.0111007516354579
 50
287.5502845987671776
 51
2.069133129206604
  0
LINE
  5
C655
  8
0
 10
5337.5022107082077127
 20
238.535205381842303
 30
0.0
 11
5337.461859654107684
 21
238.4948549399422006
 31
0.0
  0
LINE
  5
C656
  8
0
 10
5337.461859654107684
 20
238.4948549399422006
 30
0.0
 11
5337.4618939174742991
 21
238.3646656214424127
 31
0.0
  0
LINE
  5
C657
  8
0
 10
5337.4618939174742991
 20
238.3646656214424127
 30
0.0
 11
5337.5022444580727097
 21
238.3243151889423075
 31
0.0
  0
LINE
  5
C658
  8
0
 10
5337.5022444580727097
 20
238.3243151889423075
 30
0.0
 11
5339.2965403031730602
 21
238.3243151822422874
 31
0.0
  0
LINE
  5
C659
  8
0
 10
5339.2965403031730602
 20
238.3243151822422874
 30
0.0
 11
5339.3368926342736813
 21
238.3646681835423919
 31
0.0
  0
LINE
  5
C65A
  8
0
 10
5339.3368926342736813
 20
238.3646681835423919
 30
0.0
 11
5339.3368583730070895
 21
238.4948523778421929
 31
0.0
  0
LINE
  5
C65B
  8
0
 10
5339.3368583730070895
 20
238.4948523778421929
 30
0.0
 11
5339.2965060419073779
 21
238.5352053791422975
 31
0.0
  0
LINE
  5
C65C
  8
0
 10
5339.2965060419073779
 20
238.5352053791422975
 30
0.0
 11
5337.5022107082077127
 21
238.535205381842303
 31
0.0
  0
LINE
  5
C65D
  8
0
 10
5337.7393370079525994
 20
238.8256868214633926
 30
0.0
 11
5337.7352296980843676
 21
238.5352053814916076
 31
0.0
  0
LINE
  5
C65E
  8
0
 10
5339.0595181583757949
 20
238.8282464496259934
 30
0.0
 11
5339.0635955455891235
 21
238.5352053794927087
 31
0.0
  0
LINE
  5
C65F
  8
0
 10
5337.461859654107684
 20
238.4948549399422006
 30
0.0
 11
5339.3368583730070895
 21
238.4948523778421929
 31
0.0
  0
LINE
  5
C660
  8
0
 10
5339.3368926342736813
 20
238.3646681835423919
 30
0.0
 11
5337.4618939174742991
 21
238.3646656214424127
 31
0.0
  0
LINE
  5
C661
  8
0
 10
5337.5022107082077127
 20
238.535205381842303
 30
0.0
 11
5337.7352707119953266
 21
238.5381060100307025
 31
0.0
  0
LINE
  5
C662
  8
0
 10
5339.2965060419073779
 20
238.5352053791422975
 30
0.0
 11
5339.0635549885992077
 21
238.5381202028297878
 31
0.0
  0
ARC
  5
C663
  8
0
 10
5338.2920280789558092
 20
294.2204816339692002
 30
0.0
 40
55.3975519291204819
 50
269.4283611820463875
 51
270.7938139445250272
  0
LINE
  5
C664
  8
0
 10
5339.0017941011428775
 20
238.827476733229787
 30
0.0
 11
5339.0017941011428775
 21
238.8376228734298081
 31
0.0
  0
ARC
  5
C665
  8
0
 10
5338.4024984078323541
 20
305.0742789484127115
 30
0.0
 40
66.2393671718231047
 50
269.4797140823673089
 51
270.5183863288273756
  0
LINE
  5
C666
  8
0
 10
5337.8010066995420857
 20
238.8376427789297907
 30
0.0
 11
5337.8010066995420857
 21
238.8251058545365879
 31
0.0
  0
LINE
  5
C667
  8
0
 10
5337.8116117162280716
 20
238.8655271200362904
 30
0.0
 11
5337.8118906318077279
 21
238.8495482214098899
 31
0.0
  0
ARC
  5
C668
  8
0
 10
5337.8236663115521878
 20
238.8488910195272865
 30
0.0
 40
0.0117940047369879
 50
176.8056305475348893
 51
255.6195210139489973
  0
LINE
  5
C669
  8
0
 10
5338.9911890843577567
 20
238.8655271200362904
 30
0.0
 11
5338.9908908524430444
 21
238.8484416007297
 31
0.0
  0
ARC
  5
C66A
  8
0
 10
5338.9797973386121157
 20
238.848040804354298
 30
0.0
 40
0.0111007516354579
 50
287.5502845987671776
 51
2.069133129206604
  0
ARC
  5
C6AC
  8
0
 10
5390.2440139476721015
 20
240.6450319872728869
 30
0.0
 40
2.6460409590474971
 50
127.8083829237728963
 51
131.0470203681801138
  0
ENDSEC
  0
EOF
