  0
SECTION
  2
HEADER
  9
$ACADVER
  1
AC1009
  9
$INSBASE
 10
5057.3126835235034378
 20
259.1840559671799724
 30
0.0
  9
$EXTMIN
 10
5055.7142583266031579
 20
259.1823893005134209
 30
0.0
  9
$EXTMAX
 10
5092.7457543896025527
 20
355.9557095105799931
 30
0.0
  9
$LIMMIN
 10
0.0
 20
0.0
  9
$LIMMAX
 10
11.6929133858000007
 20
8.2677165353999982
  9
$ORTHOMODE
 70
     1
  9
$REGENMODE
 70
     1
  9
$FILLMODE
 70
     1
  9
$QTEXTMODE
 70
     0
  9
$MIRRTEXT
 70
     0
  9
$DRAGMODE
 70
     2
  9
$LTSCALE
 40
0.6431102362
  9
$OSMODE
 70
  4095
  9
$ATTMODE
 70
     1
  9
$TEXTSIZE
 40
0.2
  9
$TRACEWID
 40
0.05
  9
$TEXTSTYLE
  7
STANDARD
  9
$CLAYER
  8
0
  9
$CELTYPE
  6
BYLAYER
  9
$CECOLOR
 62
   256
  9
$DIMSCALE
 40
1.0
  9
$DIMASZ
 40
0.1875
  9
$DIMEXO
 40
0.0625
  9
$DIMDLI
 40
0.4443307087
  9
$DIMRND
 40
0.0
  9
$DIMDLE
 40
0.0
  9
$DIMEXE
 40
0.125
  9
$DIMTP
 40
0.01
  9
$DIMTM
 40
0.01
  9
$DIMTXT
 40
2.0
  9
$DIMCEN
 40
0.1052362205
  9
$DIMTSZ
 40
0.0
  9
$DIMTOL
 70
     1
  9
$DIMLIM
 70
     0
  9
$DIMTIH
 70
     1
  9
$DIMTOH
 70
     1
  9
$DIMSE1
 70
     0
  9
$DIMSE2
 70
     0
  9
$DIMTAD
 70
     0
  9
$DIMZIN
 70
     0
  9
$DIMBLK
  1

  9
$DIMASO
 70
     1
  9
$DIMSHO
 70
     1
  9
$DIMPOST
  1
\X
  9
$DIMAPOST
  1

  9
$DIMALT
 70
     1
  9
$DIMALTD
 70
     2
  9
$DIMALTF
 40
25.3999999999999986
  9
$DIMLFAC
 40
1.0
  9
$DIMTOFL
 70
     0
  9
$DIMTVP
 40
0.0
  9
$DIMTIX
 70
     0
  9
$DIMSOXD
 70
     0
  9
$DIMSAH
 70
     0
  9
$DIMBLK1
  1

  9
$DIMBLK2
  1

  9
$DIMSTYLE
  2
STANDARD
  9
$DIMCLRD
 70
     0
  9
$DIMCLRE
 70
     0
  9
$DIMCLRT
 70
     0
  9
$DIMTFAC
 40
1.0
  9
$DIMGAP
 40
0.09
  9
$LUNITS
 70
     2
  9
$LUPREC
 70
     4
  9
$SKETCHINC
 40
0.1
  9
$FILLETRAD
 40
0.0
  9
$AUNITS
 70
     0
  9
$AUPREC
 70
     0
  9
$MENU
  1
.
  9
$ELEVATION
 40
0.0
  9
$PELEVATION
 40
0.0
  9
$THICKNESS
 40
0.0
  9
$LIMCHECK
 70
     0
  9
$BLIPMODE
 70
     0
  9
$CHAMFERA
 40
0.0
  9
$CHAMFERB
 40
0.0
  9
$SKPOLY
 70
     0
  9
$TDCREATE
 40
2458060.468368056230247
  9
$TDUPDATE
 40
2459159.4037962961010635
  9
$TDINDWG
 40
0.352946875
  9
$TDUSRTIMER
 40
0.352946875
  9
$USRTIMER
 70
     1
  9
$ANGBASE
 50
0.0
  9
$ANGDIR
 70
     0
  9
$PDMODE
 70
     0
  9
$PDSIZE
 40
0.3125
  9
$PLINEWID
 40
0.0
  9
$COORDS
 70
     1
  9
$SPLFRAME
 70
     0
  9
$SPLINETYPE
 70
     6
  9
$SPLINESEGS
 70
     8
  9
$ATTDIA
 70
     1
  9
$ATTREQ
 70
     1
  9
$HANDLING
 70
     1
  9
$HANDSEED
  5
D01D
  9
$SURFTAB1
 70
     6
  9
$SURFTAB2
 70
     6
  9
$SURFTYPE
 70
     6
  9
$SURFU
 70
     6
  9
$SURFV
 70
     6
  9
$UCSNAME
  2

  9
$UCSORG
 10
0.0
 20
0.0
 30
0.0
  9
$UCSXDIR
 10
1.0
 20
0.0
 30
0.0
  9
$UCSYDIR
 10
0.0
 20
1.0
 30
0.0
  9
$PUCSNAME
  2

  9
$PUCSORG
 10
0.0
 20
0.0
 30
0.0
  9
$PUCSXDIR
 10
1.0
 20
0.0
 30
0.0
  9
$PUCSYDIR
 10
0.0
 20
1.0
 30
0.0
  9
$USERI1
 70
     0
  9
$USERI2
 70
     0
  9
$USERI3
 70
     0
  9
$USERI4
 70
     0
  9
$USERI5
 70
     0
  9
$USERR1
 40
0.0
  9
$USERR2
 40
0.0
  9
$USERR3
 40
0.0
  9
$USERR4
 40
0.0
  9
$USERR5
 40
0.0
  9
$WORLDVIEW
 70
     1
  9
$SHADEDGE
 70
     3
  9
$SHADEDIF
 70
    70
  9
$TILEMODE
 70
     1
  9
$MAXACTVP
 70
    64
  9
$PLIMCHECK
 70
     0
  9
$PEXTMIN
 10
1.0000000000000000E+20
 20
1.0000000000000000E+20
 30
1.0000000000000000E+20
  9
$PEXTMAX
 10
-1.0000000000000000E+20
 20
-1.0000000000000000E+20
 30
-1.0000000000000000E+20
  9
$PLIMMIN
 10
0.0
 20
0.0
  9
$PLIMMAX
 10
12.0
 20
9.0
  9
$UNITMODE
 70
     0
  9
$VISRETAIN
 70
     1
  9
$PLINEGEN
 70
     0
  9
$PSLTSCALE
 70
     1
  0
ENDSEC
  0
SECTION
  2
TABLES
  0
TABLE
  2
VPORT
 70
     1
  0
VPORT
  2
*ACTIVE
 70
     0
 10
0.0
 20
0.0
 11
1.0
 21
1.0
 12
0.0
 22
0.0
 13
0.0
 23
0.0
 14
1.0
 24
1.0
 15
0.0
 25
0.0
 16
0.0
 26
0.0
 36
293.5950942248493902
 17
5074.22998046875
 27
307.5690541473269946
 37
0.0
 40
103.6391140522380994
 41
2.1186252771618621
 42
50.0
 43
0.0
 44
0.0
 50
0.0
 51
0.0
 71
     0
 72
   100
 73
     1
 74
     1
 75
     0
 76
     0
 77
     0
 78
     0
  0
ENDTAB
  0
TABLE
  2
LTYPE
 70
     2
  0
LTYPE
  2
CONTINUOUS
 70
     0
  3
Solid line
 72
    65
 73
     0
 40
0.0
  0
LTYPE
  2
PHANTOM2
 70
     0
  3
___ _ _ ___ _ _ ___ _ _ ___ _ _
 72
    65
 73
     6
 40
1.25
 49
0.625
 49
-0.125
 49
0.125
 49
-0.125
 49
0.125
 49
-0.125
  0
ENDTAB
  0
TABLE
  2
LAYER
 70
     2
  0
LAYER
  2
0
 70
     0
 62
   255
  6
CONTINUOUS
  0
LAYER
  2
DEFPOINTS
 70
     0
 62
     7
  6
CONTINUOUS
  0
ENDTAB
  0
TABLE
  2
STYLE
 70
     1
  0
STYLE
  2
STANDARD
 70
     0
 40
0.0
 41
0.8
 50
0.0
 71
     0
 42
0.2
  3
txt
  4

  0
ENDTAB
  0
TABLE
  2
VIEW
 70
     0
  0
ENDTAB
  0
TABLE
  2
UCS
 70
     0
  0
ENDTAB
  0
TABLE
  2
APPID
 70
     9
  0
APPID
  2
ACAD
 70
     0
  0
APPID
  2
ACAD_MLEADERVER
 70
     0
  0
APPID
  2
ACAD_EXEMPT_FROM_CAD_STANDARDS
 70
     0
  0
APPID
  2
ACAD_NAV_VCDISPLAY
 70
     0
  0
APPID
  2
ACAECLAYERSTANDARD
 70
     0
  0
APPID
  2
ACCMTRANSPARENCY
 70
     0
  0
APPID
  2
ACAD_DSTYLE_DIMJAG
 70
     0
  0
APPID
  2
ACAD_DSTYLE_DIMTALN
 70
     0
  0
APPID
  2
ACDBATTR
 70
     0
  0
ENDTAB
  0
TABLE
  2
DIMSTYLE
 70
     1
  0
DIMSTYLE
  2
STANDARD
 70
     0
  3

  4

  5

  6

  7

 40
1.0
 41
0.1875
 42
0.0625
 43
0.38
 44
0.125
 45
0.0
 46
0.0
 47
0.01
 48
0.01
140
0.15625
141
0.09
142
0.0
143
25.3999999999999986
144
1.0
145
0.0
146
1.0
147
0.09
 71
     1
 72
     0
 73
     1
 74
     1
 75
     0
 76
     0
 77
     0
 78
     4
170
     0
171
     2
172
     0
173
     0
174
     0
175
     0
176
     0
177
     0
178
     0
  0
ENDTAB
  0
ENDSEC
  0
SECTION
  2
BLOCKS
  0
BLOCK
  8
0
  2
$MODEL_SPACE
 70
     0
 10
0.0
 20
0.0
 30
0.0
  3
$MODEL_SPACE
  1

  0
ENDBLK
  5
21
  8
0
  0
BLOCK
 67
     1
  8
0
  2
$PAPER_SPACE
 70
     0
 10
0.0
 20
0.0
 30
0.0
  3
$PAPER_SPACE
  1

  0
ENDBLK
  5
1D
 67
     1
  8
0
  0
ENDSEC
  0
SECTION
  2
ENTITIES
  0
ATTDEF
  5
3930
  8
DEFPOINTS
 10
5057.2909159311557232
 20
259.1857226338466944
 30
0.0
 40
0.001
  1
K-704603T-FM
  3

  2
MODELNUMBER
 70
     0
1001
ACDBATTR
1070
     0
1070
     1
  0
ATTDEF
  5
3931
  8
DEFPOINTS
 10
5057.2909159311557232
 20
259.1840559671799724
 30
0.0
 40
0.001
  1
PURIST
  3

  2
TRADENAME
 70
     0
1001
ACDBATTR
1070
     0
1070
     1
  0
ATTDEF
  5
3932
  8
DEFPOINTS
 10
5057.2909159311557232
 20
259.1823893005134209
 30
0.0
 40
0.001
  1
SHOWER DOOR
  3

  2
PRODUCT
 70
     0
1001
ACDBATTR
1070
     0
1070
     1
  0
LINE
  5
CF27
  8
0
 10
5057.3126835235034378
 20
259.1840559671799724
 30
0.0
 11
5092.7457543896025527
 21
259.1840559671799724
 31
0.0
  0
LINE
  5
CF28
  8
0
 10
5057.3126835235034378
 20
261.5462606916801178
 30
0.0
 11
5092.7457543896025527
 21
261.5462606916801178
 31
0.0
  0
LINE
  5
CF29
  8
0
 10
5058.1788252558026215
 20
262.2549221089799971
 30
0.0
 11
5092.7457543896025527
 21
262.2549221089799971
 31
0.0
  0
LINE
  5
CF2A
  8
0
 10
5057.3126835235034378
 20
259.1840559671799724
 30
0.0
 11
5057.3126835235034378
 21
261.5462606916801178
 31
0.0
  0
LINE
  5
CF2B
  8
0
 10
5058.1788252551041296
 20
354.9911414128799834
 30
0.0
 11
5058.1788258217029579
 21
355.9360244687799764
 31
0.0
  0
LINE
  5
CF2C
  8
0
 10
5058.1788252558026215
 20
261.5462606916801178
 30
0.0
 11
5058.1788252558026215
 21
262.2352370695800801
 31
0.0
  0
LINE
  5
CF2D
  8
0
 10
5058.1788252558026215
 20
262.2549221089799971
 30
0.0
 11
5058.1788252558026215
 21
354.9714575420800884
 31
0.0
  0
LINE
  5
CF2E
  8
0
 10
5058.1866992715031301
 20
354.9714575420800884
 30
0.0
 11
5058.1866992715031301
 21
262.2549221089799971
 31
0.0
  0
LINE
  5
CF2F
  8
0
 10
5059.7536284054021962
 20
354.9714575420800884
 30
0.0
 11
5059.7536284054021962
 21
262.2549221089799971
 31
0.0
  0
LINE
  5
CF30
  8
0
 10
5060.107959114003279
 20
262.2549221089799971
 30
0.0
 11
5060.107959114003279
 21
261.5462606916801178
 31
0.0
  0
LINE
  5
CF31
  8
0
 10
5091.7615024211027048
 20
262.2549221089799971
 30
0.0
 11
5091.7615024211027048
 21
354.9714575420800884
 31
0.0
  0
LINE
  5
CF32
  8
0
 10
5092.7457543896025527
 20
355.9557095105799931
 30
0.0
 11
5092.7457543896025527
 21
259.1840559671799724
 31
0.0
  0
LINE
  5
CF33
  8
0
 10
5092.7457543896025527
 20
354.9714563796800917
 30
0.0
 11
5058.1788252558026215
 21
354.9714563796800917
 31
0.0
  0
LINE
  5
CF34
  8
0
 10
5058.1985108888038667
 20
355.9557095105799931
 30
0.0
 11
5092.7457543896025527
 21
355.9557095105799931
 31
0.0
  0
ARC
  5
CF35
  8
0
 10
5058.1987204978158843
 20
262.2351563804691068
 30
0.0
 40
0.0198954056385262
 50
96.5452930639541052
 51
179.7676268446186043
  0
ARC
  5
CF36
  8
0
 10
5058.1988965560640281
 20
354.991527680772208
 30
0.0
 40
0.0200750174384714
 50
181.1025089208783925
 51
268.8975105103768897
  0
ARC
  5
CF37
  8
0
 10
5058.1994987068692353
 20
355.9350366241444021
 30
0.0
 40
0.0206964735669741
 50
92.7356987484734816
 51
177.2642276126732952
  0
LINE
  5
CF38
  8
0
 10
5055.72608148350173
 20
289.9911425813800179
 30
0.0
 11
5057.0803879255026914
 21
289.9911425813800179
 31
0.0
  0
LINE
  5
CF39
  8
0
 10
5058.1788252557016676
 20
291.9498039986801246
 30
0.0
 11
5056.8192322597033126
 21
291.9498039986801246
 31
0.0
  0
LINE
  5
CF3A
  8
0
 10
5056.8192322674030947
 20
293.0718512427799851
 30
0.0
 11
5058.1788252557016676
 21
293.0718512427799851
 31
0.0
  0
LINE
  5
CF3B
  8
0
 10
5055.7142583266031579
 20
290.0029536049800072
 30
0.0
 11
5055.7142583266031579
 21
312.7352370695800801
 31
0.0
  0
LINE
  5
CF3C
  8
0
 10
5056.8031609306017344
 20
291.9616148817801218
 30
0.0
 11
5056.8031609427025614
 21
293.0600400132801155
 31
0.0
  0
LINE
  5
CF3D
  8
0
 10
5057.0922110825031268
 20
290.0029536049800072
 30
0.0
 11
5057.0922110825031268
 21
291.9498039986801246
 31
0.0
  0
LINE
  5
CF3E
  8
0
 10
5057.0922110825031268
 20
293.0718512427799851
 30
0.0
 11
5057.0922110825031268
 21
309.6663394317801021
 31
0.0
  0
LINE
  5
CF3F
  8
0
 10
5057.0922110825031268
 20
310.7883866758800195
 30
0.0
 11
5057.0922110825031268
 21
312.7352370695800801
 31
0.0
  0
LINE
  5
CF40
  8
0
 10
5055.7261765429029765
 20
312.7470480931801262
 30
0.0
 11
5057.080292862202441
 21
312.7470480931801262
 31
0.0
  0
ARC
  5
CF41
  8
0
 10
5057.0804000589041607
 20
290.0029536049800072
 30
0.0
 40
0.0118110236
 50
270.0
 51
0.0
  0
ARC
  5
CF42
  8
0
 10
5055.7260693502030335
 20
290.0029536049800072
 30
0.0
 40
0.0118110236
 50
180.0
 51
270.0
  0
ARC
  5
CF43
  8
0
 10
5055.7260693502030335
 20
312.7352370695800801
 30
0.0
 40
0.0118110236
 50
89.7229096702189537
 51
180.0
  0
ARC
  5
CF44
  8
0
 10
5057.0804000589041607
 20
312.7352370695800801
 30
0.0
 40
0.0118110236
 50
0.0
 51
90.2771097443956023
  0
ARC
  5
CF45
  8
0
 10
5056.8140361383211712
 20
291.9622579274748091
 30
0.0
 40
0.0108942026177642
 50
183.383931246655294
 51
241.1727307214578104
  0
ARC
  5
CF46
  8
0
 10
5056.8190631628185656
 20
291.9694128438214875
 30
0.0
 40
0.0196095742314179
 50
238.3837067472971114
 51
270.4940779293328887
  0
ARC
  5
CF47
  8
0
 10
5056.8140361039786512
 20
293.0593970040608269
 30
0.0
 40
0.0108941541037523
 50
118.8272035429888973
 51
176.6162458372508866
  0
ARC
  5
CF48
  8
0
 10
5056.8201586662653426
 20
293.0483108909226075
 30
0.0
 40
0.0235585733953655
 50
92.2536353552157493
 51
118.8720836063067026
  0
LINE
  5
CF49
  8
0
 10
5058.1788251978532571
 20
309.666339605380017
 30
0.0
 11
5056.8192322018530831
 21
309.666339605380017
 31
0.0
  0
LINE
  5
CF4A
  8
0
 10
5056.8192322095519557
 20
310.788386849480105
 30
0.0
 11
5058.1788251978532571
 21
310.788386849480105
 31
0.0
  0
LINE
  5
CF4B
  8
0
 10
5056.8031608727533239
 20
309.6781504884800142
 30
0.0
 11
5056.8031608848541509
 21
310.7765756199801217
 31
0.0
  0
ARC
  5
CF4C
  8
0
 10
5056.8140360804709417
 20
309.6787935341748152
 30
0.0
 40
0.0108942026177642
 50
183.383931246655294
 51
241.1727307214578104
  0
ARC
  5
CF4D
  8
0
 10
5056.8190631049701551
 20
309.6859484505214937
 30
0.0
 40
0.0196095742314179
 50
238.3837067472971114
 51
270.4940779293328887
  0
ARC
  5
CF4E
  8
0
 10
5056.8140360461293312
 20
310.7759326107607194
 30
0.0
 40
0.0108941541037523
 50
118.8272035429888973
 51
176.6162458372508866
  0
ARC
  5
CF4F
  8
0
 10
5056.8201586084169321
 20
310.7648464976226137
 30
0.0
 40
0.0235585733953655
 50
92.2536353552157493
 51
118.8720836063067026
  0
ENDSEC
  0
EOF
