  0
SECTION
  2
HEADER
  9
$ACADVER
  1
AC1009
  9
$INSBASE
 10
4598.1323872977227438
 20
115.3608272417046976
 30
0.0
  9
$EXTMIN
 10
4537.9130619475072308
 20
111.8758615136047041
 30
0.0
  9
$EXTMAX
 10
4623.7229452321798817
 20
146.4543478116887059
 30
0.0
  9
$LIMMIN
 10
0.0
 20
0.0
  9
$LIMMAX
 10
11.6929133858000007
 20
8.2677165353999982
  9
$ORTHOMODE
 70
     0
  9
$REGENMODE
 70
     1
  9
$FILLMODE
 70
     1
  9
$QTEXTMODE
 70
     0
  9
$MIRRTEXT
 70
     0
  9
$DRAGMODE
 70
     2
  9
$LTSCALE
 40
0.6431102362
  9
$OSMODE
 70
  2039
  9
$ATTMODE
 70
     1
  9
$TEXTSIZE
 40
0.2
  9
$TRACEWID
 40
0.05
  9
$TEXTSTYLE
  7
STANDARD
  9
$CLAYER
  8
0
  9
$CELTYPE
  6
BYLAYER
  9
$CECOLOR
 62
   256
  9
$DIMSCALE
 40
1.0
  9
$DIMASZ
 40
0.1875
  9
$DIMEXO
 40
0.0625
  9
$DIMDLI
 40
0.4443307087
  9
$DIMRND
 40
0.0
  9
$DIMDLE
 40
0.0
  9
$DIMEXE
 40
0.125
  9
$DIMTP
 40
0.01
  9
$DIMTM
 40
0.01
  9
$DIMTXT
 40
2.0
  9
$DIMCEN
 40
0.1052362205
  9
$DIMTSZ
 40
0.0
  9
$DIMTOL
 70
     1
  9
$DIMLIM
 70
     0
  9
$DIMTIH
 70
     1
  9
$DIMTOH
 70
     1
  9
$DIMSE1
 70
     0
  9
$DIMSE2
 70
     0
  9
$DIMTAD
 70
     0
  9
$DIMZIN
 70
     0
  9
$DIMBLK
  1

  9
$DIMASO
 70
     1
  9
$DIMSHO
 70
     1
  9
$DIMPOST
  1
\X
  9
$DIMAPOST
  1

  9
$DIMALT
 70
     1
  9
$DIMALTD
 70
     2
  9
$DIMALTF
 40
25.3999999999999986
  9
$DIMLFAC
 40
1.0
  9
$DIMTOFL
 70
     0
  9
$DIMTVP
 40
0.0
  9
$DIMTIX
 70
     0
  9
$DIMSOXD
 70
     0
  9
$DIMSAH
 70
     0
  9
$DIMBLK1
  1

  9
$DIMBLK2
  1

  9
$DIMSTYLE
  2
STANDARD
  9
$DIMCLRD
 70
     0
  9
$DIMCLRE
 70
     0
  9
$DIMCLRT
 70
     0
  9
$DIMTFAC
 40
1.0
  9
$DIMGAP
 40
0.09
  9
$LUNITS
 70
     2
  9
$LUPREC
 70
     4
  9
$SKETCHINC
 40
0.1
  9
$FILLETRAD
 40
0.0
  9
$AUNITS
 70
     0
  9
$AUPREC
 70
     0
  9
$MENU
  1
.
  9
$ELEVATION
 40
0.0
  9
$PELEVATION
 40
0.0
  9
$THICKNESS
 40
0.0
  9
$LIMCHECK
 70
     0
  9
$BLIPMODE
 70
     0
  9
$CHAMFERA
 40
0.0
  9
$CHAMFERB
 40
0.0
  9
$SKPOLY
 70
     0
  9
$TDCREATE
 40
2458060.468368056230247
  9
$TDUPDATE
 40
2459580.5449999999254942
  9
$TDINDWG
 40
0.4493357639
  9
$TDUSRTIMER
 40
0.4493357639
  9
$USRTIMER
 70
     1
  9
$ANGBASE
 50
0.0
  9
$ANGDIR
 70
     0
  9
$PDMODE
 70
     0
  9
$PDSIZE
 40
0.3125
  9
$PLINEWID
 40
0.0
  9
$COORDS
 70
     1
  9
$SPLFRAME
 70
     0
  9
$SPLINETYPE
 70
     6
  9
$SPLINESEGS
 70
     8
  9
$ATTDIA
 70
     1
  9
$ATTREQ
 70
     1
  9
$HANDLING
 70
     1
  9
$HANDSEED
  5
B20E
  9
$SURFTAB1
 70
     6
  9
$SURFTAB2
 70
     6
  9
$SURFTYPE
 70
     6
  9
$SURFU
 70
     6
  9
$SURFV
 70
     6
  9
$UCSNAME
  2

  9
$UCSORG
 10
0.0
 20
0.0
 30
0.0
  9
$UCSXDIR
 10
1.0
 20
0.0
 30
0.0
  9
$UCSYDIR
 10
0.0
 20
1.0
 30
0.0
  9
$PUCSNAME
  2

  9
$PUCSORG
 10
0.0
 20
0.0
 30
0.0
  9
$PUCSXDIR
 10
1.0
 20
0.0
 30
0.0
  9
$PUCSYDIR
 10
0.0
 20
1.0
 30
0.0
  9
$USERI1
 70
     0
  9
$USERI2
 70
     0
  9
$USERI3
 70
     0
  9
$USERI4
 70
     0
  9
$USERI5
 70
     0
  9
$USERR1
 40
0.0
  9
$USERR2
 40
0.0
  9
$USERR3
 40
0.0
  9
$USERR4
 40
0.0
  9
$USERR5
 40
0.0
  9
$WORLDVIEW
 70
     1
  9
$SHADEDGE
 70
     3
  9
$SHADEDIF
 70
    70
  9
$TILEMODE
 70
     1
  9
$MAXACTVP
 70
    64
  9
$PLIMCHECK
 70
     0
  9
$PEXTMIN
 10
1.0000000000000000E+20
 20
1.0000000000000000E+20
 30
1.0000000000000000E+20
  9
$PEXTMAX
 10
-1.0000000000000000E+20
 20
-1.0000000000000000E+20
 30
-1.0000000000000000E+20
  9
$PLIMMIN
 10
0.0
 20
0.0
  9
$PLIMMAX
 10
12.0
 20
9.0
  9
$UNITMODE
 70
     0
  9
$VISRETAIN
 70
     1
  9
$PLINEGEN
 70
     0
  9
$PSLTSCALE
 70
     1
  0
ENDSEC
  0
SECTION
  2
TABLES
  0
TABLE
  2
VPORT
 70
     1
  0
VPORT
  2
*ACTIVE
 70
     0
 10
0.0
 20
0.0
 11
1.0
 21
1.0
 12
862.5174420805866475
 22
-13.8802916049297593
 13
0.0
 23
0.0
 14
1.0
 24
1.0
 15
0.0
 25
0.0
 16
0.0
 26
0.0
 36
17.1152628219792007
 17
3803.5440673828129547
 27
125.9952621967499056
 37
0.0
 40
191.9904207011022095
 41
2.2866666666666662
 42
50.0
 43
0.0
 44
0.0
 50
0.0
 51
0.0
 71
     0
 72
   100
 73
     1
 74
     1
 75
     0
 76
     0
 77
     0
 78
     0
  0
ENDTAB
  0
TABLE
  2
LTYPE
 70
     2
  0
LTYPE
  2
CONTINUOUS
 70
     0
  3
Solid line
 72
    65
 73
     0
 40
0.0
  0
LTYPE
  2
PHANTOM2
 70
     0
  3
___ _ _ ___ _ _ ___ _ _ ___ _ _
 72
    65
 73
     6
 40
1.25
 49
0.625
 49
-0.125
 49
0.125
 49
-0.125
 49
0.125
 49
-0.125
  0
ENDTAB
  0
TABLE
  2
LAYER
 70
     2
  0
LAYER
  2
0
 70
     0
 62
   255
  6
CONTINUOUS
  0
LAYER
  2
DEFPOINTS
 70
     0
 62
     7
  6
CONTINUOUS
  0
ENDTAB
  0
TABLE
  2
STYLE
 70
     1
  0
STYLE
  2
STANDARD
 70
     0
 40
0.0
 41
0.8
 50
0.0
 71
     0
 42
0.2
  3
txt
  4

  0
ENDTAB
  0
TABLE
  2
VIEW
 70
     0
  0
ENDTAB
  0
TABLE
  2
UCS
 70
     0
  0
ENDTAB
  0
TABLE
  2
APPID
 70
     9
  0
APPID
  2
ACAD
 70
     0
  0
APPID
  2
ACAD_MLEADERVER
 70
     0
  0
APPID
  2
ACAD_EXEMPT_FROM_CAD_STANDARDS
 70
     0
  0
APPID
  2
ACAD_NAV_VCDISPLAY
 70
     0
  0
APPID
  2
ACAECLAYERSTANDARD
 70
     0
  0
APPID
  2
ACCMTRANSPARENCY
 70
     0
  0
APPID
  2
ACAD_DSTYLE_DIMJAG
 70
     0
  0
APPID
  2
ACAD_DSTYLE_DIMTALN
 70
     0
  0
APPID
  2
ACDBATTR
 70
     0
  0
ENDTAB
  0
TABLE
  2
DIMSTYLE
 70
     1
  0
DIMSTYLE
  2
STANDARD
 70
     0
  3

  4

  5

  6

  7

 40
1.0
 41
0.1875
 42
0.0625
 43
0.38
 44
0.125
 45
0.0
 46
0.0
 47
0.01
 48
0.01
140
0.15625
141
0.09
142
0.0
143
25.3999999999999986
144
1.0
145
0.0
146
1.0
147
0.09
 71
     1
 72
     0
 73
     1
 74
     1
 75
     0
 76
     0
 77
     0
 78
     4
170
     0
171
     2
172
     0
173
     0
174
     0
175
     0
176
     0
177
     0
178
     0
  0
ENDTAB
  0
ENDSEC
  0
SECTION
  2
BLOCKS
  0
BLOCK
  8
0
  2
$MODEL_SPACE
 70
     0
 10
0.0
 20
0.0
 30
0.0
  3
$MODEL_SPACE
  1

  0
ENDBLK
  5
21
  8
0
  0
BLOCK
 67
     1
  8
0
  2
$PAPER_SPACE
 70
     0
 10
0.0
 20
0.0
 30
0.0
  3
$PAPER_SPACE
  1

  0
ENDBLK
  5
1D
 67
     1
  8
0
  0
BLOCK
  8
0
  2
_FILLED
 70
     0
 10
0.0
 20
0.0
 30
0.0
  3
_FILLED
  1

  0
SOLID
  5
A877
  8
0
  6
BYBLOCK
 62
     0
 10
0.0
 20
0.0
 30
0.0
 11
-1.0
 21
0.1666666667
 31
0.0
 12
-1.0
 22
-0.1666666667
 32
0.0
 13
-1.0
 23
-0.1666666667
 33
0.0
  0
ENDBLK
  5
A878
  8
0
  6
BYBLOCK
 62
     0
  0
ENDSEC
  0
SECTION
  2
ENTITIES
  0
ATTDEF
  5
AB47
  8
DEFPOINTS
 10
4598.1345197208011086
 20
115.366470798836005
 30
0.0
 40
0.001
  1
K-705017T-FM
  3

  2
MODELNUMBER
 70
     0
1001
ACDBATTR
1070
     0
1070
     1
  0
ATTDEF
  5
AB48
  8
DEFPOINTS
 10
4598.1345197208011086
 20
115.3648041321693967
 30
0.0
 40
0.001
  1
MAXISPACE
  3

  2
TRADENAME
 70
     0
1001
ACDBATTR
1070
     0
1070
     1
  0
ATTDEF
  5
AB49
  8
DEFPOINTS
 10
4598.1345197208011086
 20
115.3631374655027031
 30
0.0
 40
0.001
  1
SHOWER DOOR
  3

  2
PRODUCT
 70
     0
1001
ACDBATTR
1070
     0
1070
     1
  0
ARC
  5
B107
  8
0
 10
4572.6914356624665743
 20
116.7072636628047064
 30
0.0
 40
0.031496063000013
 50
90.0
 51
179.9999998180564091
  0
ARC
  5
B108
  8
0
 10
4572.5536402759798875
 20
116.6601159157653029
 30
0.0
 40
0.0118108242399462
 50
89.9994620735671589
 51
179.9979444909315873
  0
LINE
  5
B109
  8
0
 10
4572.6599395994671795
 20
116.7072636628047064
 30
0.0
 11
4572.6599395994671795
 21
114.0143908207047048
 31
0.0
  0
LINE
  5
B10A
  8
0
 10
4572.6599395994671795
 20
114.0499200396047002
 30
0.0
 11
4572.5536403871674338
 21
114.0499200396047002
 31
0.0
  0
LINE
  5
B10B
  8
0
 10
4572.5418293632683344
 20
114.0617310640047037
 30
0.0
 11
4572.541829451749436
 21
116.6601163394833947
 31
0.0
  0
LINE
  5
B10C
  8
0
 10
4572.5536403872411029
 20
116.6719267400046931
 30
0.0
 11
4572.6599395994671795
 21
116.6719267400046931
 31
0.0
  0
LINE
  5
B10D
  8
0
 10
4572.6914356625684377
 20
116.7387597258046981
 30
0.0
 11
4574.1756885382674227
 21
116.7387597258046981
 31
0.0
  0
ARC
  5
B10E
  8
0
 10
4572.5536403868673005
 20
114.0617310632048031
 30
0.0
 40
0.0118110236000142
 50
179.9999961192689
 51
269.9999980595201237
  0
ARC
  5
B10F
  8
0
 10
4572.6914356624665743
 20
114.0143908206048025
 30
0.0
 40
0.0314960629999952
 50
180.0000000000252101
 51
269.9999998180833245
  0
LINE
  5
B110
  8
0
 10
4572.6914356624665743
 20
113.9828947576046971
 30
0.0
 11
4574.1756885381682878
 21
113.9828947576046971
 31
0.0
  0
ARC
  5
B111
  8
0
 10
4574.1756885382674227
 20
116.6993896471047947
 30
0.0
 40
0.0393700786999922
 50
0.0000001455446249
 51
90.0000002910875878
  0
LINE
  5
B112
  8
0
 10
4574.2150586169664166
 20
116.6993896471047947
 30
0.0
 11
4574.2150586169664166
 21
114.0222648364995024
 31
0.0
  0
ARC
  5
B113
  8
0
 10
4574.1756885380973472
 20
114.0222648364755003
 30
0.0
 40
0.0393700788707321
 50
270.0000001029176815
 51
359.9999998894588202
  0
LINE
  5
B114
  8
0
 10
4574.2150586170673705
 20
114.0419498758047041
 30
0.0
 11
4622.0497042862680246
 21
114.0419498758047041
 31
0.0
  0
LINE
  5
B115
  8
0
 10
4574.2150586169664166
 20
114.3608471080048048
 30
0.0
 11
4622.4391853120696396
 21
114.3608471080047053
 31
0.0
  0
ARC
  5
B116
  8
0
 10
4622.0615081899213692
 20
114.3332953276507027
 30
0.0
 40
0.0118039058014543
 50
89.9654395235060775
 51
180.0345609617141065
  0
LINE
  5
B117
  8
0
 10
4622.061516523366663
 20
114.3450973592047006
 30
0.0
 11
4622.4119090107669763
 21
114.3450992313048005
 31
0.0
  0
LINE
  5
B118
  8
0
 10
4622.4434050737672806
 20
114.3765952943047068
 30
0.0
 11
4622.4434050737672806
 21
116.6993895637047984
 31
0.0
  0
LINE
  5
B119
  8
0
 10
4622.4271566969582636
 20
114.3490360844047018
 30
0.0
 11
4574.2150586170673705
 21
114.3490360844047018
 31
0.0
  0
LINE
  5
B11A
  8
0
 10
4574.2150586169664166
 20
114.3372250608046983
 30
0.0
 11
4622.0497042862680246
 21
114.3372250608046983
 31
0.0
  0
LINE
  5
B11B
  8
0
 10
4622.0497042862680246
 20
114.3372250608046983
 30
0.0
 11
4622.0497042862680246
 21
114.3490360844047018
 31
0.0
  0
LINE
  5
B11C
  8
0
 10
4622.0497042862680246
 20
114.3332882075047934
 30
0.0
 11
4622.0497042862680246
 21
114.0222648366047054
 31
0.0
  0
LINE
  5
B11D
  8
0
 10
4622.0890743650661534
 20
113.9828947576046971
 30
0.0
 11
4623.6127091225671393
 21
113.9828947576046971
 31
0.0
  0
ARC
  5
B11E
  8
0
 10
4622.0890743651561934
 20
114.0222648365936067
 30
0.0
 40
0.0393700788888722
 50
180.0000002748739973
 51
269.9999998625332864
  0
ARC
  5
B11F
  8
0
 10
4622.4119090107669763
 20
114.3765952943047068
 30
0.0
 40
0.0314960629999845
 50
270.0
 51
359.999999990421486
  0
ARC
  5
B120
  8
0
 10
4623.6127091226662742
 20
116.7072636628047064
 30
0.0
 40
0.031496063000013
 50
0.0000001819436051
 51
90.0
  0
ARC
  5
B121
  8
0
 10
4623.7111343194674191
 20
116.6600667829648046
 30
0.0
 40
0.0118108242399462
 50
0.0020555090683283
 51
90.0005379264328553
  0
LINE
  5
B122
  8
0
 10
4623.6442051856683975
 20
116.7072636628047064
 30
0.0
 11
4623.6442051856683975
 21
114.0143908207047048
 31
0.0
  0
LINE
  5
B123
  8
0
 10
4623.6442051856683975
 20
114.0498709068042018
 30
0.0
 11
4623.7111342082807823
 21
114.0498709068042018
 31
0.0
  0
LINE
  5
B124
  8
0
 10
4623.7229452321798817
 20
114.0616819312042054
 30
0.0
 11
4623.7229451436996897
 21
116.6600672066828963
 31
0.0
  0
LINE
  5
B125
  8
0
 10
4623.7111342082052943
 20
116.6718776072041948
 30
0.0
 11
4623.6442051856683975
 21
116.6718776072041948
 31
0.0
  0
ARC
  5
B126
  8
0
 10
4623.7111342085800061
 20
114.0616819304042053
 30
0.0
 40
0.0118110236000142
 50
270.0000019404798763
 51
0.0000038807310473
  0
ARC
  5
B127
  8
0
 10
4623.6127091226662742
 20
114.0143908206048025
 30
0.0
 40
0.0314960629999952
 50
270.0000001819166755
 51
359.9999999999740226
  0
ARC
  5
B128
  8
0
 10
4622.4827751524671839
 20
116.6993895637047984
 30
0.0
 40
0.0393700787000029
 50
90.000000000260556
 51
180.0
  0
LINE
  5
B129
  8
0
 10
4622.4827751525672284
 20
116.7387596424047018
 30
0.0
 11
4623.6127091203434247
 21
116.7387597258046981
 31
0.0
  0
LINE
  5
B12A
  8
0
 10
4622.4434050737672806
 20
116.6797045643046999
 30
0.0
 11
4574.2150586170673705
 21
116.6797045643046999
 31
0.0
  0
LINE
  5
B12B
  8
0
 10
4595.8688858379673547
 20
116.6797045643046999
 30
0.0
 11
4595.8688858379673547
 21
116.6954361419046933
 31
0.0
  0
LINE
  5
B12C
  8
0
 10
4595.8688858379673547
 20
116.6954361419046933
 30
0.0
 11
4595.9476259954662964
 21
116.6954361419046933
 31
0.0
  0
LINE
  5
B12D
  8
0
 10
4595.9476259954662964
 20
116.6954361419046933
 30
0.0
 11
4595.9476259956672948
 21
116.7348059069046968
 31
0.0
  0
ARC
  5
B12E
  8
0
 10
4595.8885708772249927
 20
116.7348062202619019
 30
0.0
 40
0.0590551184428538
 50
359.9996959782220074
 51
90.0000227591332873
  0
LINE
  5
B12F
  8
0
 10
4595.8885708537673054
 20
116.7938613387047013
 30
0.0
 11
4594.6090433182671404
 21
116.7938613387047013
 31
0.0
  0
LINE
  5
B130
  8
0
 10
4594.5893582788667118
 20
116.7741762994047008
 30
0.0
 11
4594.5893582789676657
 21
116.6993714385046985
 31
0.0
  0
LINE
  5
B131
  8
0
 10
4594.5893582789676657
 20
116.6993714385046985
 30
0.0
 11
4594.7214082941682136
 21
116.6993714383046949
 31
0.0
  0
LINE
  5
B132
  8
0
 10
4594.7214082941682136
 20
116.6993714383046949
 30
0.0
 11
4594.729457170367823
 21
116.6797045643046999
 31
0.0
  0
ARC
  5
B133
  8
0
 10
4594.6090433180252148
 20
116.7741762996462001
 30
0.0
 40
0.0196850390585728
 50
89.9999992972938401
 51
180.0000007027068989
  0
ARC
  5
B134
  8
0
 10
4595.6523504048682298
 20
116.9710266931047045
 30
0.0
 40
0.0196850394000023
 50
0.0
 51
90.0
  0
LINE
  5
B135
  8
0
 10
4595.672035444267749
 20
116.9710266931047045
 30
0.0
 11
4595.672035444267749
 21
116.7938613387047013
 31
0.0
  0
ARC
  5
B136
  8
0
 10
4594.9043189088661165
 20
116.9710266931047045
 30
0.0
 40
0.0196850394000023
 50
90.0
 51
180.0
  0
LINE
  5
B137
  8
0
 10
4594.8846338694684164
 20
116.9710266931047045
 30
0.0
 11
4594.8846338694684164
 21
116.7938613387047013
 31
0.0
  0
LINE
  5
B138
  8
0
 10
4594.9043189088661165
 20
116.9907117325047068
 30
0.0
 11
4595.6523504048682298
 21
116.9907117325047068
 31
0.0
  0
LINE
  5
B139
  8
0
 10
4595.8688858379673547
 20
116.6875394815047002
 30
0.0
 11
4622.0014354605673361
 21
116.6875394815047002
 31
0.0
  0
LINE
  5
B13A
  8
0
 10
4622.0260875599678911
 20
116.6877301650046945
 30
0.0
 11
4622.1363184595666098
 21
116.6877301650046945
 31
0.0
  0
ARC
  5
B13B
  8
0
 10
4622.0014529572799802
 20
116.6757839351198953
 30
0.0
 40
0.0117555593057374
 50
19.4821258062143308
 51
90.0852777969323739
  0
ARC
  5
B13C
  8
0
 10
4622.0260875599669816
 20
116.6759191414047052
 30
0.0
 40
0.0118110236000087
 50
90.0000000000521254
 51
161.3068865976171082
  0
ARC
  5
B13D
  8
0
 10
4622.1363184595666098
 20
116.4318246532050978
 30
0.0
 40
0.2559055117996678
 50
75.6127370640015926
 51
90.0000000001042082
  0
ARC
  5
B13E
  8
0
 10
4598.3292318453677581
 20
115.6364380647047057
 30
0.0
 40
1.1338582677000331
 50
67.9738910818069115
 51
112.0261089181931027
  0
LINE
  5
B13F
  8
0
 10
4575.290145680468413
 20
114.0419498758047041
 30
0.0
 11
4575.290145680468413
 21
112.4165865236047068
 31
0.0
  0
LINE
  5
B140
  8
0
 10
4575.4601818324672422
 20
111.8758615136048036
 30
0.0
 11
4576.3187582059672422
 21
111.875885715117505
 31
0.0
  0
ARC
  5
B141
  8
0
 10
4568.5949366128170368
 20
112.1139248404714976
 30
0.0
 40
6.7020465944348802
 50
0.4712685934308735
 51
2.5883342482064382
  0
ARC
  5
B142
  8
0
 10
4575.6818932726891944
 20
112.1529018565917966
 30
0.0
 40
0.385475149403912
 50
177.5991169492176027
 51
214.8165443025297918
  0
ARC
  5
B143
  8
0
 10
4575.486596129220743
 20
112.0271139160930005
 30
0.0
 40
0.1535415394329895
 50
217.8910401513579131
 51
260.093924707880376
  0
LINE
  5
B144
  8
0
 10
4576.4869960741671093
 20
114.0419498758047041
 30
0.0
 11
4576.4869960741671093
 21
112.4165865236047068
 31
0.0
  0
ARC
  5
B145
  8
0
 10
4600.7839340513146453
 20
111.7556488769132983
 30
0.0
 40
24.3059258955124697
 50
178.441795375609189
 51
179.0254528336346027
  0
ARC
  5
B146
  8
0
 10
4576.0850053611147814
 20
112.1577929750503984
 30
0.0
 40
0.3966784135600028
 50
325.447881650465888
 51
1.626143662692018
  0
ARC
  5
B147
  8
0
 10
4576.2889567975526006
 20
112.0289019775398032
 30
0.0
 40
0.1558913099214944
 50
281.0209471282655045
 51
321.9481469642258276
  0
ENDSEC
  0
EOF
