  0
SECTION
  2
HEADER
  9
$ACADVER
  1
AC1009
  9
$INSBASE
 10
7320.4412432544531839
 20
166.0858568568147007
 30
0.0
  9
$EXTMIN
 10
7290.4475509792127923
 20
163.2964863184193121
 30
-0.0000000000112498
  9
$EXTMAX
 10
7350.4553800570392923
 20
168.5825355933311869
 30
0.0000000000002956
  9
$LIMMIN
 10
0.0
 20
0.0
  9
$LIMMAX
 10
11.6929133858000007
 20
8.2677165353999982
  9
$ORTHOMODE
 70
     0
  9
$REGENMODE
 70
     1
  9
$FILLMODE
 70
     1
  9
$QTEXTMODE
 70
     0
  9
$MIRRTEXT
 70
     0
  9
$DRAGMODE
 70
     2
  9
$LTSCALE
 40
0.6431102362
  9
$OSMODE
 70
  4095
  9
$ATTMODE
 70
     1
  9
$TEXTSIZE
 40
0.2
  9
$TRACEWID
 40
0.05
  9
$TEXTSTYLE
  7
STANDARD
  9
$CLAYER
  8
0
  9
$CELTYPE
  6
BYLAYER
  9
$CECOLOR
 62
   256
  9
$DIMSCALE
 40
1.0
  9
$DIMASZ
 40
0.1875
  9
$DIMEXO
 40
0.0625
  9
$DIMDLI
 40
0.4443307087
  9
$DIMRND
 40
0.0
  9
$DIMDLE
 40
0.0
  9
$DIMEXE
 40
0.125
  9
$DIMTP
 40
0.01
  9
$DIMTM
 40
0.01
  9
$DIMTXT
 40
2.0
  9
$DIMCEN
 40
0.1052362205
  9
$DIMTSZ
 40
0.0
  9
$DIMTOL
 70
     1
  9
$DIMLIM
 70
     0
  9
$DIMTIH
 70
     1
  9
$DIMTOH
 70
     1
  9
$DIMSE1
 70
     0
  9
$DIMSE2
 70
     0
  9
$DIMTAD
 70
     0
  9
$DIMZIN
 70
     0
  9
$DIMBLK
  1

  9
$DIMASO
 70
     1
  9
$DIMSHO
 70
     1
  9
$DIMPOST
  1
\X
  9
$DIMAPOST
  1

  9
$DIMALT
 70
     1
  9
$DIMALTD
 70
     2
  9
$DIMALTF
 40
25.3999999999999986
  9
$DIMLFAC
 40
1.0
  9
$DIMTOFL
 70
     0
  9
$DIMTVP
 40
0.0
  9
$DIMTIX
 70
     0
  9
$DIMSOXD
 70
     0
  9
$DIMSAH
 70
     0
  9
$DIMBLK1
  1

  9
$DIMBLK2
  1

  9
$DIMSTYLE
  2
STANDARD
  9
$DIMCLRD
 70
     0
  9
$DIMCLRE
 70
     0
  9
$DIMCLRT
 70
     0
  9
$DIMTFAC
 40
1.0
  9
$DIMGAP
 40
0.09
  9
$LUNITS
 70
     2
  9
$LUPREC
 70
     4
  9
$SKETCHINC
 40
0.1
  9
$FILLETRAD
 40
0.0
  9
$AUNITS
 70
     0
  9
$AUPREC
 70
     0
  9
$MENU
  1
.
  9
$ELEVATION
 40
0.0
  9
$PELEVATION
 40
0.0
  9
$THICKNESS
 40
0.0
  9
$LIMCHECK
 70
     0
  9
$BLIPMODE
 70
     0
  9
$CHAMFERA
 40
0.0
  9
$CHAMFERB
 40
0.0
  9
$SKPOLY
 70
     0
  9
$TDCREATE
 40
2458060.468368056230247
  9
$TDUPDATE
 40
2460683.7495833341963589
  9
$TDINDWG
 40
1.2937917824
  9
$TDUSRTIMER
 40
1.2937917824
  9
$USRTIMER
 70
     1
  9
$ANGBASE
 50
0.0
  9
$ANGDIR
 70
     0
  9
$PDMODE
 70
     0
  9
$PDSIZE
 40
0.3125
  9
$PLINEWID
 40
0.0
  9
$COORDS
 70
     2
  9
$SPLFRAME
 70
     0
  9
$SPLINETYPE
 70
     6
  9
$SPLINESEGS
 70
     8
  9
$ATTDIA
 70
     1
  9
$ATTREQ
 70
     1
  9
$HANDLING
 70
     1
  9
$HANDSEED
  5
3B1C5
  9
$SURFTAB1
 70
     6
  9
$SURFTAB2
 70
     6
  9
$SURFTYPE
 70
     6
  9
$SURFU
 70
     6
  9
$SURFV
 70
     6
  9
$UCSNAME
  2

  9
$UCSORG
 10
0.0
 20
0.0
 30
0.0
  9
$UCSXDIR
 10
1.0
 20
0.0
 30
0.0
  9
$UCSYDIR
 10
0.0
 20
1.0
 30
0.0
  9
$PUCSNAME
  2

  9
$PUCSORG
 10
0.0
 20
0.0
 30
0.0
  9
$PUCSXDIR
 10
1.0
 20
0.0
 30
0.0
  9
$PUCSYDIR
 10
0.0
 20
1.0
 30
0.0
  9
$USERI1
 70
     0
  9
$USERI2
 70
     0
  9
$USERI3
 70
     0
  9
$USERI4
 70
     0
  9
$USERI5
 70
     0
  9
$USERR1
 40
0.0
  9
$USERR2
 40
0.0
  9
$USERR3
 40
0.0
  9
$USERR4
 40
0.0
  9
$USERR5
 40
0.0
  9
$WORLDVIEW
 70
     1
  9
$SHADEDGE
 70
     3
  9
$SHADEDIF
 70
    70
  9
$TILEMODE
 70
     1
  9
$MAXACTVP
 70
    64
  9
$PLIMCHECK
 70
     0
  9
$PEXTMIN
 10
1.0000000000000000E+20
 20
1.0000000000000000E+20
 30
1.0000000000000000E+20
  9
$PEXTMAX
 10
-1.0000000000000000E+20
 20
-1.0000000000000000E+20
 30
-1.0000000000000000E+20
  9
$PLIMMIN
 10
0.0
 20
0.0
  9
$PLIMMAX
 10
12.0
 20
9.0
  9
$UNITMODE
 70
     0
  9
$VISRETAIN
 70
     1
  9
$PLINEGEN
 70
     0
  9
$PSLTSCALE
 70
     1
  0
ENDSEC
  0
SECTION
  2
TABLES
  0
TABLE
  2
VPORT
 70
     1
  0
VPORT
  2
*ACTIVE
 70
     0
 10
0.0
 20
0.0
 11
1.0
 21
1.0
 12
3409.086109072813997
 22
33.3599058533362225
 13
0.0
 23
0.0
 14
1.0
 24
1.0
 15
0.0
 25
0.0
 16
0.0
 26
0.0
 36
60.4960186965801583
 17
3911.3653564453120453
 27
132.5796051025390057
 37
0.0
 40
27.1444884875340087
 41
2.21775147928994
 42
50.0
 43
0.0
 44
0.0
 50
0.0
 51
0.0
 71
     0
 72
   100
 73
     1
 74
     1
 75
     0
 76
     0
 77
     0
 78
     0
  0
ENDTAB
  0
TABLE
  2
LTYPE
 70
     2
  0
LTYPE
  2
CONTINUOUS
 70
     0
  3
Solid line
 72
    65
 73
     0
 40
0.0
  0
LTYPE
  2
PHANTOM2
 70
     0
  3
___ _ _ ___ _ _ ___ _ _ ___ _ _
 72
    65
 73
     6
 40
1.25
 49
0.625
 49
-0.125
 49
0.125
 49
-0.125
 49
0.125
 49
-0.125
  0
ENDTAB
  0
TABLE
  2
LAYER
 70
     2
  0
LAYER
  2
0
 70
     0
 62
   255
  6
CONTINUOUS
  0
LAYER
  2
DEFPOINTS
 70
     0
 62
     7
  6
CONTINUOUS
  0
ENDTAB
  0
TABLE
  2
STYLE
 70
     1
  0
STYLE
  2
STANDARD
 70
     0
 40
0.0
 41
0.8
 50
0.0
 71
     0
 42
0.2
  3
txt
  4

  0
ENDTAB
  0
TABLE
  2
VIEW
 70
     0
  0
ENDTAB
  0
TABLE
  2
UCS
 70
     0
  0
ENDTAB
  0
TABLE
  2
APPID
 70
    11
  0
APPID
  2
ACAD
 70
     0
  0
APPID
  2
ACAD_MLEADERVER
 70
     0
  0
APPID
  2
ACAD_EXEMPT_FROM_CAD_STANDARDS
 70
     0
  0
APPID
  2
ACAD_NAV_VCDISPLAY
 70
     0
  0
APPID
  2
ACAECLAYERSTANDARD
 70
     0
  0
APPID
  2
ACCMTRANSPARENCY
 70
     0
  0
APPID
  2
ACAD_DSTYLE_DIMJAG
 70
     0
  0
APPID
  2
ACAD_DSTYLE_DIMTALN
 70
     0
  0
APPID
  2
ACDBATTR
 70
     0
  0
APPID
  2
ACADANNOTATIVE
 70
     0
  0
APPID
  2
DCO15
 70
     0
  0
ENDTAB
  0
TABLE
  2
DIMSTYLE
 70
     1
  0
DIMSTYLE
  2
STANDARD
 70
     0
  3

  4

  5

  6

  7

 40
1.0
 41
0.1875
 42
0.0625
 43
0.38
 44
0.125
 45
0.0
 46
0.0
 47
0.01
 48
0.01
140
0.15625
141
0.09
142
0.0
143
25.3999999999999986
144
1.0
145
0.0
146
1.0
147
0.09
 71
     1
 72
     0
 73
     1
 74
     1
 75
     0
 76
     0
 77
     0
 78
     4
170
     0
171
     2
172
     0
173
     0
174
     0
175
     0
176
     0
177
     0
178
     0
  0
ENDTAB
  0
ENDSEC
  0
SECTION
  2
BLOCKS
  0
BLOCK
  8
0
  2
$MODEL_SPACE
 70
     0
 10
0.0
 20
0.0
 30
0.0
  3
$MODEL_SPACE
  1

  0
ENDBLK
  5
21
  8
0
  0
BLOCK
 67
     1
  8
0
  2
$PAPER_SPACE
 70
     0
 10
0.0
 20
0.0
 30
0.0
  3
$PAPER_SPACE
  1

  0
ENDBLK
  5
1D
 67
     1
  8
0
  0
BLOCK
  8
0
  2
_FILLED
 70
     0
 10
0.0
 20
0.0
 30
0.0
  3
_FILLED
  1

  0
SOLID
  5
2EA00
  8
0
  6
BYBLOCK
 62
     0
 10
0.0
 20
0.0
 30
0.0
 11
-1.0
 21
0.1666666667
 31
0.0
 12
-1.0
 22
-0.1666666667
 32
0.0
 13
-1.0
 23
-0.1666666667
 33
0.0
  0
ENDBLK
  5
2EA01
  8
0
  6
BYBLOCK
 62
     0
  0
ENDSEC
  0
SECTION
  2
ENTITIES
  0
ATTDEF
  5
26A5B
  8
DEFPOINTS
 10
7320.4310229204284042
 20
166.0891498384127942
 30
0.0
 40
0.001
  1
K-707615-8G79
  3

  2
MODELNUMBER
 70
     0
1001
ACDBATTR
1070
     0
1070
     1
  0
ATTDEF
  5
26A5C
  8
DEFPOINTS
 10
7320.4308971107711841
 20
166.0874829980336926
 30
0.0
 40
0.001
  1
ELATE
  3

  2
TRADENAME
 70
     0
1001
ACDBATTR
1070
     0
1070
     1
  0
ATTDEF
  5
26A5D
  8
DEFPOINTS
 10
7320.4310229204284042
 20
166.0858165050794923
 30
0.0
 40
0.001
  1
SHOWER DOOR
  3

  2
PRODUCT
 70
     0
1001
ACDBATTR
1070
     0
1070
     1
  0
LINE
  5
3AD83
  8
0
 10
7290.5974932544522744
 20
168.5710127665655023
 30
0.0
 11
7290.5974932544522744
 21
165.7228644756654887
 31
0.0
  0
LINE
  5
3AD84
  8
0
 10
7290.5974932544522744
 20
168.5710127665655023
 30
0.0
 11
7290.899818730388688
 21
168.5762898773660936
 31
0.0
  0
LINE
  5
3AD85
  8
0
 10
7290.9099932544522744
 20
168.5662914004145136
 30
0.0
 11
7290.9099932544522744
 21
167.1460127665654909
 31
0.0
  0
ARC
  5
3AD86
  8
0
 10
7290.8999932544529656
 20
168.5662914004145989
 30
0.0
 40
0.01
 50
359.9999999999186002
 51
90.9999999978909955
  0
LINE
  5
3AD87
  8
0
 10
7290.5974932544522744
 20
167.1570127665654866
 30
0.0
 11
7290.899818730388688
 21
167.1517356557648952
 31
0.0
  0
ARC
  5
3AD88
  8
0
 10
7290.8999932544529656
 20
167.1617341327165036
 30
0.0
 40
0.01
 50
269.0000000021090045
 51
0.0
  0
LINE
  5
3AD89
  8
0
 10
7290.5974932544522744
 20
167.1460127665654909
 30
0.0
 11
7350.2224932544522744
 21
167.1460127665654909
 31
0.0
  0
LINE
  5
3AD8A
  8
0
 10
7290.7849932544522744
 20
167.1537399418984933
 30
0.0
 11
7290.7849932544522744
 21
167.1460127665654909
 31
0.0
  0
LINE
  5
3AD8B
  8
0
 10
7290.7751677784526692
 20
167.1539114462196096
 30
0.0
 11
7290.7751677784526692
 21
167.1460127665654909
 31
0.0
  0
LINE
  5
3AD8C
  8
0
 10
7290.6725932544522948
 20
167.1557018911921944
 30
0.0
 11
7290.6725932544522948
 21
167.1460127665654909
 31
0.0
  0
LINE
  5
3AD8D
  8
0
 10
7290.6774932544522017
 20
167.1556163613742001
 30
0.0
 11
7290.6774932544522017
 21
167.1460127665654909
 31
0.0
  0
LINE
  5
3AD8E
  8
0
 10
7290.5974932544522744
 20
166.3900127665654907
 30
0.0
 11
7350.2224932544522744
 21
166.3900127665654907
 31
0.0
  0
ARC
  5
3AD8F
  8
0
 10
7349.4824932544534022
 20
166.3800127665654998
 30
0.0
 40
0.01
 50
90.0
 51
180.0
  0
ARC
  5
3AD90
  8
0
 10
7290.617493254452711
 20
166.3700127665655089
 30
0.0
 40
0.02
 50
90.0
 51
180.0
  0
LINE
  5
3AD91
  8
0
 10
7290.637493254452238
 20
166.0217095768655042
 30
0.0
 11
7290.637493254452238
 21
166.3300127665654884
 31
0.0
  0
LINE
  5
3AD92
  8
0
 10
7290.6574932544526746
 20
166.3500127665654986
 30
0.0
 11
7291.3074932544523108
 21
166.3500127665654986
 31
0.0
  0
LINE
  5
3AD93
  8
0
 10
7291.3142132668517661
 20
166.0727643873655097
 30
0.0
 11
7290.6208532606524386
 21
165.9546002173069041
 31
0.0
  0
LINE
  5
3AD94
  8
0
 10
7290.6608532606533117
 20
166.0019938379655002
 30
0.0
 11
7291.3080617767527656
 21
166.1122927541655088
 31
0.0
  0
ARC
  5
3AD95
  8
0
 10
7291.3074932544523108
 20
166.1121958650655017
 30
0.0
 40
0.04
 50
279.671573154516409
 51
9.6715731544962811
  0
ARC
  5
3AD96
  8
0
 10
7291.3074932544523108
 20
166.3500127665654986
 30
0.0
 40
0.04
 50
0.0
 51
90.0
  0
ARC
  5
3AD97
  8
0
 10
7291.3274932544527474
 20
166.3500127665654986
 30
0.0
 40
0.02
 50
180.0
 51
0.0
  0
ARC
  5
3AD98
  8
0
 10
7290.6574932544526746
 20
166.3300127665654884
 30
0.0
 40
0.02
 50
90.0
 51
180.0
  0
ARC
  5
3AD99
  8
0
 10
7290.6574932544526746
 20
166.0217095768655042
 30
0.0
 40
0.02
 50
179.9999999998998135
 51
279.671573154516409
  0
ARC
  5
3AD9A
  8
0
 10
7291.3274448099145957
 20
166.115888576995701
 30
0.0
 40
0.019713749474205
 50
8.8334584599780328
 51
190.5096875669493102
  0
ARC
  5
3AD9B
  8
0
 10
7290.617493254452711
 20
165.974315956155607
 30
0.0
 40
0.02
 50
180.0
 51
279.6715731534599172
  0
LINE
  5
3AD9C
  8
0
 10
7291.3380166140159417
 20
165.7616736604688015
 30
0.0
 11
7290.5974932544522744
 21
165.7228644756654887
 31
0.0
  0
LINE
  5
3AD9D
  8
0
 10
7291.3458833584090826
 20
166.3612466402655059
 30
0.0
 11
7318.9884932544528056
 21
166.3612466402655059
 31
0.0
  0
LINE
  5
3AD9E
  8
0
 10
7291.3474932544531839
 20
166.3900127665654907
 30
0.0
 11
7291.3474932544531839
 21
166.3612466402655059
 31
0.0
  0
ARC
  5
3AD9F
  8
0
 10
7290.8374932544529656
 20
166.2052466402655
 30
0.0
 40
0.2000000000000064
 50
133.6283431052756043
 51
231.2605754021514031
  0
LINE
  5
3ADA0
  8
0
 10
7290.9381217698246473
 20
166.0492466402654941
 30
0.0
 11
7290.7123373516751599
 21
166.0492466402654941
 31
0.0
  0
LINE
  5
3ADA1
  8
0
 10
7290.652493254451656
 20
166.3493776832964954
 30
0.0
 11
7290.652493254451656
 21
166.2812400610334009
 31
0.0
  0
LINE
  5
3ADA2
  8
0
 10
7290.652493254451656
 20
166.129253219497599
 30
0.0
 11
7290.652493254451656
 21
166.0023446601344972
 31
0.0
  0
LINE
  5
3ADA3
  8
0
 10
7290.652493254451656
 20
166.3311199849482875
 30
0.0
 11
7290.6820715664589443
 21
166.3311199849482875
 31
0.0
  0
LINE
  5
3ADA4
  8
0
 10
7290.652493254451656
 20
166.3211183500746984
 30
0.0
 11
7290.6744786941635539
 21
166.3211183500746984
 31
0.0
  0
LINE
  5
3ADA5
  8
0
 10
7292.4294932544516996
 20
166.3900127665654907
 30
0.0
 11
7292.4294932544516996
 21
166.3612466402655059
 31
0.0
  0
LINE
  5
3ADA6
  8
0
 10
7292.6089932544527983
 20
166.3900127665654907
 30
0.0
 11
7292.6089932544527983
 21
166.3612466402655059
 31
0.0
  0
LINE
  5
3ADA7
  8
0
 10
7291.1762165689788162
 20
166.0492466402654941
 30
0.0
 11
7318.9884932544528056
 21
166.0492466402654941
 31
0.0
  0
LINE
  5
3ADA8
  8
0
 10
7291.3474932544531839
 20
166.0492466402654941
 30
0.0
 11
7291.3474932544531839
 21
165.7716599558162898
 31
0.0
  0
ARC
  5
3ADA9
  8
0
 10
7291.3374932544520561
 20
165.7716599558162898
 30
0.0
 40
0.01
 50
273.0000000016754029
 51
0.0
  0
LINE
  5
3ADAA
  8
0
 10
7290.652493254451656
 20
165.9599923852642007
 30
0.0
 11
7290.652493254451656
 21
165.79599728271819
 31
0.0
  0
LINE
  5
3ADAB
  8
0
 10
7290.5974932544522744
 20
165.7852102815654973
 30
0.0
 11
7290.6426677785057109
 21
165.7859988057664964
 31
0.0
  0
ARC
  5
3ADAC
  8
0
 10
7290.6424932544523472
 20
165.79599728271819
 30
0.0
 40
0.01
 50
270.999999937225482
 51
0.0
  0
ARC
  5
3ADAD
  8
0
 10
7318.7814932544515614
 20
166.2052466402655
 30
0.0
 40
0.2000000000000002
 50
308.7394245978475169
 51
51.2605754021524476
  0
LINE
  5
3ADAE
  8
0
 10
7318.9884932544528056
 20
166.3900127665654907
 30
0.0
 11
7318.9884932544528056
 21
165.84424664026551
 31
0.0
  0
LINE
  5
3ADAF
  8
0
 10
7291.3474932544531839
 20
165.84424664026551
 30
0.0
 11
7292.4344932544527182
 21
165.84424664026551
 31
0.0
  0
LINE
  5
3ADB0
  8
0
 10
7293.3564932544531985
 20
165.84424664026551
 30
0.0
 11
7316.262493254452238
 21
165.84424664026551
 31
0.0
  0
LINE
  5
3ADB1
  8
0
 10
7317.1843987954680415
 20
165.84424664026551
 30
0.0
 11
7347.8166076482302742
 21
165.84424664026551
 31
0.0
  0
LINE
  5
3ADB2
  8
0
 10
7348.5666076482293647
 20
165.84424664026551
 30
0.0
 11
7349.4724932544522744
 21
165.84424664026551
 31
0.0
  0
LINE
  5
3ADB3
  8
0
 10
7291.3474932544531839
 20
166.0321333557654953
 30
0.0
 11
7292.4369932544523181
 21
166.0321333557654953
 31
0.0
  0
LINE
  5
3ADB4
  8
0
 10
7293.3539932544526891
 20
166.0321333557654953
 30
0.0
 11
7316.2649932544527474
 21
166.0321333557654953
 31
0.0
  0
LINE
  5
3ADB5
  8
0
 10
7317.1819932544522089
 20
166.0321333557654953
 30
0.0
 11
7318.9884932544528056
 21
166.0321333557654953
 31
0.0
  0
LINE
  5
3ADB6
  8
0
 10
7291.3474932544531839
 20
166.0273197902654942
 30
0.0
 11
7292.4369932544523181
 21
166.0273197902654942
 31
0.0
  0
LINE
  5
3ADB7
  8
0
 10
7293.3539932544526891
 20
166.0273197902654942
 30
0.0
 11
7316.2649932544527474
 21
166.0273197902654942
 31
0.0
  0
LINE
  5
3ADB8
  8
0
 10
7317.1819932544522089
 20
166.0273197902654942
 30
0.0
 11
7318.9884932544528056
 21
166.0273197902654942
 31
0.0
  0
LINE
  5
3ADB9
  8
0
 10
7291.3474932544531839
 20
165.9049330319654985
 30
0.0
 11
7292.4344932544527182
 21
165.9049330319654985
 31
0.0
  0
LINE
  5
3ADBA
  8
0
 10
7293.3564932544531985
 20
165.9049330319654985
 30
0.0
 11
7316.262493254452238
 21
165.9049330319654985
 31
0.0
  0
LINE
  5
3ADBB
  8
0
 10
7317.1843987954680415
 20
165.9049330319654985
 30
0.0
 11
7318.9884932544528056
 21
165.9049330319654985
 31
0.0
  0
LINE
  5
3ADBC
  8
0
 10
7291.3474932544531839
 20
165.8542466402655009
 30
0.0
 11
7292.4344932544527182
 21
165.8542466402655009
 31
0.0
  0
LINE
  5
3ADBD
  8
0
 10
7293.3564932544531985
 20
165.8542466402655009
 30
0.0
 11
7316.262493254452238
 21
165.8542466402655009
 31
0.0
  0
LINE
  5
3ADBE
  8
0
 10
7317.1843987954680415
 20
165.8542466402655009
 30
0.0
 11
7318.9884932544528056
 21
165.8542466402655009
 31
0.0
  0
LINE
  5
3ADBF
  8
0
 10
7291.3474932544531839
 20
166.3831734902655057
 30
0.0
 11
7292.4294932544516996
 21
166.3831734902655057
 31
0.0
  0
LINE
  5
3ADC0
  8
0
 10
7292.6089932544527983
 20
166.3831734902655057
 30
0.0
 11
7318.9884932544528056
 21
166.3831734902655057
 31
0.0
  0
LINE
  5
3ADC1
  8
0
 10
7291.3474932544531839
 20
166.3783599247655047
 30
0.0
 11
7292.4294932544516996
 21
166.3783599247655047
 31
0.0
  0
LINE
  5
3ADC2
  8
0
 10
7292.6089932544527983
 20
166.3783599247655047
 30
0.0
 11
7318.9884932544528056
 21
166.3783599247655047
 31
0.0
  0
LINE
  5
3ADC3
  8
0
 10
7350.2849932544522744
 20
167.4841242708654931
 30
0.0
 11
7350.2849932544522744
 21
167.1205662375218139
 31
0.0
  0
LINE
  5
3ADC4
  8
0
 10
7350.2224932544522744
 20
168.5710127665655023
 30
0.0
 11
7350.2224932544522744
 21
165.7228644756654887
 31
0.0
  0
ARC
  5
3ADC5
  8
0
 10
7350.2124932544529656
 20
166.3800127665654998
 30
0.0
 40
0.01
 50
0.0
 51
90.0000000000521254
  0
LINE
  5
3ADC6
  8
0
 10
7350.2224932544522744
 20
168.5710127665655023
 30
0.0
 11
7349.9201677785167703
 21
168.5762898773660936
 31
0.0
  0
LINE
  5
3ADC7
  8
0
 10
7349.9099932544531839
 20
168.5662914004145989
 30
0.0
 11
7349.9099932544531839
 21
167.1460127665654909
 31
0.0
  0
ARC
  5
3ADC8
  8
0
 10
7349.9199932544515832
 20
167.1617341327182089
 30
0.0
 40
0.01
 50
180.0
 51
270.9999999975261744
  0
ARC
  5
3ADC9
  8
0
 10
7349.9199932544515832
 20
168.5662914004145989
 30
0.0
 40
0.01
 50
89.0000000021611157
 51
180.0
  0
LINE
  5
3ADCA
  8
0
 10
7349.9201677785167703
 20
167.1517356557666005
 30
0.0
 11
7350.2224932544522744
 21
167.1570127665654866
 31
0.0
  0
LINE
  5
3ADCB
  8
0
 10
7350.0349932544522744
 20
167.153739941899488
 30
0.0
 11
7350.0349932544522744
 21
167.1460127665654909
 31
0.0
  0
LINE
  5
3ADCC
  8
0
 10
7350.0448187303527448
 20
167.1539114462188991
 30
0.0
 11
7350.0448187303527448
 21
167.1460127665654909
 31
0.0
  0
LINE
  5
3ADCD
  8
0
 10
7350.147393254452254
 20
167.1557018911927059
 30
0.0
 11
7350.147393254452254
 21
167.1460127665654909
 31
0.0
  0
LINE
  5
3ADCE
  8
0
 10
7350.1424932544523472
 20
167.1556163613747117
 30
0.0
 11
7350.1424932544523472
 21
167.1460127665654909
 31
0.0
  0
ARC
  5
3ADCF
  8
0
 10
7350.0699969857523683
 20
167.4841242708654931
 30
0.0
 40
0.2149962687000055
 50
315.1777688644971249
 51
44.8222311355028822
  0
ARC
  5
3ADD0
  8
0
 10
7350.067019817783148
 20
167.138041047644009
 30
0.0
 40
0.2186727877051772
 50
315.3152501362559974
 51
355.4164319484399925
  0
ARC
  5
3ADD1
  8
0
 10
7350.0699967152522731
 20
167.4841239389654959
 30
0.0
 40
0.1849964786000154
 50
325.5197425714848123
 51
34.4802574285152588
  0
LINE
  5
3ADD2
  8
0
 10
7349.4724932544522744
 20
166.3900127665654907
 30
0.0
 11
7349.4724932544522744
 21
165.7716599558110886
 31
0.0
  0
ARC
  5
3ADD3
  8
0
 10
7349.4824932544534022
 20
166.3092120673146042
 30
0.0
 40
0.01
 50
91.0000000076891951
 51
180.0
  0
LINE
  5
3ADD4
  8
0
 10
7349.4819698948904261
 20
165.7616736604634866
 30
0.0
 11
7350.2224932544522744
 21
165.7228644756654887
 31
0.0
  0
ARC
  5
3ADD5
  8
0
 10
7349.4824932544534022
 20
165.7716599558110886
 30
0.0
 40
0.01
 50
180.0
 51
266.999999998742112
  0
LINE
  5
3ADD6
  8
0
 10
7349.8124932544533294
 20
166.3249737620654969
 30
0.0
 11
7349.4823187303873055
 21
166.3192105442660989
 31
0.0
  0
LINE
  5
3ADD7
  8
0
 10
7349.4824932544534022
 20
166.3500127665654986
 30
0.0
 11
7350.1774932544522017
 21
166.3500127665654134
 31
0.0
  0
ARC
  5
3ADD8
  8
0
 10
7349.8224932544526382
 20
166.3400127665655077
 30
0.0
 40
0.01
 50
90.0
 51
180.0
  0
ARC
  5
3ADD9
  8
0
 10
7349.4824932544534022
 20
166.3600127665654895
 30
0.0
 40
0.01
 50
180.0
 51
270.0
  0
LINE
  5
3ADDA
  8
0
 10
7350.1874932544524199
 20
166.2950127665654918
 30
0.0
 11
7350.1874932544524199
 21
166.340012766565394
 31
0.0
  0
ARC
  5
3ADDB
  8
0
 10
7350.1724932544520925
 20
166.3350127665653986
 30
0.0
 40
0.015
 50
0.0
 51
90.0
  0
ARC
  5
3ADDC
  8
0
 10
7350.1774932544522017
 20
166.340012766565394
 30
0.0
 40
0.01
 50
0.0
 51
90.0
  0
LINE
  5
3ADDD
  8
0
 10
7350.025493254452158
 20
166.2900127665654963
 30
0.0
 11
7350.1824932544523108
 21
166.2900127665654963
 31
0.0
  0
ARC
  5
3ADDE
  8
0
 10
7350.1824932544523108
 20
166.2950127665654918
 30
0.0
 40
0.005
 50
270.0
 51
0.0
  0
LINE
  5
3ADDF
  8
0
 10
7350.0154932544528492
 20
166.2800127665655054
 30
0.0
 11
7350.0154932544528492
 21
166.2650127665654907
 31
0.0
  0
ARC
  5
3ADE0
  8
0
 10
7350.025493254452158
 20
166.2800127665655054
 30
0.0
 40
0.01
 50
90.0
 51
180.0
  0
LINE
  5
3ADE1
  8
0
 10
7350.025493254452158
 20
166.2550127665654998
 30
0.0
 11
7350.0308301778250097
 21
166.2550127665654998
 31
0.0
  0
LINE
  5
3ADE2
  8
0
 10
7350.0723239348244533
 20
166.2550127665654998
 30
0.0
 11
7350.1824932544523108
 21
166.2550127665654998
 31
0.0
  0
ARC
  5
3ADE3
  8
0
 10
7350.025493254452158
 20
166.2650127665654907
 30
0.0
 40
0.01
 50
180.0
 51
270.0
  0
ARC
  5
3ADE4
  8
0
 10
7350.0736462065533487
 20
166.2251010870654966
 30
0.0
 40
0.0100000000000018
 50
220.0000000471304133
 51
39.9999999089238685
  0
LINE
  5
3ADE5
  8
0
 10
7350.0384906222498103
 20
166.251440642668598
 30
0.0
 11
7350.0659857621421907
 21
166.2186732109763909
 31
0.0
  0
ARC
  5
3ADE6
  8
0
 10
7350.0308301778250097
 20
166.2450127665655089
 30
0.0
 40
0.01
 50
40.0000000470850168
 51
90.0
  0
LINE
  5
3ADE7
  8
0
 10
7350.0684937126043224
 20
166.2467988285231968
 30
0.0
 11
7350.0813066509772398
 21
166.2315289631360997
 31
0.0
  0
ARC
  5
3ADE8
  8
0
 10
7350.0723239348244533
 20
166.2500127665655043
 30
0.0
 40
0.005
 50
90.0
 51
219.9999999089039022
  0
ARC
  5
3ADE9
  8
0
 10
7350.1874932544524199
 20
166.0590127665655018
 30
0.0
 40
0.009999999999998
 50
289.4712205787615176
 51
70.5287794211315315
  0
LINE
  5
3ADEA
  8
0
 10
7350.1874932544524199
 20
166.0731549021811873
 30
0.0
 11
7350.1874932544524199
 21
166.2500127665655043
 31
0.0
  0
LINE
  5
3ADEB
  8
0
 10
7350.1874932544524199
 20
166.0448706309497879
 30
0.0
 11
7350.1874932544524199
 21
165.8680127665654993
 31
0.0
  0
LINE
  5
3ADEC
  8
0
 10
7350.1874932544524199
 20
165.8280127665655073
 30
0.0
 11
7350.1874932544524199
 21
165.8100127665655066
 31
0.0
  0
LINE
  5
3ADED
  8
0
 10
7350.1874932544524199
 20
165.8000127665654873
 30
0.0
 11
7350.1874932544524199
 21
165.7850127665655009
 31
0.0
  0
ARC
  5
3ADEE
  8
0
 10
7350.1974932544517287
 20
165.8100127665655066
 30
0.0
 40
0.01
 50
180.0
 51
270.0
  0
ARC
  5
3ADEF
  8
0
 10
7350.1924932544307012
 20
166.0731549021747071
 30
0.0
 40
0.005
 50
179.9999999250914868
 51
250.5287795528988113
  0
ARC
  5
3ADF0
  8
0
 10
7350.1924932544307012
 20
166.0448706309564102
 30
0.0
 40
0.005
 50
109.4712204469372949
 51
180.0000000751527125
  0
ARC
  5
3ADF1
  8
0
 10
7350.1824932544523108
 20
166.2500127665655043
 30
0.0
 40
0.005
 50
0.0000000000814222
 51
90.0
  0
LINE
  5
3ADF2
  8
0
 10
7350.025493254452158
 20
165.8630127665655039
 30
0.0
 11
7350.0304585982230492
 21
165.8630127665655039
 31
0.0
  0
ARC
  5
3ADF3
  8
0
 10
7350.025493254452158
 20
165.8530127665655129
 30
0.0
 40
0.01
 50
90.0
 51
180.0
  0
LINE
  5
3ADF4
  8
0
 10
7350.0719523552088503
 20
165.8630127665655039
 30
0.0
 11
7350.1824932544523108
 21
165.8630127665655039
 31
0.0
  0
ARC
  5
3ADF5
  8
0
 10
7350.0719523552088503
 20
165.8680127665654993
 30
0.0
 40
0.005
 50
140.0000002758173991
 51
270.0
  0
ARC
  5
3ADF6
  8
0
 10
7350.1824932544523108
 20
165.8680127665654993
 30
0.0
 40
0.005
 50
270.0
 51
0.0
  0
LINE
  5
3ADF7
  8
0
 10
7349.8124932544533294
 20
166.3400127665655077
 30
0.0
 11
7349.8124932544533294
 21
165.7800127665655054
 31
0.0
  0
ARC
  5
3ADF8
  8
0
 10
7349.8224932544526382
 20
165.7800127665655054
 30
0.0
 40
0.01
 50
180.0
 51
270.0
  0
LINE
  5
3ADF9
  8
0
 10
7349.8224932544526382
 20
165.7700127665654861
 30
0.0
 11
7350.1724932544520925
 21
165.7700127665654861
 31
0.0
  0
ARC
  5
3ADFA
  8
0
 10
7350.1724932544520925
 20
165.7850127665655009
 30
0.0
 40
0.015
 50
270.0
 51
0.0
  0
ARC
  5
3ADFB
  8
0
 10
7350.0732746268522533
 20
165.892924445965491
 30
0.0
 40
0.0100000000000007
 50
319.9924795618549069
 51
139.9999999694024098
  0
LINE
  5
3ADFC
  8
0
 10
7350.0681221329778054
 20
165.8712267045955002
 30
0.0
 11
7350.0809342274978917
 21
165.886495564416407
 31
0.0
  0
LINE
  5
3ADFD
  8
0
 10
7350.0381190426523972
 20
165.8665848904645941
 30
0.0
 11
7350.0656141824401857
 21
165.8993523220524082
 31
0.0
  0
ARC
  5
3ADFE
  8
0
 10
7350.0304585982230492
 20
165.8730127665654948
 30
0.0
 40
0.01
 50
270.0
 51
319.9999999694068151
  0
LINE
  5
3ADFF
  8
0
 10
7350.0154932544528492
 20
165.8530127665655129
 30
0.0
 11
7350.0154932544528492
 21
165.8380127665654982
 31
0.0
  0
ARC
  5
3AE00
  8
0
 10
7350.0732746268522533
 20
165.7981010871654917
 30
0.0
 40
0.0100000000000007
 50
220.0000000305975902
 51
40.0075204381451499
  0
LINE
  5
3AE01
  8
0
 10
7350.0681221329778054
 20
165.8197988285355109
 30
0.0
 11
7350.0809342274978917
 21
165.8045299687146041
 31
0.0
  0
ARC
  5
3AE02
  8
0
 10
7350.0719523552088503
 20
165.8230127665655118
 30
0.0
 40
0.005
 50
90.0
 51
219.9999997241777123
  0
LINE
  5
3AE03
  8
0
 10
7350.0381190426523972
 20
165.8244406426665023
 30
0.0
 11
7350.0656141824401857
 21
165.7916732110786029
 31
0.0
  0
ARC
  5
3AE04
  8
0
 10
7350.0304585982230492
 20
165.8180127665654879
 30
0.0
 40
0.01
 50
40.0000000305907193
 51
90.0
  0
LINE
  5
3AE05
  8
0
 10
7350.025493254452158
 20
165.8280127665655073
 30
0.0
 11
7350.0304585982230492
 21
165.8280127665655073
 31
0.0
  0
ARC
  5
3AE06
  8
0
 10
7350.025493254452158
 20
165.8380127665654982
 30
0.0
 40
0.01
 50
180.0
 51
270.0
  0
LINE
  5
3AE07
  8
0
 10
7350.0719523552088503
 20
165.8280127665655073
 30
0.0
 11
7350.1874932544524199
 21
165.8280127665655073
 31
0.0
  0
LINE
  5
3AE08
  8
0
 10
7350.1309932544518233
 20
166.3100127665655066
 30
0.0
 11
7350.1477565948425763
 21
166.3100127665655066
 31
0.0
  0
LINE
  5
3AE09
  8
0
 10
7350.1274932544529292
 20
166.3158504888720017
 30
0.0
 11
7350.1274932544529292
 21
166.3135127665655091
 31
0.0
  0
ARC
  5
3AE0A
  8
0
 10
7350.1244932544523181
 20
166.3158504888720017
 30
0.0
 40
0.003
 50
0.0
 51
108.4349489006922056
  0
ARC
  5
3AE0B
  8
0
 10
7350.1309932544518233
 20
166.3135127665655091
 30
0.0
 40
0.0035
 50
180.0
 51
270.0
  0
LINE
  5
3AE0C
  8
0
 10
7350.1014419377543163
 20
166.3113289942660913
 30
0.0
 11
7350.1235445711508874
 21
166.3186965387648968
 31
0.0
  0
LINE
  5
3AE0D
  8
0
 10
7350.0974932544522744
 20
166.3158504888720017
 30
0.0
 11
7350.0974932544522744
 21
166.3141750441589863
 31
0.0
  0
ARC
  5
3AE0E
  8
0
 10
7350.0944932544516632
 20
166.3158504888720017
 30
0.0
 40
0.003
 50
0.0
 51
108.4349489006939962
  0
ARC
  5
3AE0F
  8
0
 10
7350.1004932544528856
 20
166.3141750441589863
 30
0.0
 40
0.003
 50
180.0
 51
288.4349489006929161
  0
LINE
  5
3AE10
  8
0
 10
7350.0674932544534386
 20
166.3158504888720017
 30
0.0
 11
7350.0674932544534386
 21
166.3141750441589863
 31
0.0
  0
ARC
  5
3AE11
  8
0
 10
7350.0644932544528274
 20
166.3158504888720017
 30
0.0
 40
0.003
 50
0.0
 51
108.4349487509587959
  0
ARC
  5
3AE12
  8
0
 10
7350.0704932544522308
 20
166.3141750441589863
 30
0.0
 40
0.003
 50
180.0
 51
288.4349489006942804
  0
LINE
  5
3AE13
  8
0
 10
7350.0714419377536615
 20
166.3113289942660913
 30
0.0
 11
7350.093544571151142
 21
166.3186965387648968
 31
0.0
  0
LINE
  5
3AE14
  8
0
 10
7350.0396474783001395
 20
166.3107308411813108
 30
0.0
 11
7350.0635445711577631
 21
166.3186965387673126
 31
0.0
  0
LINE
  5
3AE15
  8
0
 10
7350.1874932544524199
 20
166.3200127665654975
 30
0.0
 11
7350.1667302608020691
 21
166.3130917686825114
 31
0.0
  0
ARC
  5
3AE16
  8
0
 10
7350.1477565948425763
 20
166.3700127665655089
 30
0.0
 40
0.06
 50
270.0
 51
288.4349488229129861
  0
ARC
  5
3AE17
  8
0
 10
7350.0522056359532144
 20
166.2730563680655109
 30
0.0
 40
0.0397123815000029
 50
108.4349487509584975
 51
243.4349488229645999
  0
LINE
  5
3AE18
  8
0
 10
7350.0344457190522007
 20
166.2375365342655016
 30
0.0
 11
7350.0615140806276031
 21
166.2240023534774025
 31
0.0
  0
LINE
  5
3AE19
  8
0
 10
7350.0831607374157102
 20
166.2281790250837048
 30
0.0
 11
7350.093151613666123
 21
166.223183586958811
 31
0.0
  0
ARC
  5
3AE1A
  8
0
 10
7350.0944932544516632
 20
166.2258668685317957
 30
0.0
 40
0.003
 50
243.434948822901589
 51
0.0
  0
LINE
  5
3AE1B
  8
0
 10
7350.0974932544522744
 20
166.2311586645992918
 30
0.0
 11
7350.0974932544522744
 21
166.2258668685317957
 31
0.0
  0
ARC
  5
3AE1C
  8
0
 10
7350.1004932544528856
 20
166.2311586645992918
 30
0.0
 40
0.003
 50
63.4349487010855526
 51
180.0
  0
LINE
  5
3AE1D
  8
0
 10
7350.1018348952447923
 20
166.2338419461694059
 30
0.0
 11
7350.120655288907983
 21
166.2244317492871062
 31
0.0
  0
LINE
  5
3AE1E
  8
0
 10
7350.1216201429197099
 20
166.2161185069388978
 30
0.0
 11
7350.1086186330521741
 21
166.2052839153816137
 31
0.0
  0
ARC
  5
3AE1F
  8
0
 10
7350.1184192209229877
 20
166.2199596133368971
 30
0.0
 40
0.005
 50
309.8055710922806156
 51
63.4349487010859221
  0
LINE
  5
3AE20
  8
0
 10
7350.0830112570656638
 20
166.1960127665655023
 30
0.0
 11
7350.0418901587818254
 21
166.1960127665655023
 31
0.0
  0
ARC
  5
3AE21
  8
0
 10
7350.0830112570656638
 20
166.2360127665654943
 30
0.0
 40
0.04
 50
270.0
 51
309.8055710922857884
  0
ARC
  5
3AE22
  8
0
 10
7350.1874932544524199
 20
166.0590127665655018
 30
0.0
 40
0.2502306941641267
 50
165.7420434693308948
 51
193.4722875380068103
  0
ARC
  5
3AE23
  8
0
 10
7350.0418901587818254
 20
166.0960127665655079
 30
0.0
 40
0.1
 50
90.0
 51
165.742043469330099
  0
LINE
  5
3AE24
  8
0
 10
7350.0413965006591752
 20
165.9240127665655109
 30
0.0
 11
7350.0830112570520214
 21
165.9240127665655109
 31
0.0
  0
ARC
  5
3AE25
  8
0
 10
7350.0413965006591752
 20
166.0240127665657042
 30
0.0
 40
0.1
 50
193.4722875381254994
 51
269.9999999999478746
  0
LINE
  5
3AE26
  8
0
 10
7350.1086186330039709
 20
165.9147416177783896
 30
0.0
 11
7350.1216201430006549
 21
165.9039070261385973
 31
0.0
  0
LINE
  5
3AE27
  8
0
 10
7350.1018348952329688
 20
165.8861835869558945
 30
0.0
 11
7350.1206552889771046
 21
165.8955937837772012
 31
0.0
  0
ARC
  5
3AE28
  8
0
 10
7350.1184192210075707
 20
165.9000659197369885
 30
0.0
 40
0.005
 50
296.5650510553293202
 51
50.1944289725125898
  0
LINE
  5
3AE29
  8
0
 10
7350.0974932544522744
 20
165.894158664599189
 30
0.0
 11
7350.0974932544522744
 21
165.8888668685318066
 31
0.0
  0
ARC
  5
3AE2A
  8
0
 10
7350.0944932544516632
 20
165.894158664599189
 30
0.0
 40
0.003
 50
0.0
 51
116.5650514078631943
  0
ARC
  5
3AE2B
  8
0
 10
7350.1004932544528856
 20
165.8888668685318066
 30
0.0
 40
0.003
 50
180.0
 51
296.5650510553281833
  0
LINE
  5
3AE2C
  8
0
 10
7350.0832195014318131
 20
165.8918758900051955
 30
0.0
 11
7350.0931516136561186
 21
165.8968419461668873
 31
0.0
  0
LINE
  5
3AE2D
  8
0
 10
7350.0637651259148697
 20
165.8971487022969882
 30
0.0
 11
7350.034445719012183
 21
165.8824889988455027
 31
0.0
  0
LINE
  5
3AE2E
  8
0
 10
7350.0396474782119185
 20
165.8092946919790052
 30
0.0
 11
7350.0551695165468118
 21
165.8041206791683919
 31
0.0
  0
LINE
  5
3AE2F
  8
0
 10
7350.0797664155234088
 20
165.8059217128434
 30
0.0
 11
7350.093544571149323
 21
165.8013289942670099
 31
0.0
  0
LINE
  5
3AE30
  8
0
 10
7350.0974932544522744
 20
165.8058504888720108
 30
0.0
 11
7350.0974932544522744
 21
165.8041750441589954
 31
0.0
  0
ARC
  5
3AE31
  8
0
 10
7350.0944932544516632
 20
165.8041750441589954
 30
0.0
 40
0.003
 50
251.5650510474509076
 51
0.0
  0
LINE
  5
3AE32
  8
0
 10
7350.1014419377543163
 20
165.8086965387649059
 30
0.0
 11
7350.1235445711508874
 21
165.8013289942661004
 31
0.0
  0
ARC
  5
3AE33
  8
0
 10
7350.1004932544528856
 20
165.8058504888720108
 30
0.0
 40
0.003
 50
71.5650510993070554
 51
180.0
  0
LINE
  5
3AE34
  8
0
 10
7350.1274932544529292
 20
165.8070434743158046
 30
0.0
 11
7350.1274932544529292
 21
165.8041750441589954
 31
0.0
  0
ARC
  5
3AE35
  8
0
 10
7350.1244932544523181
 20
165.8041750441589954
 30
0.0
 40
0.003
 50
251.5650510993073112
 51
0.0
  0
LINE
  5
3AE36
  8
0
 10
7350.1305084289861043
 20
165.8100434359378141
 30
0.0
 11
7350.1482347670507806
 21
165.8099537718231034
 31
0.0
  0
ARC
  5
3AE37
  8
0
 10
7350.1304932544526309
 20
165.8070434743158046
 30
0.0
 40
0.003
 50
89.7101865307412112
 51
180.0
  0
LINE
  5
3AE38
  8
0
 10
7350.1874932544524199
 20
165.8000127665654873
 30
0.0
 11
7350.1669049423508113
 21
165.8068755372659098
 31
0.0
  0
ARC
  5
3AE39
  8
0
 10
7350.147931276390409
 20
165.7499545393829123
 30
0.0
 40
0.06
 50
71.5650511770877813
 51
89.7101865307412112
  0
ARC
  5
3AE3A
  8
0
 10
7350.0522056359532144
 20
165.8469691649654862
 30
0.0
 40
0.0397123815000029
 50
116.5650511770965068
 51
251.5650510699213953
  0
ARC
  5
3AE3B
  8
0
 10
7350.0830112570520214
 20
165.8840127665654904
 30
0.0
 40
0.04
 50
50.1944289725635713
 51
89.9999999999478888
  0
LINE
  5
3AE3C
  8
0
 10
7350.1974932544517287
 20
165.8000127665654873
 30
0.0
 11
7350.2124932544529656
 21
165.8000127665654873
 31
0.0
  0
ARC
  5
3AE3D
  8
0
 10
7350.2124932544529656
 20
165.8100127665655066
 30
0.0
 40
0.01
 50
269.9999999999478746
 51
0.0
  0
LINE
  5
3AE3E
  8
0
 10
7347.8166076482302742
 20
164.7723544019779069
 30
0.0
 11
7347.8166076482302742
 21
166.3900127665654907
 31
0.0
  0
LINE
  5
3AE3F
  8
0
 10
7348.5666076482293647
 20
164.7723544019779069
 30
0.0
 11
7348.5666076482293647
 21
166.3900127665654907
 31
0.0
  0
ARC
  5
3AE40
  8
0
 10
7348.1915666360218893
 20
164.8024093001529877
 30
0.0
 40
0.3750410144960854
 50
181.1983503114784924
 51
359.993670299009807
  0
LINE
  5
3AE41
  8
0
 10
7348.0951985160163531
 20
167.8960353950072033
 30
0.0
 11
7346.8241885804163758
 21
167.8960353950072033
 31
0.0
  0
LINE
  5
3AE42
  8
0
 10
7348.5466033353286548
 20
168.4264274508464894
 30
0.0
 11
7347.8366119611291651
 21
168.4264274508464894
 31
0.0
  0
LINE
  5
3AE43
  8
0
 10
7348.1051901979171816
 20
167.886558754507206
 30
0.0
 11
7348.1177098686603131
 21
167.6476692050655117
 31
0.0
  0
LINE
  5
3AE44
  8
0
 10
7347.8166076482302742
 20
168.4064274508465928
 30
0.0
 11
7347.8166076482302742
 21
167.8960353950072033
 31
0.0
  0
LINE
  5
3AE45
  8
0
 10
7348.5666076482293647
 20
168.4064274508465928
 30
0.0
 11
7348.5666076482293647
 21
167.6476692050655117
 31
0.0
  0
LINE
  5
3AE46
  8
0
 10
7346.8141968985173662
 20
167.886558754507206
 30
0.0
 11
7346.8016772277724158
 21
167.6476692050655117
 31
0.0
  0
ARC
  5
3AE47
  8
0
 10
7348.5466076474349393
 20
168.4064274505178105
 30
0.0
 40
0.0200000007935799
 50
0.0000009416884523
 51
90.0123532745371335
  0
ARC
  5
3AE48
  8
0
 10
7347.8366076490228807
 20
168.4064274505178105
 30
0.0
 40
0.0200000007935638
 50
89.9876467254107553
 51
179.9999990583114879
  0
ARC
  5
3AE49
  8
0
 10
7346.8241831963960067
 20
167.886035393817707
 30
0.0
 40
0.0100000026388511
 50
89.9691518450566434
 51
176.999993967909802
  0
ARC
  5
3AE4A
  8
0
 10
7348.0952038999357683
 20
167.8860353938177923
 30
0.0
 40
0.0100000026387459
 50
3.0000060317535522
 51
90.0308475824605239
  0
LINE
  5
3AE4B
  8
0
 10
7349.8351767954163734
 20
167.6476692050655117
 30
0.0
 11
7318.1718236412143597
 21
167.6476692050655117
 31
0.0
  0
ARC
  5
3AE4C
  8
0
 10
7349.7110190376533865
 20
167.4921841892654868
 30
0.0
 40
0.1989742168000106
 50
308.6080341252400103
 51
51.3919658747600394
  0
LINE
  5
3AE4D
  8
0
 10
7349.8351767954163734
 20
167.3366991734654903
 30
0.0
 11
7318.1718221056844413
 21
167.3366991734654903
 31
0.0
  0
LINE
  5
3AE4E
  8
0
 10
7349.8101539155231876
 20
167.6476692050655117
 30
0.0
 11
7349.8888944573764093
 21
167.6565037527788888
 31
0.0
  0
ARC
  5
3AE4F
  8
0
 10
7349.8909797498836269
 20
167.6375176171929979
 30
0.0
 40
0.0191003086185314
 50
5.4645199879596111
 51
96.2678093623343756
  0
LINE
  5
3AE50
  8
0
 10
7349.6659137247252147
 20
167.3366991734654903
 30
0.0
 11
7349.8910102207528325
 21
167.3116260060654952
 31
0.0
  0
ARC
  5
3AE51
  8
0
 10
7349.8910102207528325
 20
167.3306090396654895
 30
0.0
 40
0.0189830336000085
 50
269.9999999999478746
 51
0.0
  0
LINE
  5
3AE52
  8
0
 10
7349.9099932544531839
 20
167.6991215379649987
 30
0.0
 11
7349.6147632309666733
 21
167.6659972059453025
 31
0.0
  0
ARC
  5
3AE53
  8
0
 10
7349.6169931964532225
 20
167.6461220047654876
 30
0.0
 40
0.0199999091999989
 50
96.4017209095760848
 51
175.5631445000547899
  0
LINE
  5
3AE54
  8
0
 10
7349.9099932544531839
 20
167.2691264960654962
 30
0.0
 11
7349.6147632534521108
 21
167.3022508255654941
 31
0.0
  0
ARC
  5
3AE55
  8
0
 10
7349.6169932258781046
 20
167.3221260885827064
 30
0.0
 40
0.0199999714254162
 50
180.0
 51
263.5982790897945733
  0
LINE
  5
3AE56
  8
0
 10
7349.5969932544512631
 20
167.3366991734654903
 30
0.0
 11
7349.5969932544512631
 21
167.1460127665654909
 31
0.0
  0
ARC
  5
3AE57
  8
0
 10
7348.1916076482293647
 20
164.7723544019779069
 30
0.0
 40
0.375
 50
180.0
 51
0.0
  0
ARC
  5
3AE58
  8
0
 10
7318.2959654518517709
 20
167.4921835762654894
 30
0.0
 40
0.1989647453999996
 50
128.6043354119574076
 51
231.3950987497439939
  0
LINE
  5
3AE59
  8
0
 10
7318.0970007064534002
 20
167.4921835762654894
 30
0.0
 11
7318.0970007064534002
 21
167.1460127665654909
 31
0.0
  0
LINE
  5
3AE5A
  8
0
 10
7318.1718221056844413
 20
167.3366991734654903
 30
0.0
 11
7318.1718221056844413
 21
167.1460127665654909
 31
0.0
  0
LINE
  5
3AE5B
  8
0
 10
7318.9724932544522744
 20
167.6476692050655117
 30
0.0
 11
7318.9724932544522744
 21
168.0838837750654875
 31
0.0
  0
ARC
  5
3AE5C
  8
0
 10
7318.9884932544528056
 20
168.0838837750654875
 30
0.0
 40
0.016
 50
90.0
 51
180.0
  0
LINE
  5
3AE5D
  8
0
 10
7318.9884932544528056
 20
168.0998837750655071
 30
0.0
 11
7321.4564932544526528
 21
168.0998837750655071
 31
0.0
  0
ARC
  5
3AE5E
  8
0
 10
7321.4564932544526528
 20
168.0838837750654875
 30
0.0
 40
0.016
 50
0.0
 51
90.0
  0
LINE
  5
3AE5F
  8
0
 10
7321.4724932544531839
 20
167.6476692050655117
 30
0.0
 11
7321.4724932544531839
 21
168.0838837750654875
 31
0.0
  0
LINE
  5
3AE60
  8
0
 10
7321.4554925665406699
 20
167.6476692050655117
 30
0.0
 11
7321.4554925665406699
 21
168.0353547262274958
 31
0.0
  0
LINE
  5
3AE61
  8
0
 10
7321.3055983770564126
 20
168.0429086618655106
 30
0.0
 11
7319.1393881318490457
 21
168.0429086618655106
 31
0.0
  0
ARC
  5
3AE62
  8
0
 10
7321.2663745373729398
 20
169.7134090290884956
 30
0.0
 40
1.6709607974131271
 50
271.3450745912331854
 51
275.8874828055489274
  0
ARC
  5
3AE63
  8
0
 10
7321.4394925665419578
 20
168.0353547262274958
 30
0.0
 40
0.016
 50
0.0
 51
96.1670752027312687
  0
LINE
  5
3AE64
  8
0
 10
7318.9894939423638789
 20
167.6476692050655117
 30
0.0
 11
7318.9894939423638789
 21
168.0353547262274958
 31
0.0
  0
ARC
  5
3AE65
  8
0
 10
7319.178611971533428
 20
169.7134090290884956
 30
0.0
 40
1.6709607974131271
 50
264.1125171944510726
 51
268.6549254087668146
  0
ARC
  5
3AE66
  8
0
 10
7319.005493942362591
 20
168.0353547262274958
 30
0.0
 40
0.016
 50
83.8329247972687455
 51
180.0
  0
LINE
  5
3AE67
  8
0
 10
7319.6768700293987422
 20
167.6476692050655117
 30
0.0
 11
7319.6892295065554208
 21
167.8842043946440867
 31
0.0
  0
LINE
  5
3AE68
  8
0
 10
7320.9922863080209936
 20
167.6476692050655117
 30
0.0
 11
7320.9801554476916863
 21
167.8841940925096026
 31
0.0
  0
ARC
  5
3AE69
  8
0
 10
7320.3346452504765693
 20
82.3284659152092786
 30
0.0
 40
85.5675763440085575
 50
89.5744019333597805
 51
90.4255351448509401
  0
ARC
  5
3AE6A
  8
0
 10
7319.6992158829998516
 20
167.8836825847951957
 30
0.0
 40
0.01
 50
90.4255351449551341
 51
177.0088913534146116
  0
ARC
  5
3AE6B
  8
0
 10
7320.970168574037416
 20
167.8836818869199874
 30
0.0
 40
0.01
 50
2.936006599604744
 51
89.5744019333597805
  0
LINE
  5
3AE6C
  8
0
 10
7321.4501813087135815
 20
168.0472606403365887
 30
0.0
 11
7321.4678069629508173
 21
168.0951974835645046
 31
0.0
  0
LINE
  5
3AE6D
  8
0
 10
7318.9948052001918768
 20
168.0472606403365887
 30
0.0
 11
7318.9771795459528221
 21
168.0951974835645046
 31
0.0
  0
LINE
  5
3AE6E
  8
0
 10
7292.4344932544527182
 20
164.8050907305145927
 30
0.0
 11
7292.4344932544527182
 21
166.0192466402654929
 31
0.0
  0
LINE
  5
3AE6F
  8
0
 10
7292.606493254452289
 20
166.0192466402654929
 30
0.0
 11
7292.606493254452289
 21
165.1592466402655077
 31
0.0
  0
ARC
  5
3AE70
  8
0
 10
7292.626493254451816
 20
165.1592466402655077
 30
0.0
 40
0.02
 50
180.0
 51
270.0
  0
LINE
  5
3AE71
  8
0
 10
7293.1844932544536277
 20
164.7992466402654941
 30
0.0
 11
7293.1844932544536277
 21
165.1392466402654975
 31
0.0
  0
LINE
  5
3AE72
  8
0
 10
7293.3564932544531985
 20
166.0192466402654929
 30
0.0
 11
7293.3564932544531985
 21
165.1592466402655077
 31
0.0
  0
LINE
  5
3AE73
  8
0
 10
7316.262493254452238
 20
166.0192466402654929
 30
0.0
 11
7316.262493254452238
 21
165.1592466402655077
 31
0.0
  0
LINE
  5
3AE74
  8
0
 10
7316.4344932544518088
 20
165.1392466402654975
 30
0.0
 11
7316.4344932544518088
 21
164.7992466401655065
 31
0.0
  0
LINE
  5
3AE75
  8
0
 10
7317.012493254452238
 20
166.0192466402654929
 30
0.0
 11
7317.012493254452238
 21
165.1592466402655077
 31
0.0
  0
LINE
  5
3AE76
  8
0
 10
7315.6844932544527182
 20
164.0492466402654941
 30
0.0
 11
7293.9344932544527182
 21
164.0492466402654941
 31
0.0
  0
ARC
  5
3AE79
  8
0
 10
7293.9344932544527182
 20
164.7992466402654941
 30
0.0
 40
0.75
 50
180.0
 51
270.0
  0
ARC
  5
3AE7A
  8
0
 10
7315.6844932544527182
 20
164.7992466401655065
 30
0.0
 40
0.75
 50
270.0
 51
0.0
  0
LINE
  5
3AE7B
  8
0
 10
7317.1843987954680415
 20
164.8050907305145927
 30
0.0
 11
7317.1843987954680415
 21
166.0192466402654929
 31
0.0
  0
LINE
  5
3AE7C
  8
0
 10
7292.626493254451816
 20
165.1392466402654975
 30
0.0
 11
7293.3364932544536714
 21
165.1392466402654975
 31
0.0
  0
ARC
  5
3AE7D
  8
0
 10
7293.3364932544536714
 20
165.1592466402655077
 30
0.0
 40
0.02
 50
270.0
 51
0.0
  0
LINE
  5
3AE7E
  8
0
 10
7316.2824932544517651
 20
165.1392466402654975
 30
0.0
 11
7316.992493254452711
 21
165.1392466402654975
 31
0.0
  0
ARC
  5
3AE7F
  8
0
 10
7316.992493254452711
 20
165.1592466402655077
 30
0.0
 40
0.02
 50
270.0
 51
0.0
  0
ARC
  5
3AE80
  8
0
 10
7316.2824932544517651
 20
165.1592466402655077
 30
0.0
 40
0.02
 50
180.0
 51
270.0
  0
LINE
  5
3AE81
  8
0
 10
7292.4344932544527182
 20
166.0192466402654929
 30
0.0
 11
7293.3564932544531985
 21
166.0192466402654929
 31
0.0
  0
LINE
  5
3AE82
  8
0
 10
7316.262493254452238
 20
166.0192466402654929
 30
0.0
 11
7317.1843987954680415
 21
166.0192466402654929
 31
0.0
  0
LINE
  5
3AE83
  8
0
 10
7292.4369932544523181
 20
166.0492466402654941
 30
0.0
 11
7292.4369932544523181
 21
166.0192466402654929
 31
0.0
  0
LINE
  5
3AE84
  8
0
 10
7293.3539932544526891
 20
166.0492466402654941
 30
0.0
 11
7293.3539932544526891
 21
166.0192466402654929
 31
0.0
  0
LINE
  5
3AE85
  8
0
 10
7292.6089932544527983
 20
166.0492466402654941
 30
0.0
 11
7292.6089932544527983
 21
166.0192466402654929
 31
0.0
  0
LINE
  5
3AE86
  8
0
 10
7316.2649932544527474
 20
166.0492466402654941
 30
0.0
 11
7316.2649932544527474
 21
166.0192466402654929
 31
0.0
  0
LINE
  5
3AE87
  8
0
 10
7317.0099932544526382
 20
166.0492466402654941
 30
0.0
 11
7317.0099932544526382
 21
166.0192466402654929
 31
0.0
  0
LINE
  5
3AE88
  8
0
 10
7317.1819932544522089
 20
166.0492466402654941
 30
0.0
 11
7317.1819932544522089
 21
166.0192466402654929
 31
0.0
  0
LINE
  5
3AE89
  8
0
 10
7293.9344932544527182
 20
163.3050907305145927
 30
0.0
 11
7315.6843987954680415
 21
163.3050907305145927
 31
0.0
  0
ARC
  5
3AE8A
  8
0
 10
7293.9344932544527182
 20
164.8050907305145927
 30
0.0
 40
1.5
 50
180.0
 51
270.0
  0
ARC
  5
3AE8B
  8
0
 10
7315.6843987954680415
 20
164.8050907305145074
 30
0.0
 40
1.5
 50
270.0
 51
0.0000000000008142
  0
LINE
  5
3AE8D
  8
0
 10
7320.8321940418027225
 20
167.3050832223642885
 30
0.0
 11
7319.8371940418019221
 21
167.3050832223642885
 31
0.0
  0
LINE
  5
3AE8E
  8
0
 10
7319.8371940418019221
 20
167.3050832223642885
 30
0.0
 11
7319.8393864281742935
 21
167.1794814926765014
 31
0.0
  0
ARC
  5
3AE8F
  8
0
 10
7319.8493602732578438
 20
167.1810671754263922
 30
0.0
 40
0.01
 50
181.0000000113257954
 51
270.4850538377867792
  0
LINE
  5
3AE90
  8
0
 10
7319.842828251600622
 20
167.3158912458642931
 30
0.0
 11
7319.8425458014280593
 21
167.3320728052835022
 31
0.0
  0
LINE
  5
3AE91
  8
0
 10
7320.8271582572024272
 20
167.3158912458642931
 30
0.0
 11
7320.8274383981679421
 21
167.3319405109020863
 31
0.0
  0
LINE
  5
3AE92
  8
0
 10
7320.8300016554321701
 20
167.1794814926765014
 30
0.0
 11
7320.8321940418027225
 21
167.3050832223642885
 31
0.0
  0
ARC
  5
3AE93
  8
0
 10
7319.8539431506960682
 20
167.3161297701828971
 30
0.0
 40
0.0111174581944148
 50
181.2293712780380019
 51
263.5252816762052248
  0
ARC
  5
3AE94
  8
0
 10
7320.8161599325021598
 20
167.3160832223643126
 30
0.0
 40
0.011
 50
270.0
 51
358.9999999999993747
  0
LINE
  5
3AE95
  8
0
 10
7320.7874426344897074
 20
167.183420322802192
 30
0.0
 11
7320.7889209704017048
 21
167.3050832223642885
 31
0.0
  0
ARC
  5
3AE96
  8
0
 10
7320.77744337265176
 20
167.1835418246562881
 30
0.0
 40
0.01
 50
270.0
 51
359.3038285258522251
  0
LINE
  5
3AE97
  8
0
 10
7320.3773221784076668
 20
167.1834887855829948
 30
0.0
 11
7320.3779671131032956
 21
167.3050832223642885
 31
0.0
  0
LINE
  5
3AE98
  8
0
 10
7320.2920659051987968
 20
167.1834887855746956
 30
0.0
 11
7320.2914209704022142
 21
167.3050832223642885
 31
0.0
  0
LINE
  5
3AE99
  8
0
 10
7319.8819454490148928
 20
167.183420322802192
 30
0.0
 11
7319.8804671131028954
 21
167.3050832223642885
 31
0.0
  0
LINE
  5
3AE9A
  8
0
 10
7320.820071005509817
 20
167.1735418246562972
 30
0.0
 11
7319.8493170780957371
 21
167.1735418246562972
 31
0.0
  0
ARC
  5
3AE9B
  8
0
 10
7320.3673223190644421
 20
167.1835418246562881
 30
0.0
 40
0.01
 50
270.0
 51
359.6961070702668053
  0
ARC
  5
3AE9C
  8
0
 10
7320.302065764541112
 20
167.1835418246562881
 30
0.0
 40
0.01
 50
180.3038929773817927
 51
270.0
  0
ARC
  5
3AE9D
  8
0
 10
7319.8919447108528402
 20
167.1835418246562881
 30
0.0
 40
0.01
 50
180.6961714741470075
 51
270.0
  0
ARC
  5
3AE9E
  8
0
 10
7320.820071005509817
 20
167.1835418246562881
 30
0.0
 40
0.01
 50
270.0
 51
358.9999999886554747
  0
ARC
  5
3AE9F
  8
0
 10
7319.8493170780957371
 20
167.1835418246562881
 30
0.0
 40
0.01
 50
181.0000000113030012
 51
270.0
  0
ARC
  5
3AEA0
  8
0
 10
7319.8493170780957371
 20
167.1635418246563063
 30
0.0
 40
0.01
 50
90.0
 51
90.0
  0
LINE
  5
3AEA1
  8
0
 10
7319.8493849051255893
 20
167.1696560167428913
 30
0.0
 11
7319.9195746962968769
 21
167.1696560167428913
 31
0.0
  0
LINE
  5
3AEA2
  8
0
 10
7320.7498133873077677
 20
167.1696560167428913
 30
0.0
 11
7320.8200031784799648
 21
167.1696560167428913
 31
0.0
  0
ARC
  5
3AEA3
  8
0
 10
7319.8493849051255893
 20
167.1796560167429107
 30
0.0
 40
0.01
 50
181.0000000113030012
 51
270.0
  0
ARC
  5
3AEA4
  8
0
 10
7320.8200031784799648
 20
167.1796560167429107
 30
0.0
 40
0.01
 50
269.9999999999478746
 51
358.9999999887360786
  0
ARC
  5
3AEA5
  8
0
 10
7319.9027027269421524
 20
167.0929821420741916
 30
0.0
 40
0.078510480579711
 50
42.4898179860346232
 51
67.646260465503417
  0
ARC
  5
3AEA6
  8
0
 10
7319.9027589195829933
 20
167.0931187886849045
 30
0.0
 40
0.0783627310989359
 50
67.646260465503417
 51
80.6891518698621297
  0
ARC
  5
3AEA7
  8
0
 10
7319.9064852711171625
 20
167.1158472769319872
 30
0.0
 40
0.0553307994874895
 50
80.6891518698621297
 51
89.7969923518791262
  0
ARC
  5
3AEA8
  8
0
 10
7319.9067789404198265
 20
167.1987305639495105
 30
0.0
 40
0.0275530077880388
 50
262.8625478952262142
 51
269.7969923518792257
  0
ARC
  5
3AEA9
  8
0
 10
7319.9054935021422352
 20
167.1884651611576942
 30
0.0
 40
0.0172074364629762
 50
260.700455701197825
 51
262.8625478952262142
  0
ARC
  5
3AEAA
  8
0
 10
7319.9027878234701348
 20
167.1719417422461902
 30
0.0
 40
0.0004639580428401
 50
242.2976787964672098
 51
260.7004557013029853
  0
ARC
  5
3AEAB
  8
0
 10
7319.9025904205300321
 20
167.1715657820614069
 30
0.0
 40
0.0000393241051311
 50
73.5016425773087576
 51
242.2976787955836073
  0
ARC
  5
3AEAC
  8
0
 10
7320.0668979353649775
 20
162.9398978739002075
 30
0.0
 40
4.2348938223518076
 50
91.3920657500037237
 51
92.2233970168563957
  0
LINE
  5
3AEAD
  8
0
 10
7319.84944493011335
 20
167.1710675337720033
 30
0.0
 11
7319.8688234551491405
 21
167.171231592147393
 31
0.0
  0
LINE
  5
3AEAE
  8
0
 10
7319.8688234551491405
 20
167.171231592147393
 30
0.0
 11
7319.8688234551018468
 21
167.1718887723642979
 31
0.0
  0
LINE
  5
3AEAF
  8
0
 10
7319.8688234551018468
 20
167.1718887723642979
 30
0.0
 11
7319.8492655813361125
 21
167.1720407483101951
 31
0.0
  0
ARC
  5
3AEB0
  8
0
 10
7319.8493432847508302
 20
167.1820404464145042
 30
0.0
 40
0.01
 50
181.0000000113257954
 51
269.5547877476644771
  0
ARC
  5
3AEB1
  8
0
 10
7320.8200278103458913
 20
167.1810671754263922
 30
0.0
 40
0.01
 50
269.5149461622132208
 51
358.9999999886733804
  0
ARC
  5
3AEB2
  8
0
 10
7320.7666853566615828
 20
167.0929821420741916
 30
0.0
 40
0.078510480579711
 50
112.3537395344965972
 51
137.510182013965391
  0
ARC
  5
3AEB3
  8
0
 10
7320.7666291640216514
 20
167.0931187886849045
 30
0.0
 40
0.0783627310989359
 50
99.3108481301378845
 51
112.3537395344965972
  0
ARC
  5
3AEB4
  8
0
 10
7320.7629028124865727
 20
167.1158472769319872
 30
0.0
 40
0.0553307994874895
 50
90.2030076481208738
 51
99.3108481301378845
  0
ARC
  5
3AEB5
  8
0
 10
7320.7626091431857276
 20
167.1987305639495105
 30
0.0
 40
0.0275530077880388
 50
270.2030076481207743
 51
277.1374521047737858
  0
ARC
  5
3AEB6
  8
0
 10
7320.7638945814624094
 20
167.1884651611576942
 30
0.0
 40
0.0172074364629762
 50
277.1374521047737858
 51
279.299544298802175
  0
ARC
  5
3AEB7
  8
0
 10
7320.7666002601354194
 20
167.1719417422461902
 30
0.0
 40
0.0004639580428401
 50
279.2995442986970147
 51
297.7023212035323922
  0
ARC
  5
3AEB8
  8
0
 10
7320.7667976630746125
 20
167.1715657820614069
 30
0.0
 40
0.0000393241051311
 50
297.7023212044164211
 51
106.4983574226911998
  0
ARC
  5
3AEB9
  8
0
 10
7320.6024901482405767
 20
162.9398978739002075
 30
0.0
 40
4.2348938223518076
 50
87.7766029831436185
 51
88.6079342499962479
  0
LINE
  5
3AEBA
  8
0
 10
7320.8199431534922041
 20
167.1710675337720033
 30
0.0
 11
7320.8005646284545946
 21
167.171231592147393
 31
0.0
  0
LINE
  5
3AEBB
  8
0
 10
7320.8005646284545946
 20
167.171231592147393
 30
0.0
 11
7320.8005646285027979
 21
167.1718887723642979
 31
0.0
  0
LINE
  5
3AEBC
  8
0
 10
7320.8005646285027979
 20
167.1718887723642979
 30
0.0
 11
7320.8201225022694416
 21
167.1720407483101951
 31
0.0
  0
ARC
  5
3AEBD
  8
0
 10
7320.8200447988538144
 20
167.1820404464145042
 30
0.0
 40
0.01
 50
270.4452122523355229
 51
358.9999999886733804
  0
ARC
  5
3AEBE
  8
0
 10
7320.1418945279410764
 20
-1270.222385588331008
 30
0.0
 40
1437.5544895610109961
 50
89.9726766726257381
 51
90.0119309694945571
  0
LINE
  5
3AEBF
  8
0
 10
7347.9571076863730923
 20
167.3050832223642885
 30
0.0
 11
7346.9621076863732014
 21
167.3050832223642885
 31
0.0
  0
LINE
  5
3AEC0
  8
0
 10
7346.9621076863732014
 20
167.3050832223642885
 30
0.0
 11
7346.9643000727446633
 21
167.1794814926765014
 31
0.0
  0
ARC
  5
3AEC1
  8
0
 10
7346.9742739178291231
 20
167.1810671754263922
 30
0.0
 40
0.01
 50
181.0000000113257954
 51
270.4850538377867792
  0
LINE
  5
3AEC2
  8
0
 10
7346.9677418961719013
 20
167.3158912458642931
 30
0.0
 11
7346.9674594459984291
 21
167.3320728052835022
 31
0.0
  0
LINE
  5
3AEC3
  8
0
 10
7347.9520719017718875
 20
167.3158912458642931
 30
0.0
 11
7347.9523520427392214
 21
167.3319405109020863
 31
0.0
  0
LINE
  5
3AEC4
  8
0
 10
7347.9549153000016304
 20
167.1794814926765014
 30
0.0
 11
7347.9571076863730923
 21
167.3050832223642885
 31
0.0
  0
ARC
  5
3AEC5
  8
0
 10
7346.978856795266438
 20
167.3161297701828971
 30
0.0
 40
0.0111174581944148
 50
181.2293712780380019
 51
263.5252816762052248
  0
ARC
  5
3AEC6
  8
0
 10
7347.9410735770716201
 20
167.3160832223643126
 30
0.0
 40
0.011
 50
270.0
 51
358.9999999999993747
  0
LINE
  5
3AEC7
  8
0
 10
7347.9123562790600772
 20
167.183420322802192
 30
0.0
 11
7347.9138346149720746
 21
167.3050832223642885
 31
0.0
  0
ARC
  5
3AEC8
  8
0
 10
7347.9023570172221298
 20
167.1835418246562881
 30
0.0
 40
0.01
 50
270.0
 51
359.3038285258522251
  0
LINE
  5
3AEC9
  8
0
 10
7347.5022358229780366
 20
167.1834887855829948
 30
0.0
 11
7347.5028807576727559
 21
167.3050832223642885
 31
0.0
  0
LINE
  5
3AECA
  8
0
 10
7347.4169795497700761
 20
167.1834887855746956
 30
0.0
 11
7347.4163346149725839
 21
167.3050832223642885
 31
0.0
  0
LINE
  5
3AECB
  8
0
 10
7347.0068590935852626
 20
167.183420322802192
 30
0.0
 11
7347.0053807576732652
 21
167.3050832223642885
 31
0.0
  0
LINE
  5
3AECC
  8
0
 10
7347.9449846500801868
 20
167.1735418246562972
 30
0.0
 11
7346.9742307226670164
 21
167.1735418246562972
 31
0.0
  0
ARC
  5
3AECD
  8
0
 10
7347.4922359636348119
 20
167.1835418246562881
 30
0.0
 40
0.01
 50
270.0
 51
359.6961070702668053
  0
ARC
  5
3AECE
  8
0
 10
7347.4269794091105723
 20
167.1835418246562881
 30
0.0
 40
0.01
 50
180.3038929773817927
 51
270.0
  0
ARC
  5
3AECF
  8
0
 10
7347.0168583554241195
 20
167.1835418246562881
 30
0.0
 40
0.01
 50
180.6961714741470075
 51
270.0
  0
ARC
  5
3AED0
  8
0
 10
7347.9449846500801868
 20
167.1835418246562881
 30
0.0
 40
0.01
 50
270.0
 51
358.9999999886554747
  0
ARC
  5
3AED1
  8
0
 10
7346.9742307226670164
 20
167.1835418246562881
 30
0.0
 40
0.01
 50
181.0000000113030012
 51
270.0
  0
ARC
  5
3AED2
  8
0
 10
7346.9742307226670164
 20
167.1635418246563063
 30
0.0
 40
0.01
 50
90.0
 51
90.0
  0
LINE
  5
3AED3
  8
0
 10
7346.9742985496959591
 20
167.1696560167428913
 30
0.0
 11
7347.0444883408672467
 21
167.1696560167428913
 31
0.0
  0
LINE
  5
3AED4
  8
0
 10
7347.8747270318781375
 20
167.1696560167428913
 30
0.0
 11
7347.9449168230503346
 21
167.1696560167428913
 31
0.0
  0
ARC
  5
3AED5
  8
0
 10
7346.9742985496959591
 20
167.1796560167429107
 30
0.0
 40
0.01
 50
181.0000000113030012
 51
270.0
  0
ARC
  5
3AED6
  8
0
 10
7347.9449168230503346
 20
167.1796560167429107
 30
0.0
 40
0.01
 50
269.9999999999478746
 51
358.9999999887360786
  0
ARC
  5
3AED7
  8
0
 10
7347.0276163715116127
 20
167.0929821420741916
 30
0.0
 40
0.078510480579711
 50
42.4898179860340122
 51
67.646260465503417
  0
ARC
  5
3AED8
  8
0
 10
7347.0276725641542725
 20
167.0931187886849045
 30
0.0
 40
0.0783627310989359
 50
67.646260465503417
 51
80.6891518698621297
  0
ARC
  5
3AED9
  8
0
 10
7347.0313989156884418
 20
167.1158472769319872
 30
0.0
 40
0.0553307994874895
 50
80.6891518698621297
 51
89.7969923518791262
  0
ARC
  5
3AEDA
  8
0
 10
7347.0316925849901963
 20
167.1987305639495105
 30
0.0
 40
0.0275530077880388
 50
262.8625478952262142
 51
269.7969923518792257
  0
ARC
  5
3AEDB
  8
0
 10
7347.0304071467116955
 20
167.1884651611576942
 30
0.0
 40
0.0172074364629762
 50
260.700455701197825
 51
262.8625478952262142
  0
ARC
  5
3AEDC
  8
0
 10
7347.0277014680395951
 20
167.1719417422461902
 30
0.0
 40
0.0004639580428401
 50
242.2976787964672098
 51
260.7004557013029853
  0
ARC
  5
3AEDD
  8
0
 10
7347.0275040651004019
 20
167.1715657820614069
 30
0.0
 40
0.0000393241051311
 50
73.5016425773087576
 51
242.2976787955836073
  0
ARC
  5
3AEDE
  8
0
 10
7347.1918115799362567
 20
162.9398978739002075
 30
0.0
 40
4.2348938223518076
 50
91.3920657500037237
 51
92.2233970168563957
  0
LINE
  5
3AEDF
  8
0
 10
7346.9743585746837198
 20
167.1710675337720033
 30
0.0
 11
7346.9937370997204198
 21
167.171231592147393
 31
0.0
  0
LINE
  5
3AEE0
  8
0
 10
7346.9937370997204198
 20
167.171231592147393
 30
0.0
 11
7346.9937370996731261
 21
167.1718887723642979
 31
0.0
  0
LINE
  5
3AEE1
  8
0
 10
7346.9937370996731261
 20
167.1718887723642979
 30
0.0
 11
7346.9741792259073918
 21
167.1720407483101951
 31
0.0
  0
ARC
  5
3AEE2
  8
0
 10
7346.9742569293212
 20
167.1820404464145042
 30
0.0
 40
0.01
 50
181.0000000113257954
 51
269.5547877476644771
  0
ARC
  5
3AEE3
  8
0
 10
7347.9449414549162611
 20
167.1810671754263922
 30
0.0
 40
0.01
 50
269.5149461622132208
 51
358.9999999886733804
  0
ARC
  5
3AEE4
  8
0
 10
7347.8915990012328621
 20
167.0929821420741916
 30
0.0
 40
0.078510480579711
 50
112.3537395344965972
 51
137.5101820139659878
  0
ARC
  5
3AEE5
  8
0
 10
7347.8915428085929307
 20
167.0931187886849045
 30
0.0
 40
0.0783627310989359
 50
99.3108481301378845
 51
112.3537395344965972
  0
ARC
  5
3AEE6
  8
0
 10
7347.8878164570569425
 20
167.1158472769319872
 30
0.0
 40
0.0553307994874895
 50
90.2030076481208738
 51
99.3108481301378845
  0
ARC
  5
3AEE7
  8
0
 10
7347.8875227877570069
 20
167.1987305639495105
 30
0.0
 40
0.0275530077880388
 50
270.2030076481207743
 51
277.1374521047737858
  0
ARC
  5
3AEE8
  8
0
 10
7347.8888082260318697
 20
167.1884651611576942
 30
0.0
 40
0.0172074364629762
 50
277.1374521047737858
 51
279.299544298802175
  0
ARC
  5
3AEE9
  8
0
 10
7347.8915139047057892
 20
167.1719417422461902
 30
0.0
 40
0.0004639580428401
 50
279.2995442986970147
 51
297.7023212035323922
  0
ARC
  5
3AEEA
  8
0
 10
7347.8917113076449823
 20
167.1715657820614069
 30
0.0
 40
0.0000393241051311
 50
297.7023212044164211
 51
106.4983574226911998
  0
ARC
  5
3AEEB
  8
0
 10
7347.7274037928109465
 20
162.9398978739002075
 30
0.0
 40
4.2348938223518076
 50
87.7766029831436185
 51
88.6079342499962479
  0
LINE
  5
3AEEC
  8
0
 10
7347.9448567980616644
 20
167.1710675337720033
 30
0.0
 11
7347.9254782730249644
 21
167.171231592147393
 31
0.0
  0
LINE
  5
3AEED
  8
0
 10
7347.9254782730249644
 20
167.171231592147393
 30
0.0
 11
7347.9254782730731677
 21
167.1718887723642979
 31
0.0
  0
LINE
  5
3AEEE
  8
0
 10
7347.9254782730731677
 20
167.1718887723642979
 30
0.0
 11
7347.9450361468389019
 21
167.1720407483101951
 31
0.0
  0
ARC
  5
3AEEF
  8
0
 10
7347.9449584434250937
 20
167.1820404464145042
 30
0.0
 40
0.01
 50
270.4452122523355229
 51
358.9999999886733804
  0
ARC
  5
3AEF0
  8
0
 10
7347.2668081725123557
 20
-1270.222385588331008
 30
0.0
 40
1437.5544895610109961
 50
89.9726766726257381
 51
90.0119309694945571
  0
LINE
  5
3AEF1
  8
0
 10
7347.9550010066359391
 20
167.1843916224486009
 30
0.0
 11
7348.5634920531520038
 21
167.1827370023655135
 31
0.0
  0
LINE
  5
3AEF2
  8
0
 10
7348.5634920531520038
 20
167.1827370023655135
 30
0.0
 11
7348.5634932544517142
 21
167.1527373173655064
 31
0.0
  0
LINE
  5
3AEF3
  8
0
 10
7347.84067653962029
 20
167.1527383004516025
 30
0.0
 11
7348.5659931059526571
 21
167.1527373139655026
 31
0.0
  0
LINE
  5
3AEF4
  8
0
 10
7348.5659931059526571
 20
167.1527373139655026
 30
0.0
 11
7348.5659931059526571
 21
167.1460127665654909
 31
0.0
  0
ENDSEC
  0
EOF
