  0
SECTION
  2
HEADER
  9
$ACADVER
  1
AC1009
  9
$INSBASE
 10
5.1521484845999987
 20
0.2863760993
 30
0.0
  9
$EXTMIN
 10
3.8371484845999988
 20
0.2769935594558248
 30
0.0
  9
$EXTMAX
 10
6.4671484846
 20
9.2243760992999988
 30
0.0
  9
$LIMMIN
 10
0.0
 20
0.0
  9
$LIMMAX
 10
11.692913385800001
 20
8.2677165353999982
  9
$ORTHOMODE
 70
     0
  9
$REGENMODE
 70
     1
  9
$FILLMODE
 70
     1
  9
$QTEXTMODE
 70
     0
  9
$MIRRTEXT
 70
     0
  9
$DRAGMODE
 70
     2
  9
$LTSCALE
 40
0.6431102362
  9
$OSMODE
 70
  3071
  9
$ATTMODE
 70
     1
  9
$TEXTSIZE
 40
0.2
  9
$TRACEWID
 40
0.05
  9
$TEXTSTYLE
  7
STANDARD
  9
$CLAYER
  8
0
  9
$CELTYPE
  6
BYLAYER
  9
$CECOLOR
 62
   256
  9
$DIMSCALE
 40
1.0
  9
$DIMASZ
 40
0.1875
  9
$DIMEXO
 40
0.0625
  9
$DIMDLI
 40
0.4443307087
  9
$DIMRND
 40
0.0
  9
$DIMDLE
 40
0.0
  9
$DIMEXE
 40
0.125
  9
$DIMTP
 40
0.01
  9
$DIMTM
 40
0.01
  9
$DIMTXT
 40
1.0
  9
$DIMCEN
 40
0.1052362205
  9
$DIMTSZ
 40
0.0
  9
$DIMTOL
 70
     1
  9
$DIMLIM
 70
     0
  9
$DIMTIH
 70
     1
  9
$DIMTOH
 70
     1
  9
$DIMSE1
 70
     0
  9
$DIMSE2
 70
     0
  9
$DIMTAD
 70
     0
  9
$DIMZIN
 70
     0
  9
$DIMBLK
  1

  9
$DIMASO
 70
     1
  9
$DIMSHO
 70
     1
  9
$DIMPOST
  1
\X
  9
$DIMAPOST
  1

  9
$DIMALT
 70
     1
  9
$DIMALTD
 70
     2
  9
$DIMALTF
 40
25.399999999999999
  9
$DIMLFAC
 40
1.0
  9
$DIMTOFL
 70
     0
  9
$DIMTVP
 40
0.0
  9
$DIMTIX
 70
     0
  9
$DIMSOXD
 70
     0
  9
$DIMSAH
 70
     0
  9
$DIMBLK1
  1

  9
$DIMBLK2
  1

  9
$DIMSTYLE
  2
STANDARD
  9
$DIMCLRD
 70
     0
  9
$DIMCLRE
 70
     0
  9
$DIMCLRT
 70
     0
  9
$DIMTFAC
 40
1.0
  9
$DIMGAP
 40
0.09
  9
$LUNITS
 70
     2
  9
$LUPREC
 70
     4
  9
$SKETCHINC
 40
0.1
  9
$FILLETRAD
 40
0.0
  9
$AUNITS
 70
     0
  9
$AUPREC
 70
     0
  9
$MENU
  1
.
  9
$ELEVATION
 40
0.0
  9
$PELEVATION
 40
0.0
  9
$THICKNESS
 40
0.0
  9
$LIMCHECK
 70
     0
  9
$BLIPMODE
 70
     0
  9
$CHAMFERA
 40
0.0
  9
$CHAMFERB
 40
0.0
  9
$SKPOLY
 70
     0
  9
$TDCREATE
 40
2457701.6136502428
  9
$TDUPDATE
 40
2457702.5757221528
  9
$TDINDWG
 40
0.0789733681
  9
$TDUSRTIMER
 40
0.0789733681
  9
$USRTIMER
 70
     1
  9
$ANGBASE
 50
0.0
  9
$ANGDIR
 70
     0
  9
$PDMODE
 70
     0
  9
$PDSIZE
 40
0.3125
  9
$PLINEWID
 40
0.0
  9
$COORDS
 70
     1
  9
$SPLFRAME
 70
     0
  9
$SPLINETYPE
 70
     6
  9
$SPLINESEGS
 70
     8
  9
$ATTDIA
 70
     1
  9
$ATTREQ
 70
     1
  9
$HANDLING
 70
     1
  9
$HANDSEED
  5
1FDD
  9
$SURFTAB1
 70
     6
  9
$SURFTAB2
 70
     6
  9
$SURFTYPE
 70
     6
  9
$SURFU
 70
     6
  9
$SURFV
 70
     6
  9
$UCSNAME
  2

  9
$UCSORG
 10
0.0
 20
0.0
 30
0.0
  9
$UCSXDIR
 10
1.0
 20
0.0
 30
0.0
  9
$UCSYDIR
 10
0.0
 20
1.0
 30
0.0
  9
$PUCSNAME
  2

  9
$PUCSORG
 10
0.0
 20
0.0
 30
0.0
  9
$PUCSXDIR
 10
1.0
 20
0.0
 30
0.0
  9
$PUCSYDIR
 10
0.0
 20
1.0
 30
0.0
  9
$USERI1
 70
     0
  9
$USERI2
 70
     0
  9
$USERI3
 70
     0
  9
$USERI4
 70
     0
  9
$USERI5
 70
     0
  9
$USERR1
 40
0.0
  9
$USERR2
 40
0.0
  9
$USERR3
 40
0.0
  9
$USERR4
 40
0.0
  9
$USERR5
 40
0.0
  9
$WORLDVIEW
 70
     1
  9
$SHADEDGE
 70
     3
  9
$SHADEDIF
 70
    70
  9
$TILEMODE
 70
     1
  9
$MAXACTVP
 70
    64
  9
$PLIMCHECK
 70
     0
  9
$PEXTMIN
 10
1.0000000000000000E+020
 20
1.0000000000000000E+020
 30
1.0000000000000000E+020
  9
$PEXTMAX
 10
-1.0000000000000000E+020
 20
-1.0000000000000000E+020
 30
-1.0000000000000000E+020
  9
$PLIMMIN
 10
0.0
 20
0.0
  9
$PLIMMAX
 10
12.0
 20
9.0
  9
$UNITMODE
 70
     0
  9
$VISRETAIN
 70
     1
  9
$PLINEGEN
 70
     0
  9
$PSLTSCALE
 70
     1
  0
ENDSEC
  0
SECTION
  2
TABLES
  0
TABLE
  2
VPORT
 70
     1
  0
VPORT
  2
*ACTIVE
 70
     0
 10
0.0
 20
0.0
 11
1.0
 21
1.0
 12
0.0
 22
0.0
 13
0.0
 23
0.0
 14
1.0
 24
1.0
 15
0.0
 25
0.0
 16
-0.0000000000000062
 26
0.0
 36
26.8725669275324
 17
5.1521483659744263
 27
4.7506846421241518
 37
0.0
 40
9.3259072995854932
 41
2.1638418079096038
 42
50.0
 43
0.0
 44
0.0
 50
0.0
 51
0.0
 71
     0
 72
   100
 73
     1
 74
     1
 75
     0
 76
     0
 77
     0
 78
     0
  0
ENDTAB
  0
TABLE
  2
LTYPE
 70
     2
  0
LTYPE
  2
CONTINUOUS
 70
     0
  3
Solid line
 72
    65
 73
     0
 40
0.0
  0
LTYPE
  2
PHANTOM2
 70
     0
  3
___ _ _ ___ _ _ ___ _ _ ___ _ _
 72
    65
 73
     6
 40
1.25
 49
0.625
 49
-0.125
 49
0.125
 49
-0.125
 49
0.125
 49
-0.125
  0
ENDTAB
  0
TABLE
  2
LAYER
 70
     2
  0
LAYER
  2
0
 70
     0
 62
     7
  6
CONTINUOUS
  0
LAYER
  2
DEFPOINTS
 70
     0
 62
     7
  6
CONTINUOUS
  0
ENDTAB
  0
TABLE
  2
STYLE
 70
     1
  0
STYLE
  2
STANDARD
 70
     0
 40
0.0
 41
0.8
 50
0.0
 71
     0
 42
0.2
  3
txt
  4

  0
ENDTAB
  0
TABLE
  2
VIEW
 70
     0
  0
ENDTAB
  0
TABLE
  2
UCS
 70
     0
  0
ENDTAB
  0
TABLE
  2
APPID
 70
     8
  0
APPID
  2
ACAD
 70
     0
  0
APPID
  2
ACAD_DSTYLE_DIMJAG
 70
     0
  0
APPID
  2
ACAD_DSTYLE_DIMTALN
 70
     0
  0
APPID
  2
ACAD_NAV_VCDISPLAY
 70
     0
  0
APPID
  2
ACAD_DSTYLE_DIMRADIAL_EXTENSION
 70
     0
  0
APPID
  2
ACAD_EXEMPT_FROM_CAD_STANDARDS
 70
     0
  0
APPID
  2
ACAD_MLEADERVER
 70
     0
  0
APPID
  2
ACDBATTR
 70
     0
  0
ENDTAB
  0
TABLE
  2
DIMSTYLE
 70
     1
  0
DIMSTYLE
  2
STANDARD
 70
     0
  3

  4

  5

  6

  7

 40
1.0
 41
0.1875
 42
0.0625
 43
0.38
 44
0.125
 45
0.0
 46
0.0
 47
0.01
 48
0.01
140
0.15625
141
0.09
142
0.0
143
25.399999999999999
144
1.0
145
0.0
146
1.0
147
0.09
 71
     1
 72
     0
 73
     1
 74
     1
 75
     0
 76
     0
 77
     0
 78
     4
170
     0
171
     2
172
     0
173
     0
174
     0
175
     0
176
     0
177
     0
178
     0
  0
ENDTAB
  0
ENDSEC
  0
SECTION
  2
BLOCKS
  0
BLOCK
  8
0
  2
$MODEL_SPACE
 70
     0
 10
0.0
 20
0.0
 30
0.0
  3
$MODEL_SPACE
  1

  0
ENDBLK
  5
21
  8
0
  0
BLOCK
 67
     1
  8
0
  2
$PAPER_SPACE
 70
     0
 10
0.0
 20
0.0
 30
0.0
  3
$PAPER_SPACE
  1

  0
ENDBLK
  5
1D
 67
     1
  8
0
  0
ENDSEC
  0
SECTION
  2
ENTITIES
  0
LINE
  5
217
  8
0
 10
4.5271484845999987
 20
0.2863760993
 30
0.0
 11
5.7771484845999996
 21
0.2863760993
 31
0.0
  0
LINE
  5
218
  8
0
 10
6.1953376102999993
 20
9.1383449988999992
 30
0.0
 11
6.0001152944999996
 21
9.0639006910000006
 31
0.0
  0
LINE
  5
219
  8
0
 10
4.4457533904000002
 20
8.4363760993000003
 30
0.0
 11
4.4333984845999987
 21
8.4276948212999994
 31
0.0
  0
LINE
  5
21A
  8
0
 10
4.4635765998811783
 20
8.4038741468310771
 30
0.0
 11
4.4333984845999987
 21
8.3826948212999994
 31
0.0
  0
LINE
  5
21C
  8
0
 10
4.4635797401054669
 20
8.3588787300488914
 30
0.0
 11
4.4333984845999987
 21
8.3376948212999995
 31
0.0
  0
LINE
  5
21D
  8
0
 10
4.4635946022707271
 20
8.3138727423851204
 30
0.0
 11
4.4333984845999987
 21
8.2926948212999996
 31
0.0
  0
LINE
  5
21E
  8
0
 10
4.4635749169464027
 20
8.2688747153015267
 30
0.0
 11
4.4333984845999987
 21
8.2476948212999996
 31
0.0
  0
LINE
  5
21F
  8
0
 10
4.4635828358993734
 20
8.2238792601565631
 30
0.0
 11
4.4334092049019027
 21
8.2026888102433162
 31
0.0
  0
LINE
  5
23D
  8
0
 10
5.8407107897312081
 20
8.426372811026086
 30
0.0
 11
5.8549951475999986
 21
8.4363760993000003
 31
0.0
  0
LINE
  5
272
  8
0
 10
4.3771484846000002
 20
6.8963760992999994
 30
0.0
 11
4.0757234846000001
 21
6.496376099299999
 31
0.0
  0
LINE
  5
27C
  8
0
 10
4.0757234846000001
 20
6.496376099299999
 30
0.0
 11
3.9021484845999992
 21
6.4463760992999992
 31
0.0
  0
LINE
  5
283
  8
0
 10
4.4635741599934811
 20
6.378877243892342
 30
0.0
 11
4.4334714266999997
 21
6.3577968508999998
 31
0.0
  0
LINE
  5
28E
  8
0
 10
3.8371484845999988
 20
6.1363760992999987
 30
0.0
 11
3.8371484845999988
 21
6.166376099299999
 31
0.0
  0
LINE
  5
28F
  8
0
 10
3.8421484845999991
 20
5.831376099299999
 30
0.0
 11
3.8421484845999991
 21
5.8963760992999994
 31
0.0
  0
LINE
  5
290
  8
0
 10
3.9021484845999992
 20
6.4463760992999992
 30
0.0
 11
3.9021484845999992
 21
6.3963760992999994
 31
0.0
  0
LINE
  5
2BE
  8
0
 10
4.5271484845999987
 20
3.9910200701999989
 30
0.0
 11
4.5490484846000001
 21
3.9783760993000001
 31
0.0
  0
LINE
  5
2BF
  8
0
 10
4.5272006072000002
 20
4.020971260749528
 30
0.0
 11
4.5490737230000002
 21
4.0083411351454323
 31
0.0
  0
LINE
  5
2C0
  8
0
 10
4.5271484845999987
 20
4.051020070199999
 30
0.0
 11
4.5490790524999989
 21
4.038341448415034
 31
0.0
  0
LINE
  5
2C1
  8
0
 10
4.3221484845999987
 20
5.4663760992999988
 30
0.0
 11
4.3221484845999987
 21
5.7563760992999988
 31
0.0
  0
LINE
  5
2C3
  8
0
 10
4.4333984845999987
 20
8.4276948212999994
 30
0.0
 11
4.4333984845999987
 21
8.4250573773999982
 31
0.0
  0
LINE
  5
2C4
  8
0
 10
4.4333984845999987
 20
8.3826948212999994
 30
0.0
 11
4.4333984845999987
 21
8.3800434233000001
 31
0.0
  0
LINE
  5
2C5
  8
0
 10
4.4333984845999987
 20
8.3376948212999995
 30
0.0
 11
4.4333984845999987
 21
8.3350573774000001
 31
0.0
  0
LINE
  5
2C6
  8
0
 10
4.4333984845999987
 20
8.2926948212999996
 30
0.0
 11
4.4333984845999987
 21
8.2900573774000001
 31
0.0
  0
LINE
  5
2C7
  8
0
 10
4.4333984845999987
 20
8.2476948212999996
 30
0.0
 11
4.4333984845999987
 21
8.2450573774000002
 31
0.0
  0
LINE
  5
2F2
  8
0
 10
4.4384010997000001
 20
5.7563760992999988
 30
0.0
 11
4.4384010997000001
 21
5.4663760992999988
 31
0.0
  0
LINE
  5
2F3
  8
0
 10
4.472148484599999
 20
4.3239496933999986
 30
0.0
 11
4.472148484599999
 21
4.0663760993000002
 31
0.0
  0
LINE
  5
2F4
  8
0
 10
4.517148484599999
 20
5.3677732856000002
 30
0.0
 11
4.517148484599999
 21
4.4062289130999988
 31
0.0
  0
LINE
  5
2F5
  8
0
 10
4.5271484845999987
 20
4.0517321283999994
 30
0.0
 11
4.5271484845999987
 21
4.051020070199999
 31
0.0
  0
LINE
  5
2F7
  8
0
 10
4.5271484845999987
 20
3.9917321283999989
 30
0.0
 11
4.5271484845999987
 21
0.2863760993
 31
0.0
  0
LINE
  5
2F8
  8
0
 10
4.5490484846000001
 20
3.974395121252154
 30
0.0
 11
4.5490484846000001
 21
3.9783760993000001
 31
0.0
  0
LINE
  5
2F9
  8
0
 10
4.5490737230000002
 20
4.0083411351454323
 30
0.0
 11
4.5490737230000002
 21
4.0044067844897189
 31
0.0
  0
LINE
  5
2FA
  8
0
 10
4.5490790524999989
 20
4.038341448415034
 30
0.0
 11
4.5490790524999989
 21
4.0344072019936128
 31
0.0
  0
LINE
  5
2FB
  8
0
 10
4.5490831941999996
 20
4.0663760993000002
 30
0.0
 11
4.5490831941999996
 21
4.0644077451144449
 31
0.0
  0
LINE
  5
313
  8
0
 10
4.472148484599999
 20
4.0663760993000002
 30
0.0
 11
5.8321484846000002
 21
4.0663760993000002
 31
0.0
  0
LINE
  5
314
  8
0
 10
4.3426191604999991
 20
9.0125342585000006
 30
0.0
 11
4.3693867307999987
 21
8.6715565937000001
 31
0.0
  0
LINE
  5
31E
  8
0
 10
5.7771484845999996
 20
3.9767321283999988
 30
0.0
 11
5.7552262238000003
 21
3.9894065952812618
 31
0.0
  0
LINE
  5
31F
  8
0
 10
5.7771484845999996
 20
4.0067321283999986
 30
0.0
 11
5.7552204577000001
 21
4.0194069411952604
 31
0.0
  0
LINE
  5
320
  8
0
 10
5.7771484845999996
 20
4.0367321283999988
 30
0.0
 11
5.7552156746999996
 21
4.0494074333362802
 31
0.0
  0
LINE
  5
322
  8
0
 10
5.0415526048999988
 20
5.7563760992999988
 30
0.0
 11
5.0415526048999988
 21
5.4663760992999988
 31
0.0
  0
LINE
  5
32E
  8
0
 10
4.4995748962000004
 20
4.3638025108999994
 30
0.0
 11
4.4809352916999989
 21
4.3451629063999988
 31
0.0
  0
LINE
  5
32F
  8
0
 10
5.8308984845999996
 20
5.4363760992999994
 30
0.0
 11
5.8047220690999994
 21
5.4101996838000002
 31
0.0
  0
LINE
  5
330
  8
0
 10
4.4733984845999988
 20
5.4363760992999994
 30
0.0
 11
4.499574900199999
 21
5.4101996838000002
 31
0.0
  0
LINE
  5
331
  8
0
 10
4.3773832324999988
 20
8.6014777798999997
 30
0.0
 11
4.4002322487000001
 21
8.4491510052999992
 31
0.0
  0
LINE
  5
332
  8
0
 10
5.2627443643999987
 20
5.4663760992999988
 30
0.0
 11
5.2627443643999987
 21
5.7563760992999988
 31
0.0
  0
LINE
  5
334
  8
0
 10
5.9269137366999987
 20
8.6014777798999997
 30
0.0
 11
5.9040647204999992
 21
8.4491510052999992
 31
0.0
  0
LINE
  5
335
  8
0
 10
4.5490831941999996
 20
4.0644077451144449
 30
0.0
 11
4.5271484845999987
 21
4.0517321283999994
 31
0.0
  0
LINE
  5
336
  8
0
 10
4.5490790524999989
 20
4.0344072019936128
 30
0.0
 11
4.5272006072000002
 21
4.021773883899999
 31
0.0
  0
LINE
  5
337
  8
0
 10
4.5490737230000002
 20
4.0044067844897189
 30
0.0
 11
4.5271484845999987
 21
3.9917321283999989
 31
0.0
  0
LINE
  5
338
  8
0
 10
5.8047220730999989
 20
4.3638025108999994
 30
0.0
 11
5.8233616775000003
 21
4.3451629063999988
 31
0.0
  0
LINE
  5
339
  8
0
 10
5.7552156746999996
 20
4.0494074333362802
 30
0.0
 11
5.7552156746999996
 21
4.0533416659563226
 31
0.0
  0
LINE
  5
33A
  8
0
 10
5.7552204577000001
 20
4.0194069411952587
 30
0.0
 11
5.7552204576999992
 21
4.0233413134031162
 31
0.0
  0
LINE
  5
33B
  8
0
 10
5.7552262238000003
 20
3.989406595281261
 30
0.0
 11
5.7552262238000003
 21
3.99334110345514
 31
0.0
  0
LINE
  5
33C
  8
0
 10
5.7771484845999996
 20
4.0367321283999988
 30
0.0
 11
5.7771484845999996
 21
4.0360200702000002
 31
0.0
  0
LINE
  5
33D
  8
0
 10
5.7771484845999996
 20
4.0067321283999986
 30
0.0
 11
5.7771484845999996
 21
4.0060200701999991
 31
0.0
  0
LINE
  5
33E
  8
0
 10
5.7771484845999996
 20
3.9767321283999988
 30
0.0
 11
5.7771484845999996
 21
0.2863760993
 31
0.0
  0
LINE
  5
33F
  8
0
 10
5.7871484846000003
 20
5.3677732856000002
 30
0.0
 11
5.7871484846000003
 21
4.4062289130999988
 31
0.0
  0
LINE
  5
340
  8
0
 10
5.9616778087000002
 20
9.0125342585000006
 30
0.0
 11
5.9349102383999996
 21
8.6715565937000001
 31
0.0
  0
LINE
  5
341
  8
0
 10
4.5490484846000001
 20
3.974395121252154
 30
0.0
 11
4.5271992611999989
 21
3.9617789070999989
 31
0.0
  0
LINE
  5
349
  8
0
 10
5.8321484846000002
 20
4.3239496933999986
 30
0.0
 11
5.8321484846000002
 21
4.0663760993000002
 31
0.0
  0
LINE
  5
34A
  8
0
 10
5.8658958696000001
 20
5.4663760992999988
 30
0.0
 11
5.8658958696000001
 21
5.7563760992999988
 31
0.0
  0
LINE
  5
379
  8
0
 10
5.9821484845999997
 20
5.7563760992999988
 30
0.0
 11
5.9821484845999997
 21
5.4663760992999988
 31
0.0
  0
LINE
  5
37C
  8
0
 10
5.7552156746999996
 20
4.0533416659563226
 30
0.0
 11
5.7770905007
 21
4.0659729406
 31
0.0
  0
LINE
  5
37D
  8
0
 10
5.7552204577000001
 20
4.0233413134031162
 30
0.0
 11
5.7771484845999996
 21
4.0360200702000002
 31
0.0
  0
LINE
  5
37E
  8
0
 10
5.7552262238000003
 20
3.99334110345514
 30
0.0
 11
5.7771484845999996
 21
4.0060200701999991
 31
0.0
  0
LINE
  5
37F
  8
0
 10
4.3521484845999989
 20
5.4363760992999994
 30
0.0
 11
5.9521484846000003
 21
5.4363760992999994
 31
0.0
  0
LINE
  5
388
  8
0
 10
4.4385858775000004
 20
6.3963760992999994
 30
0.0
 11
4.4635741599934802
 21
6.378877243892342
 31
0.0
  0
LINE
  5
38A
  8
0
 10
6.4021484845999996
 20
6.4463760992999992
 30
0.0
 11
6.4021484845999996
 21
6.3963760992999994
 31
0.0
  0
LINE
  5
38C
  8
0
 10
3.8571484845999988
 20
5.8163760992999993
 30
0.0
 11
6.4471484845999996
 21
5.8163760992999993
 31
0.0
  0
LINE
  5
38E
  8
0
 10
6.4621484846000001
 20
5.8963760992999994
 30
0.0
 11
3.8421484845999991
 21
5.8963760992999994
 31
0.0
  0
LINE
  5
38F
  8
0
 10
6.4621484846000001
 20
5.831376099299999
 30
0.0
 11
6.4621484846000001
 21
5.8963760992999994
 31
0.0
  0
LINE
  5
390
  8
0
 10
6.4671484846
 20
6.1363760992999987
 30
0.0
 11
6.4671484846
 21
6.166376099299999
 31
0.0
  0
LINE
  5
391
  8
0
 10
3.8371484845999988
 20
6.1363760992999987
 30
0.0
 11
6.4671484846
 21
6.1363760992999987
 31
0.0
  0
LINE
  5
392
  8
0
 10
6.4671484846
 20
6.166376099299999
 30
0.0
 11
3.8371484845999988
 21
6.166376099299999
 31
0.0
  0
LINE
  5
3A2
  8
0
 10
3.9021484845999992
 20
6.3963760992999994
 30
0.0
 11
6.4021484845999996
 21
6.3963760992999994
 31
0.0
  0
LINE
  5
3A3
  8
0
 10
6.4021484845999996
 20
6.4463760992999992
 30
0.0
 11
3.9021484845999992
 21
6.4463760992999992
 31
0.0
  0
LINE
  5
3A4
  8
0
 10
6.2285734846
 20
6.496376099299999
 30
0.0
 11
4.0757234846000001
 21
6.496376099299999
 31
0.0
  0
LINE
  5
3AD
  8
0
 10
5.8708302308000002
 20
6.3802776689999989
 30
0.0
 11
5.8478422762999989
 21
6.3963760992999994
 31
0.0
  0
LINE
  5
3B5
  8
0
 10
5.9271484845999991
 20
6.8963760992999994
 30
0.0
 11
4.3771484846000002
 21
6.8963760992999994
 31
0.0
  0
LINE
  5
3B6
  8
0
 10
6.2285734846
 20
6.496376099299999
 30
0.0
 11
6.4021484845999996
 21
6.4463760992999992
 31
0.0
  0
LINE
  5
3C0
  8
0
 10
5.9271484845999991
 20
6.8963760992999994
 30
0.0
 11
6.2285734846
 21
6.496376099299999
 31
0.0
  0
LINE
  5
3CE
  8
0
 10
4.4333984845999987
 20
8.2450573774000002
 30
0.0
 11
4.4635828358993734
 21
8.2238792601565631
 31
0.0
  0
LINE
  5
3D0
  8
0
 10
4.4333984845999987
 20
8.2900573774000001
 30
0.0
 11
4.4635749169464027
 21
8.2688747153015267
 31
0.0
  0
LINE
  5
3D2
  8
0
 10
4.4333984845999987
 20
8.3350573774000001
 30
0.0
 11
4.4635946022707262
 21
8.3138727423851204
 31
0.0
  0
LINE
  5
3D6
  8
0
 10
4.4333984845999987
 20
8.3800434233000001
 30
0.0
 11
4.4635797401054651
 21
8.3588787300488896
 31
0.0
  0
LINE
  5
3D8
  8
0
 10
4.4333984845999987
 20
8.4250573773999982
 30
0.0
 11
4.4635765998811783
 21
8.4038741468310771
 31
0.0
  0
LINE
  5
3EF
  8
0
 10
5.8709046607563664
 20
8.4051927398982311
 30
0.0
 11
5.8407107897312089
 21
8.4263728110260843
 31
0.0
  0
LINE
  5
3F1
  8
0
 10
4.4150662039999986
 20
8.4363760993000003
 30
0.0
 11
5.8892307651999989
 21
8.4363760993000003
 31
0.0
  0
LINE
  5
3F3
  8
0
 10
4.1089593588999991
 20
9.1383449988999992
 30
0.0
 11
4.3041816747999997
 21
9.0639006910000006
 31
0.0
  0
LINE
  5
3F9
  8
0
 10
6.1846484846000003
 20
9.1963760993000001
 30
0.0
 11
4.119648484599999
 21
9.1963760993000001
 31
0.0
  0
ARC
  5
63E
  8
0
 10
4.2621484845999991
 20
5.7563760992999988
 30
0.0
 40
0.06
 50
0.0
 51
89.999999985900004
  0
ARC
  5
63F
  8
0
 10
4.3521484845999989
 20
5.4663760992999988
 30
0.0
 40
0.03
 50
179.9999999975
 51
270.0
  0
ARC
  5
640
  8
0
 10
3.8571484845999988
 20
5.831376099299999
 30
0.0
 40
0.015
 50
180.0
 51
270.0
  0
ARC
  5
641
  8
0
 10
4.282803187699999
 20
9.0078385799999996
 30
0.0
 40
0.06
 50
4.4886326734999997
 51
69.126362835500004
  0
ARC
  5
642
  8
0
 10
4.119648484599999
 20
9.1663760992999972
 30
0.0
 40
0.03
 50
90.0
 51
249.12660366579999
  0
ARC
  5
643
  8
0
 10
4.4571484845999993
 20
5.3677732856000002
 30
0.0
 40
0.06
 50
0.0
 51
44.999988336899989
  0
ARC
  5
644
  8
0
 10
4.4571484845999993
 20
4.4062289130999988
 30
0.0
 40
0.06
 50
315.00000629390001
 51
360.0
  0
ARC
  5
645
  8
0
 10
4.5021484846000002
 20
4.3239496925000003
 30
0.0
 40
0.03
 50
134.9999715628
 51
180.0
  0
ARC
  5
651
  8
0
 10
4.937977384599999
 20
8.7498182375999995
 30
0.0
 40
1.0
 50
351.46921152210001
 51
355.51133629769998
  0
ARC
  5
652
  8
0
 10
4.4150662958999991
 20
8.4513760992999991
 30
0.0
 40
0.015
 50
188.5307162565
 51
269.99964895030001
  0
ARC
  5
673
  8
0
 10
5.1521484845999987
 20
6.2243760992999988
 30
0.0
 40
3.0
 50
82.188753126800009
 51
97.811246873200005
  0
ARC
  5
674
  8
0
 10
5.3663195847000003
 20
8.7498182375999995
 30
0.0
 40
1.0
 50
184.48866370229999
 51
188.53078847789999
  0
ARC
  5
676
  8
0
 10
6.0421484846000002
 20
5.7563760992999988
 30
0.0
 40
0.06
 50
90.000000014099996
 51
180.0
  0
ARC
  5
677
  8
0
 10
5.8471484845999999
 20
4.4062289130999988
 30
0.0
 40
0.06
 50
180.0
 51
224.99999370610001
  0
ARC
  5
678
  8
0
 10
5.8471484845999999
 20
5.3677732856000002
 30
0.0
 40
0.06
 50
135.00001169699999
 51
180.0
  0
ARC
  5
67A
  8
0
 10
5.9521484846000003
 20
5.4663760992999988
 30
0.0
 40
0.03
 50
270.0
 51
360.0
  0
ARC
  5
67B
  8
0
 10
5.8021484845999991
 20
4.3239496925000003
 30
0.0
 40
0.03
 50
0.0
 51
45.000028437199987
  0
ARC
  5
67C
  8
0
 10
6.4471484845999996
 20
5.831376099299999
 30
0.0
 40
0.015
 50
270.0
 51
360.0
  0
ARC
  5
686
  8
0
 10
6.0214937814999994
 20
9.0078385799999996
 30
0.0
 40
0.06
 50
110.8736371645
 51
175.51136732649999
  0
ARC
  5
687
  8
0
 10
6.1846484846000003
 20
9.1663760992999972
 30
0.0
 40
0.03
 50
290.87339633419998
 51
90.0
  0
ARC
  5
688
  8
0
 10
5.8892306733000002
 20
8.4513760992999991
 30
0.0
 40
0.015
 50
270.00035104969999
 51
351.4692837435
  0
LINE
  5
BE8
  8
0
 10
4.4635904604073708
 20
8.1788727189922081
 30
0.0
 11
4.4334092049019027
 21
8.157688810243318
 31
0.0
  0
LINE
  5
BE9
  8
0
 10
4.4636053225726311
 20
8.1338667313284372
 30
0.0
 11
4.4334092049019027
 21
8.1126888102433181
 31
0.0
  0
LINE
  5
BEA
  8
0
 10
4.4635856372483067
 20
8.0888687042448453
 30
0.0
 11
4.4334092049019027
 21
8.0676888102433182
 31
0.0
  0
LINE
  5
BEB
  8
0
 10
4.4635935562012774
 20
8.0438732490998817
 30
0.0
 11
4.433392217330316
 21
8.0226925582818236
 31
0.0
  0
LINE
  5
BEC
  8
0
 10
4.4334092049019027
 20
8.2026888102433162
 30
0.0
 11
4.4334092049019027
 21
8.2000374122433186
 31
0.0
  0
LINE
  5
BED
  8
0
 10
4.4334092049019027
 20
8.157688810243318
 30
0.0
 11
4.4334092049019027
 21
8.1550513663433186
 31
0.0
  0
LINE
  5
BEE
  8
0
 10
4.4334092049019027
 20
8.1126888102433181
 30
0.0
 11
4.4334092049019027
 21
8.1100513663433187
 31
0.0
  0
LINE
  5
BEF
  8
0
 10
4.4334092049019027
 20
8.0676888102433182
 30
0.0
 11
4.4334092049019027
 21
8.0650513663433188
 31
0.0
  0
LINE
  5
BF0
  8
0
 10
4.4334092049019027
 20
8.0650513663433188
 30
0.0
 11
4.4635935562012774
 21
8.0438732490998834
 31
0.0
  0
LINE
  5
BF1
  8
0
 10
4.4334092049019027
 20
8.1100513663433187
 30
0.0
 11
4.4635856372483067
 21
8.0888687042448453
 31
0.0
  0
LINE
  5
BF2
  8
0
 10
4.4334092049019027
 20
8.1550513663433186
 30
0.0
 11
4.4636053225726302
 21
8.1338667313284372
 31
0.0
  0
LINE
  5
BF3
  8
0
 10
4.4334092049019027
 20
8.2000374122433186
 30
0.0
 11
4.4635904604073691
 21
8.1788727189922081
 31
0.0
  0
LINE
  5
BF4
  8
0
 10
4.4635734728357841
 20
7.9988764670307146
 30
0.0
 11
4.433392217330316
 21
7.9776925582818228
 31
0.0
  0
LINE
  5
BF5
  8
0
 10
4.4635883350010443
 20
7.9538704793669437
 30
0.0
 11
4.433392217330316
 21
7.9326925582818228
 31
0.0
  0
LINE
  5
BF6
  8
0
 10
4.46356864967672
 20
7.90887245228335
 30
0.0
 11
4.433392217330316
 21
7.8876925582818229
 31
0.0
  0
LINE
  5
BF7
  8
0
 10
4.4635765686296898
 20
7.8638769971383873
 30
0.0
 11
4.4334216854752961
 21
7.842694898885032
 31
0.0
  0
LINE
  5
BF8
  8
0
 10
4.433392217330316
 20
8.0226925582818236
 30
0.0
 11
4.433392217330316
 21
8.0200411602818242
 31
0.0
  0
LINE
  5
BF9
  8
0
 10
4.433392217330316
 20
7.9776925582818228
 30
0.0
 11
4.433392217330316
 21
7.9750551143818242
 31
0.0
  0
LINE
  5
BFA
  8
0
 10
4.433392217330316
 20
7.9326925582818228
 30
0.0
 11
4.433392217330316
 21
7.9300551143818243
 31
0.0
  0
LINE
  5
BFB
  8
0
 10
4.433392217330316
 20
7.8876925582818229
 30
0.0
 11
4.433392217330316
 21
7.8850551143818244
 31
0.0
  0
LINE
  5
BFC
  8
0
 10
4.433392217330316
 20
7.8850551143818244
 30
0.0
 11
4.4635765686296898
 21
7.8638769971383891
 31
0.0
  0
LINE
  5
BFD
  8
0
 10
4.433392217330316
 20
7.9300551143818243
 30
0.0
 11
4.46356864967672
 21
7.90887245228335
 31
0.0
  0
LINE
  5
BFE
  8
0
 10
4.433392217330316
 20
7.9750551143818242
 30
0.0
 11
4.4635883350010426
 21
7.9538704793669437
 31
0.0
  0
LINE
  5
BFF
  8
0
 10
4.433392217330316
 20
8.0200411602818242
 30
0.0
 11
4.4635734728357832
 21
7.9988764670307129
 31
0.0
  0
LINE
  5
C00
  8
0
 10
4.4636029409807643
 20
7.8188788076339231
 30
0.0
 11
4.4334216854752961
 21
7.7976948988850321
 31
0.0
  0
LINE
  5
C01
  8
0
 10
4.4636178031460227
 20
7.773872819970153
 30
0.0
 11
4.4334216854752961
 21
7.7526948988850322
 31
0.0
  0
LINE
  5
C02
  8
0
 10
4.4635981178217001
 20
7.7288747928865593
 30
0.0
 11
4.4334216854752961
 21
7.7076948988850322
 31
0.0
  0
LINE
  5
C03
  8
0
 10
4.4636060367746691
 20
7.6838793377415948
 30
0.0
 11
4.4334321744513119
 21
7.662693082393166
 31
0.0
  0
LINE
  5
C04
  8
0
 10
4.4334216854752961
 20
7.842694898885032
 30
0.0
 11
4.4334216854752961
 21
7.8400435008850318
 31
0.0
  0
LINE
  5
C05
  8
0
 10
4.4334216854752961
 20
7.7976948988850321
 30
0.0
 11
4.4334216854752961
 21
7.7950574549850318
 31
0.0
  0
LINE
  5
C06
  8
0
 10
4.4334216854752961
 20
7.7526948988850322
 30
0.0
 11
4.4334216854752961
 21
7.7500574549850318
 31
0.0
  0
LINE
  5
C07
  8
0
 10
4.4334216854752961
 20
7.7076948988850322
 30
0.0
 11
4.4334216854752961
 21
7.7050574549850319
 31
0.0
  0
LINE
  5
C08
  8
0
 10
4.4334216854752961
 20
7.7050574549850319
 30
0.0
 11
4.4636060367746691
 21
7.6838793377415966
 31
0.0
  0
LINE
  5
C09
  8
0
 10
4.4334216854752961
 20
7.7500574549850318
 30
0.0
 11
4.4635981178217001
 21
7.7288747928865593
 31
0.0
  0
LINE
  5
C0A
  8
0
 10
4.4334216854752961
 20
7.7950574549850318
 30
0.0
 11
4.4636178031460219
 21
7.773872819970153
 31
0.0
  0
LINE
  5
C0B
  8
0
 10
4.4334216854752961
 20
7.8400435008850318
 30
0.0
 11
4.4636029409807616
 21
7.8188788076339222
 31
0.0
  0
LINE
  5
C0C
  8
0
 10
4.46361342995678
 20
7.638876991142058
 30
0.0
 11
4.4334321744513119
 21
7.617693082393167
 31
0.0
  0
LINE
  5
C0D
  8
0
 10
4.4636282921220403
 20
7.593871003478287
 30
0.0
 11
4.4334321744513119
 21
7.5726930823931671
 31
0.0
  0
LINE
  5
C0E
  8
0
 10
4.4636086067977159
 20
7.5488729763946942
 30
0.0
 11
4.4334321744513119
 21
7.5276930823931671
 31
0.0
  0
LINE
  5
C0F
  8
0
 10
4.4636165257506857
 20
7.5038775212497297
 30
0.0
 11
4.4334230429099692
 21
7.4826945065114439
 31
0.0
  0
LINE
  5
C10
  8
0
 10
4.4334321744513119
 20
7.662693082393166
 30
0.0
 11
4.4334321744513119
 21
7.6600416843931667
 31
0.0
  0
LINE
  5
C11
  8
0
 10
4.4334321744513119
 20
7.617693082393167
 30
0.0
 11
4.4334321744513119
 21
7.6150556384931667
 31
0.0
  0
LINE
  5
C12
  8
0
 10
4.4334321744513119
 20
7.5726930823931671
 30
0.0
 11
4.4334321744513119
 21
7.5700556384931668
 31
0.0
  0
LINE
  5
C13
  8
0
 10
4.4334321744513119
 20
7.5276930823931671
 30
0.0
 11
4.4334321744513119
 21
7.5250556384931668
 31
0.0
  0
LINE
  5
C14
  8
0
 10
4.4334321744513119
 20
7.5250556384931668
 30
0.0
 11
4.4636165257506857
 21
7.5038775212497324
 31
0.0
  0
LINE
  5
C15
  8
0
 10
4.4334321744513119
 20
7.5700556384931668
 30
0.0
 11
4.4636086067977159
 21
7.5488729763946942
 31
0.0
  0
LINE
  5
C16
  8
0
 10
4.4334321744513119
 20
7.6150556384931667
 30
0.0
 11
4.4636282921220394
 21
7.593871003478287
 31
0.0
  0
LINE
  5
C17
  8
0
 10
4.4334321744513119
 20
7.6600416843931667
 30
0.0
 11
4.4636134299567791
 21
7.6388769911420571
 31
0.0
  0
LINE
  5
C18
  8
0
 10
4.4636042984154374
 20
7.4588784152603358
 30
0.0
 11
4.4334230429099692
 21
7.4376945065114439
 31
0.0
  0
LINE
  5
C19
  8
0
 10
4.4636191605806959
 20
7.4138724275965648
 30
0.0
 11
4.4334230429099692
 21
7.392694506511444
 31
0.0
  0
LINE
  5
C1A
  8
0
 10
4.4635994752563732
 20
7.368874400512972
 30
0.0
 11
4.4334230429099692
 21
7.3476945065114441
 31
0.0
  0
LINE
  5
C1B
  8
0
 10
4.463607394209343
 20
7.3238789453680084
 30
0.0
 11
4.4334247353589973
 21
7.3026901431634919
 31
0.0
  0
LINE
  5
C1C
  8
0
 10
4.4334230429099692
 20
7.4826945065114439
 30
0.0
 11
4.4334230429099692
 21
7.4800431085114454
 31
0.0
  0
LINE
  5
C1D
  8
0
 10
4.4334230429099692
 20
7.4376945065114439
 30
0.0
 11
4.4334230429099692
 21
7.4350570626114454
 31
0.0
  0
LINE
  5
C1E
  8
0
 10
4.4334230429099692
 20
7.392694506511444
 30
0.0
 11
4.4334230429099692
 21
7.3900570626114446
 31
0.0
  0
LINE
  5
C1F
  8
0
 10
4.4334230429099692
 20
7.3476945065114441
 30
0.0
 11
4.4334230429099692
 21
7.3450570626114446
 31
0.0
  0
LINE
  5
C20
  8
0
 10
4.4334230429099692
 20
7.3450570626114446
 30
0.0
 11
4.463607394209343
 21
7.3238789453680102
 31
0.0
  0
LINE
  5
C21
  8
0
 10
4.4334230429099692
 20
7.3900570626114446
 30
0.0
 11
4.4635994752563732
 21
7.368874400512972
 31
0.0
  0
LINE
  5
C22
  8
0
 10
4.4334230429099692
 20
7.4350570626114454
 30
0.0
 11
4.463619160580695
 21
7.4138724275965648
 31
0.0
  0
LINE
  5
C23
  8
0
 10
4.4334230429099692
 20
7.4800431085114454
 30
0.0
 11
4.4636042984154347
 21
7.458878415260334
 31
0.0
  0
LINE
  5
C24
  8
0
 10
4.4636059908644654
 20
7.2788740519123838
 30
0.0
 11
4.4334247353589973
 21
7.2576901431634919
 31
0.0
  0
LINE
  5
C25
  8
0
 10
4.4636208530297239
 20
7.2338680642486128
 30
0.0
 11
4.4334247353589973
 21
7.212690143163492
 31
0.0
  0
LINE
  5
C26
  8
0
 10
4.4636011677054013
 20
7.18887003716502
 30
0.0
 11
4.4334247353589973
 21
7.1676901431634921
 31
0.0
  0
LINE
  5
C27
  8
0
 10
4.4636090866583711
 20
7.1438745820200564
 30
0.0
 11
4.4333977092925867
 21
7.122694800475232
 31
0.0
  0
LINE
  5
C28
  8
0
 10
4.4334247353589973
 20
7.3026901431634919
 30
0.0
 11
4.4334247353589973
 21
7.3000387451634934
 31
0.0
  0
LINE
  5
C29
  8
0
 10
4.4334247353589973
 20
7.2576901431634919
 30
0.0
 11
4.4334247353589973
 21
7.2550526992634934
 31
0.0
  0
LINE
  5
C2A
  8
0
 10
4.4334247353589973
 20
7.212690143163492
 30
0.0
 11
4.4334247353589973
 21
7.2100526992634926
 31
0.0
  0
LINE
  5
C2B
  8
0
 10
4.4334247353589973
 20
7.1676901431634921
 30
0.0
 11
4.4334247353589973
 21
7.1650526992634926
 31
0.0
  0
LINE
  5
C2C
  8
0
 10
4.4334247353589973
 20
7.1650526992634926
 30
0.0
 11
4.4636090866583711
 21
7.1438745820200582
 31
0.0
  0
LINE
  5
C2D
  8
0
 10
4.4334247353589973
 20
7.2100526992634926
 30
0.0
 11
4.4636011677054013
 21
7.18887003716502
 31
0.0
  0
LINE
  5
C2E
  8
0
 10
4.4334247353589973
 20
7.2550526992634934
 30
0.0
 11
4.463620853029723
 21
7.2338680642486128
 31
0.0
  0
LINE
  5
C2F
  8
0
 10
4.4334247353589973
 20
7.3000387451634934
 30
0.0
 11
4.4636059908644627
 21
7.278874051912382
 31
0.0
  0
LINE
  5
C30
  8
0
 10
4.4635789647980548
 20
7.0988787092241239
 30
0.0
 11
4.4333977092925867
 21
7.077694800475232
 31
0.0
  0
LINE
  5
C31
  8
0
 10
4.4635938269633151
 20
7.0538727215603529
 30
0.0
 11
4.4333977092925867
 21
7.0326948004752321
 31
0.0
  0
LINE
  5
C32
  8
0
 10
4.4635741416389907
 20
7.0088746944767601
 30
0.0
 11
4.4333977092925867
 21
6.9876948004752331
 31
0.0
  0
LINE
  5
C33
  8
0
 10
4.4635820605919614
 20
6.9638792393317956
 30
0.0
 11
4.4334297740650781
 21
6.9426909761210522
 31
0.0
  0
LINE
  5
C34
  8
0
 10
4.4333977092925867
 20
7.122694800475232
 30
0.0
 11
4.4333977092925867
 21
7.1200434024752326
 31
0.0
  0
LINE
  5
C35
  8
0
 10
4.4333977092925867
 20
7.077694800475232
 30
0.0
 11
4.4333977092925867
 21
7.0750573565752326
 31
0.0
  0
LINE
  5
C36
  8
0
 10
4.4333977092925867
 20
7.0326948004752321
 30
0.0
 11
4.4333977092925867
 21
7.0300573565752327
 31
0.0
  0
LINE
  5
C37
  8
0
 10
4.4333977092925867
 20
6.9876948004752331
 30
0.0
 11
4.4333977092925867
 21
6.9850573565752327
 31
0.0
  0
LINE
  5
C38
  8
0
 10
4.4333977092925867
 20
6.9850573565752327
 30
0.0
 11
4.4635820605919614
 21
6.9638792393317983
 31
0.0
  0
LINE
  5
C39
  8
0
 10
4.4333977092925867
 20
7.0300573565752327
 30
0.0
 11
4.4635741416389907
 21
7.0088746944767601
 31
0.0
  0
LINE
  5
C3A
  8
0
 10
4.4333977092925867
 20
7.0750573565752326
 30
0.0
 11
4.4635938269633142
 21
7.0538727215603529
 31
0.0
  0
LINE
  5
C3B
  8
0
 10
4.4333977092925867
 20
7.1200434024752326
 30
0.0
 11
4.4635789647980531
 21
7.098878709224123
 31
0.0
  0
LINE
  5
C3C
  8
0
 10
4.4636110295705462
 20
6.9188748848699442
 30
0.0
 11
4.4334297740650781
 21
6.8976909761210523
 31
0.0
  0
LINE
  5
C40
  8
0
 10
4.4334297740650781
 20
6.9426909761210522
 30
0.0
 11
4.4334297740650781
 21
6.940039578121052
 31
0.0
  0
LINE
  5
C41
  8
0
 10
4.4334297740650781
 20
6.8976909761210523
 30
0.0
 11
4.4334297740650781
 21
6.8963760992999994
 31
0.0
  0
LINE
  5
C47
  8
0
 10
4.4334297740650781
 20
6.940039578121052
 30
0.0
 11
4.4636110295705436
 21
6.9188748848699424
 31
0.0
  0
LINE
  5
C48
  8
0
 10
4.4636103857806173
 20
6.3338753048137137
 30
0.0
 11
4.4334291302751492
 21
6.3126913960648219
 31
0.0
  0
LINE
  5
C49
  8
0
 10
4.4636252479458758
 20
6.2888693171499428
 30
0.0
 11
4.4334291302751492
 21
6.267691396064822
 31
0.0
  0
LINE
  5
C4A
  8
0
 10
4.4636055626215532
 20
6.2438712900663491
 30
0.0
 11
4.4334291302751492
 21
6.222691396064822
 31
0.0
  0
LINE
  5
C4B
  8
0
 10
4.4636134815745221
 20
6.1988758349213864
 30
0.0
 11
4.4335057657751493
 21
6.1777916645648228
 31
0.0
  0
LINE
  5
C4C
  8
0
 10
4.4334291302751492
 20
6.3576913960648218
 30
0.0
 11
4.4334291302751492
 21
6.3550399980648233
 31
0.0
  0
LINE
  5
C4D
  8
0
 10
4.4334291302751492
 20
6.3126913960648219
 30
0.0
 11
4.4334291302751492
 21
6.3100539521648233
 31
0.0
  0
LINE
  5
C4E
  8
0
 10
4.4334291302751492
 20
6.267691396064822
 30
0.0
 11
4.4334291302751492
 21
6.2650539521648234
 31
0.0
  0
LINE
  5
C4F
  8
0
 10
4.4334291302751492
 20
6.222691396064822
 30
0.0
 11
4.4334291302751492
 21
6.2200539521648226
 31
0.0
  0
LINE
  5
C50
  8
0
 10
4.4334291302751492
 20
6.2200539521648226
 30
0.0
 11
4.4636134815745221
 21
6.1988758349213882
 31
0.0
  0
LINE
  5
C51
  8
0
 10
4.4334291302751492
 20
6.2650539521648234
 30
0.0
 11
4.4636055626215532
 21
6.2438712900663491
 31
0.0
  0
LINE
  5
C52
  8
0
 10
4.4334291302751492
 20
6.3100539521648233
 30
0.0
 11
4.4636252479458749
 21
6.2888693171499428
 31
0.0
  0
LINE
  5
C53
  8
0
 10
4.4334291302751492
 20
6.3550399980648233
 30
0.0
 11
4.4636103857806146
 21
6.333875304813712
 31
0.0
  0
LINE
  5
C54
  8
0
 10
4.4636085446182641
 20
6.1088746120129809
 30
0.0
 11
4.433427289112795
 21
6.087690703264089
 31
0.0
  0
LINE
  5
C55
  8
0
 10
4.4636234067835234
 20
6.0638686243492099
 30
0.0
 11
4.433427289112795
 21
6.0426907032640891
 31
0.0
  0
LINE
  5
C56
  8
0
 10
4.463603721459199
 20
6.0188705972656171
 30
0.0
 11
4.433427289112795
 21
5.99769070326409
 31
0.0
  0
LINE
  5
C57
  8
0
 10
4.4636116404121688
 20
5.9738751421206526
 30
0.0
 11
4.4335039246127961
 21
5.9527909717640899
 31
0.0
  0
LINE
  5
C58
  8
0
 10
4.433427289112795
 20
6.1363760992999987
 30
0.0
 11
4.433427289112795
 21
6.1300393052640896
 31
0.0
  0
LINE
  5
C59
  8
0
 10
4.433427289112795
 20
6.087690703264089
 30
0.0
 11
4.433427289112795
 21
6.0850532593640896
 31
0.0
  0
LINE
  5
C5A
  8
0
 10
4.433427289112795
 20
6.0426907032640891
 30
0.0
 11
4.433427289112795
 21
6.0400532593640897
 31
0.0
  0
LINE
  5
C5B
  8
0
 10
4.433427289112795
 20
5.99769070326409
 30
0.0
 11
4.433427289112795
 21
5.9950532593640897
 31
0.0
  0
LINE
  5
C5C
  8
0
 10
4.433427289112795
 20
5.9950532593640897
 30
0.0
 11
4.4636116404121688
 21
5.9738751421206553
 31
0.0
  0
LINE
  5
C5D
  8
0
 10
4.433427289112795
 20
6.0400532593640897
 30
0.0
 11
4.463603721459199
 21
6.0188705972656171
 31
0.0
  0
LINE
  5
C5E
  8
0
 10
4.433427289112795
 20
6.0850532593640896
 30
0.0
 11
4.4636234067835217
 21
6.0638686243492099
 31
0.0
  0
LINE
  5
C5F
  8
0
 10
4.433427289112795
 20
6.1300393052640896
 30
0.0
 11
4.4636085446182623
 21
6.1088746120129791
 31
0.0
  0
LINE
  5
C60
  8
0
 10
4.4635803802208978
 20
5.9288733757096566
 30
0.0
 11
4.4333991247154296
 21
5.9076894669607647
 31
0.0
  0
LINE
  5
C64
  8
0
 10
4.4333991247154296
 20
5.9526894669607646
 30
0.0
 11
4.4333991247154296
 21
5.9500380689607661
 31
0.0
  0
LINE
  5
C65
  8
0
 10
4.4333991247154296
 20
5.9076894669607647
 30
0.0
 11
4.4333991247154296
 21
5.9050520230607662
 31
0.0
  0
LINE
  5
C6A
  8
0
 10
4.4333991247154296
 20
5.9050520230607662
 30
0.0
 11
4.4457655976142236
 21
5.8963760992999976
 31
0.0
  0
LINE
  5
C6B
  8
0
 10
4.4333991247154296
 20
5.9500380689607661
 30
0.0
 11
4.463580380220896
 21
5.9288733757096548
 31
0.0
  0
LINE
  5
C78
  8
0
 10
5.8407234052508983
 20
8.3813766486471248
 30
0.0
 11
5.8709046607563664
 21
8.3601927398982312
 31
0.0
  0
LINE
  5
C79
  8
0
 10
5.8407085430856389
 20
8.3363706609833539
 30
0.0
 11
5.8709046607563664
 21
8.315192739898233
 31
0.0
  0
LINE
  5
C7A
  8
0
 10
5.8407282284099633
 20
8.2913726338997602
 30
0.0
 11
5.8709046607563664
 21
8.2701927398982331
 31
0.0
  0
LINE
  5
C7B
  8
0
 10
5.8407203094569917
 20
8.2463771787547966
 30
0.0
 11
5.8708838724515227
 21
8.2251955644008685
 31
0.0
  0
LINE
  5
C7C
  8
0
 10
5.8709046607563664
 20
8.4051927398982311
 30
0.0
 11
5.8709046607563664
 21
8.4025413418982335
 31
0.0
  0
LINE
  5
C7D
  8
0
 10
5.8709046607563664
 20
8.3601927398982312
 30
0.0
 11
5.8709046607563664
 21
8.3575552959982335
 31
0.0
  0
LINE
  5
C7E
  8
0
 10
5.8709046607563664
 20
8.315192739898233
 30
0.0
 11
5.8709046607563664
 21
8.3125552959982336
 31
0.0
  0
LINE
  5
C7F
  8
0
 10
5.8709046607563664
 20
8.2701927398982331
 30
0.0
 11
5.8709046607563664
 21
8.2675552959982337
 31
0.0
  0
LINE
  5
C80
  8
0
 10
5.8709046607563664
 20
8.2675552959982337
 30
0.0
 11
5.8407203094569917
 21
8.2463771787547984
 31
0.0
  0
LINE
  5
C81
  8
0
 10
5.8709046607563664
 20
8.3125552959982336
 30
0.0
 11
5.8407282284099633
 21
8.2913726338997602
 31
0.0
  0
LINE
  5
C82
  8
0
 10
5.8709046607563664
 20
8.3575552959982335
 30
0.0
 11
5.8407085430856389
 21
8.3363706609833539
 31
0.0
  0
LINE
  5
C83
  8
0
 10
5.8709046607563664
 20
8.4025413418982335
 30
0.0
 11
5.8407234052509001
 21
8.3813766486471231
 31
0.0
  0
LINE
  5
C84
  8
0
 10
5.8407026169460554
 20
8.2013794731497605
 30
0.0
 11
5.8708838724515227
 21
8.1801955644008686
 31
0.0
  0
LINE
  5
C85
  8
0
 10
5.8406877547807952
 20
8.1563734854859895
 30
0.0
 11
5.8708838724515227
 21
8.1351955644008687
 31
0.0
  0
LINE
  5
C86
  8
0
 10
5.8407074401051178
 20
8.1113754584023958
 30
0.0
 11
5.8708838724515227
 21
8.0901955644008687
 31
0.0
  0
LINE
  5
C87
  8
0
 10
5.8406995211521489
 20
8.0663800032574322
 30
0.0
 11
5.8708646340868738
 21
8.0451929782671687
 31
0.0
  0
LINE
  5
C88
  8
0
 10
5.8708838724515227
 20
8.2251955644008685
 30
0.0
 11
5.8708838724515227
 21
8.2225441664008692
 31
0.0
  0
LINE
  5
C89
  8
0
 10
5.8708838724515227
 20
8.1801955644008686
 30
0.0
 11
5.8708838724515227
 21
8.1775581205008692
 31
0.0
  0
LINE
  5
C8A
  8
0
 10
5.8708838724515227
 20
8.1351955644008687
 30
0.0
 11
5.8708838724515227
 21
8.1325581205008692
 31
0.0
  0
LINE
  5
C8B
  8
0
 10
5.8708838724515227
 20
8.0901955644008687
 30
0.0
 11
5.8708838724515227
 21
8.0875581205008693
 31
0.0
  0
LINE
  5
C8C
  8
0
 10
5.8708838724515227
 20
8.0875581205008693
 30
0.0
 11
5.8406995211521489
 21
8.0663800032574322
 31
0.0
  0
LINE
  5
C8D
  8
0
 10
5.8708838724515227
 20
8.1325581205008692
 30
0.0
 11
5.8407074401051178
 21
8.1113754584023958
 31
0.0
  0
LINE
  5
C8E
  8
0
 10
5.8708838724515227
 20
8.1775581205008692
 30
0.0
 11
5.840687754780796
 21
8.1563734854859895
 31
0.0
  0
LINE
  5
C8F
  8
0
 10
5.8708838724515227
 20
8.2225441664008692
 30
0.0
 11
5.8407026169460572
 21
8.2013794731497587
 31
0.0
  0
LINE
  5
C90
  8
0
 10
5.8406833785814056
 20
8.0213768870160607
 30
0.0
 11
5.8708646340868738
 21
8.0001929782671688
 31
0.0
  0
LINE
  5
C91
  8
0
 10
5.8406685164161463
 20
7.9763708993522888
 30
0.0
 11
5.8708646340868738
 21
7.955192978267168
 31
0.0
  0
LINE
  5
C92
  8
0
 10
5.8406882017404689
 20
7.931372872268696
 30
0.0
 11
5.8708646340868738
 21
7.9101929782671681
 31
0.0
  0
LINE
  5
C93
  8
0
 10
5.8406802827875
 20
7.8863774171237324
 30
0.0
 11
5.8708727872059612
 21
7.8652338700379261
 31
0.0
  0
LINE
  5
C94
  8
0
 10
5.8708646340868738
 20
8.0451929782671687
 30
0.0
 11
5.8708646340868738
 21
8.0425415802671694
 31
0.0
  0
LINE
  5
C95
  8
0
 10
5.8708646340868738
 20
8.0001929782671688
 30
0.0
 11
5.8708646340868738
 21
7.9975555343671694
 31
0.0
  0
LINE
  5
C96
  8
0
 10
5.8708646340868738
 20
7.955192978267168
 30
0.0
 11
5.8708646340868738
 21
7.9525555343671694
 31
0.0
  0
LINE
  5
C97
  8
0
 10
5.8708646340868738
 20
7.9101929782671681
 30
0.0
 11
5.8708646340868738
 21
7.9075555343671686
 31
0.0
  0
LINE
  5
C98
  8
0
 10
5.8708646340868738
 20
7.9075555343671686
 30
0.0
 11
5.8406802827875
 21
7.8863774171237342
 31
0.0
  0
LINE
  5
C99
  8
0
 10
5.8708646340868738
 20
7.9525555343671694
 30
0.0
 11
5.8406882017404689
 21
7.931372872268696
 31
0.0
  0
LINE
  5
C9A
  8
0
 10
5.8708646340868738
 20
7.9975555343671694
 30
0.0
 11
5.840668516416148
 21
7.9763708993522888
 31
0.0
  0
LINE
  5
C9B
  8
0
 10
5.8708646340868738
 20
8.0425415802671694
 30
0.0
 11
5.8406833785814083
 21
8.0213768870160589
 31
0.0
  0
LINE
  5
C9C
  8
0
 10
5.840691531700493
 20
7.8413733518110398
 30
0.0
 11
5.8708727872059612
 21
7.8201894430621479
 31
0.0
  0
LINE
  5
C9D
  8
0
 10
5.8406766695352319
 20
7.7963673641472688
 30
0.0
 11
5.8708727872059612
 21
7.775189443062148
 31
0.0
  0
LINE
  5
C9E
  8
0
 10
5.8406963548595563
 20
7.751369337063676
 30
0.0
 11
5.8708727872059612
 21
7.7301894430621481
 31
0.0
  0
LINE
  5
C9F
  8
0
 10
5.8406884359065874
 20
7.7063738819187124
 30
0.0
 11
5.8708707314270043
 21
7.6851945623762674
 31
0.0
  0
LINE
  5
CA0
  8
0
 10
5.8708727872059612
 20
7.8651894430621478
 30
0.0
 11
5.8708727872059612
 21
7.8625380450621494
 31
0.0
  0
LINE
  5
CA1
  8
0
 10
5.8708727872059612
 20
7.8201894430621479
 30
0.0
 11
5.8708727872059612
 21
7.8175519991621494
 31
0.0
  0
LINE
  5
CA2
  8
0
 10
5.8708727872059612
 20
7.775189443062148
 30
0.0
 11
5.8708727872059612
 21
7.7725519991621486
 31
0.0
  0
LINE
  5
CA3
  8
0
 10
5.8708727872059612
 20
7.7301894430621481
 30
0.0
 11
5.8708727872059612
 21
7.7275519991621486
 31
0.0
  0
LINE
  5
CA4
  8
0
 10
5.8708727872059612
 20
7.7275519991621486
 30
0.0
 11
5.8406884359065874
 21
7.7063738819187142
 31
0.0
  0
LINE
  5
CA5
  8
0
 10
5.8708727872059612
 20
7.7725519991621486
 30
0.0
 11
5.8406963548595563
 21
7.751369337063676
 31
0.0
  0
LINE
  5
CA6
  8
0
 10
5.8708727872059612
 20
7.8175519991621494
 30
0.0
 11
5.8406766695352337
 21
7.7963673641472688
 31
0.0
  0
LINE
  5
CA7
  8
0
 10
5.8708727872059612
 20
7.8625380450621494
 30
0.0
 11
5.8406915317004939
 21
7.841373351811038
 31
0.0
  0
LINE
  5
CA8
  8
0
 10
5.8406894759215362
 20
7.6613784711251594
 30
0.0
 11
5.8708707314270043
 21
7.6401945623762666
 31
0.0
  0
LINE
  5
CA9
  8
0
 10
5.8406746137562751
 20
7.6163724834613884
 30
0.0
 11
5.8708707314270043
 21
7.5951945623762667
 31
0.0
  0
LINE
  5
CAA
  8
0
 10
5.8406942990805986
 20
7.5713744563777938
 30
0.0
 11
5.8708707314270043
 21
7.5501945623762667
 31
0.0
  0
LINE
  5
CAB
  8
0
 10
5.8406863801276296
 20
7.5263790012328311
 30
0.0
 11
5.8709007069388468
 21
7.5051944716550443
 31
0.0
  0
LINE
  5
CAC
  8
0
 10
5.8708707314270043
 20
7.6851945623762674
 30
0.0
 11
5.8708707314270043
 21
7.6825431643762681
 31
0.0
  0
LINE
  5
CAD
  8
0
 10
5.8708707314270043
 20
7.6401945623762666
 30
0.0
 11
5.8708707314270043
 21
7.6375571184762681
 31
0.0
  0
LINE
  5
CAE
  8
0
 10
5.8708707314270043
 20
7.5951945623762667
 30
0.0
 11
5.8708707314270043
 21
7.5925571184762681
 31
0.0
  0
LINE
  5
CAF
  8
0
 10
5.8708707314270043
 20
7.5501945623762667
 30
0.0
 11
5.8708707314270043
 21
7.5475571184762682
 31
0.0
  0
LINE
  5
CB0
  8
0
 10
5.8708707314270043
 20
7.5475571184762682
 30
0.0
 11
5.8406863801276296
 21
7.526379001232832
 31
0.0
  0
LINE
  5
CB1
  8
0
 10
5.8708707314270043
 20
7.5925571184762681
 30
0.0
 11
5.8406942990805986
 21
7.5713744563777938
 31
0.0
  0
LINE
  5
CB2
  8
0
 10
5.8708707314270043
 20
7.6375571184762681
 30
0.0
 11
5.8406746137562768
 21
7.6163724834613884
 31
0.0
  0
LINE
  5
CB3
  8
0
 10
5.8708707314270043
 20
7.6825431643762681
 30
0.0
 11
5.8406894759215371
 21
7.6613784711251567
 31
0.0
  0
LINE
  5
CB4
  8
0
 10
5.8407194514333787
 20
7.4813783804039362
 30
0.0
 11
5.8709007069388468
 21
7.4601944716550443
 31
0.0
  0
LINE
  5
CB5
  8
0
 10
5.8407045892681211
 20
7.4363723927401653
 30
0.0
 11
5.8709007069388468
 21
7.4151944716550444
 31
0.0
  0
LINE
  5
CB6
  8
0
 10
5.8407242745924437
 20
7.3913743656565707
 30
0.0
 11
5.8709007069388468
 21
7.3701944716550436
 31
0.0
  0
LINE
  5
CB7
  8
0
 10
5.840716355639473
 20
7.3463789105116071
 30
0.0
 11
5.8708716810187669
 21
7.3251941359974237
 31
0.0
  0
LINE
  5
CB8
  8
0
 10
5.8709007069388468
 20
7.5051944716550443
 30
0.0
 11
5.8709007069388468
 21
7.502543073655044
 31
0.0
  0
LINE
  5
CB9
  8
0
 10
5.8709007069388468
 20
7.4601944716550443
 30
0.0
 11
5.8709007069388468
 21
7.457557027755044
 31
0.0
  0
LINE
  5
CBA
  8
0
 10
5.8709007069388468
 20
7.4151944716550444
 30
0.0
 11
5.8709007069388468
 21
7.4125570277550441
 31
0.0
  0
LINE
  5
CBB
  8
0
 10
5.8709007069388468
 20
7.3701944716550436
 30
0.0
 11
5.8709007069388468
 21
7.3675570277550451
 31
0.0
  0
LINE
  5
CBC
  8
0
 10
5.8709007069388468
 20
7.3675570277550451
 30
0.0
 11
5.840716355639473
 21
7.3463789105116089
 31
0.0
  0
LINE
  5
CBD
  8
0
 10
5.8709007069388468
 20
7.4125570277550441
 30
0.0
 11
5.8407242745924437
 21
7.3913743656565707
 31
0.0
  0
LINE
  5
CBE
  8
0
 10
5.8709007069388468
 20
7.457557027755044
 30
0.0
 11
5.8407045892681211
 21
7.4363723927401653
 31
0.0
  0
LINE
  5
CBF
  8
0
 10
5.8709007069388468
 20
7.502543073655044
 30
0.0
 11
5.8407194514333813
 21
7.4813783804039344
 31
0.0
  0
LINE
  5
CC0
  8
0
 10
5.8406904255132988
 20
7.3013780447463157
 30
0.0
 11
5.8708716810187669
 21
7.2801941359974238
 31
0.0
  0
LINE
  5
CC1
  8
0
 10
5.8406755633480412
 20
7.2563720570825447
 30
0.0
 11
5.8708716810187669
 21
7.2351941359974239
 31
0.0
  0
LINE
  5
CC2
  8
0
 10
5.8406952486723638
 20
7.2113740299989511
 30
0.0
 11
5.8708716810187669
 21
7.190194135997424
 31
0.0
  0
LINE
  5
CC3
  8
0
 10
5.8406873297193931
 20
7.1663785748539883
 30
0.0
 11
5.870904751840869
 21
7.1452175781184399
 31
0.0
  0
LINE
  5
CC4
  8
0
 10
5.8708716810187669
 20
7.3251941359974237
 30
0.0
 11
5.8708716810187669
 21
7.3225427379974253
 31
0.0
  0
LINE
  5
CC5
  8
0
 10
5.8708716810187669
 20
7.2801941359974238
 30
0.0
 11
5.8708716810187669
 21
7.2775566920974253
 31
0.0
  0
LINE
  5
CC6
  8
0
 10
5.8708716810187669
 20
7.2351941359974239
 30
0.0
 11
5.8708716810187669
 21
7.2325566920974254
 31
0.0
  0
LINE
  5
CC7
  8
0
 10
5.8708716810187669
 20
7.190194135997424
 30
0.0
 11
5.8708716810187669
 21
7.1875566920974254
 31
0.0
  0
LINE
  5
CC8
  8
0
 10
5.8708716810187669
 20
7.1875566920974254
 30
0.0
 11
5.8406873297193931
 21
7.1663785748539901
 31
0.0
  0
LINE
  5
CC9
  8
0
 10
5.8708716810187669
 20
7.2325566920974254
 30
0.0
 11
5.8406952486723638
 21
7.2113740299989511
 31
0.0
  0
LINE
  5
CCA
  8
0
 10
5.8708716810187669
 20
7.2775566920974253
 30
0.0
 11
5.8406755633480412
 21
7.2563720570825447
 31
0.0
  0
LINE
  5
CCB
  8
0
 10
5.8708716810187669
 20
7.3225427379974253
 30
0.0
 11
5.8406904255133014
 21
7.3013780447463139
 31
0.0
  0
LINE
  5
CCC
  8
0
 10
5.8407234963354009
 20
7.1213764672806636
 30
0.0
 11
5.870904751840869
 21
7.1001925585317718
 31
0.0
  0
LINE
  5
CCD
  8
0
 10
5.8407086341701433
 20
7.0763704796168927
 30
0.0
 11
5.870904751840869
 21
7.0551925585317719
 31
0.0
  0
LINE
  5
CCE
  8
0
 10
5.8407283194944659
 20
7.031372452533299
 30
0.0
 11
5.870904751840869
 21
7.0101925585317719
 31
0.0
  0
LINE
  5
CCF
  8
0
 10
5.8407204005414961
 20
6.9863769973883363
 30
0.0
 11
5.8708688530519408
 21
6.9651938875699191
 31
0.0
  0
LINE
  5
CD0
  8
0
 10
5.870904751840869
 20
7.1451925585317717
 30
0.0
 11
5.870904751840869
 21
7.1425411605317732
 31
0.0
  0
LINE
  5
CD1
  8
0
 10
5.870904751840869
 20
7.1001925585317718
 30
0.0
 11
5.870904751840869
 21
7.0975551146317732
 31
0.0
  0
LINE
  5
CD2
  8
0
 10
5.870904751840869
 20
7.0551925585317719
 30
0.0
 11
5.870904751840869
 21
7.0525551146317733
 31
0.0
  0
LINE
  5
CD3
  8
0
 10
5.870904751840869
 20
7.0101925585317719
 30
0.0
 11
5.870904751840869
 21
7.0075551146317734
 31
0.0
  0
LINE
  5
CD4
  8
0
 10
5.870904751840869
 20
7.0075551146317734
 30
0.0
 11
5.8407204005414961
 21
6.9863769973883381
 31
0.0
  0
LINE
  5
CD5
  8
0
 10
5.870904751840869
 20
7.0525551146317733
 30
0.0
 11
5.8407283194944659
 21
7.031372452533299
 31
0.0
  0
LINE
  5
CD6
  8
0
 10
5.870904751840869
 20
7.0975551146317732
 30
0.0
 11
5.8407086341701433
 21
7.0763704796168927
 31
0.0
  0
LINE
  5
CD7
  8
0
 10
5.870904751840869
 20
7.1425411605317732
 30
0.0
 11
5.8407234963354027
 21
7.1213764672806619
 31
0.0
  0
LINE
  5
CD8
  8
0
 10
5.8406875975464727
 20
6.941377796318811
 30
0.0
 11
5.8708688530519408
 21
6.92019388756992
 31
0.0
  0
LINE
  5
CDC
  8
0
 10
5.8708688530519408
 20
6.9651938875699191
 30
0.0
 11
5.8708688530519408
 21
6.9625424895699197
 31
0.0
  0
LINE
  5
CDD
  8
0
 10
5.8708688530519408
 20
6.92019388756992
 30
0.0
 11
5.8708688530519408
 21
6.9175564436699197
 31
0.0
  0
LINE
  5
CE2
  8
0
 10
5.8708688530519408
 20
6.9175564436699197
 30
0.0
 11
5.8406788511731547
 21
6.8963760992999994
 31
0.0
  0
LINE
  5
CE3
  8
0
 10
5.8708688530519408
 20
6.9625424895699197
 30
0.0
 11
5.8406875975464754
 21
6.9413777963188101
 31
0.0
  0
LINE
  5
CE4
  8
0
 10
5.8406978671017153
 20
6.356378967652164
 30
0.0
 11
5.8708791226071826
 21
6.3351950589032722
 31
0.0
  0
LINE
  5
CE5
  8
0
 10
5.8406830049364551
 20
6.3113729799883931
 30
0.0
 11
5.8708791226071826
 21
6.2901950589032722
 31
0.0
  0
LINE
  5
CE6
  8
0
 10
5.8407026902607777
 20
6.2663749529047994
 30
0.0
 11
5.8708791226071826
 21
6.2451950589032723
 31
0.0
  0
LINE
  5
CE7
  8
0
 10
5.8406947713078088
 20
6.2213794977598349
 30
0.0
 11
5.8708024871071824
 21
6.200295327403273
 31
0.0
  0
LINE
  5
CE8
  8
0
 10
5.8708791226071826
 20
6.3801950589032721
 30
0.0
 11
5.8708791226071826
 21
6.3775436609032718
 31
0.0
  0
LINE
  5
CE9
  8
0
 10
5.8708791226071826
 20
6.3351950589032722
 30
0.0
 11
5.8708791226071826
 21
6.3325576150032719
 31
0.0
  0
LINE
  5
CEA
  8
0
 10
5.8708791226071826
 20
6.2901950589032722
 30
0.0
 11
5.8708791226071826
 21
6.2875576150032719
 31
0.0
  0
LINE
  5
CEB
  8
0
 10
5.8708791226071826
 20
6.2451950589032723
 30
0.0
 11
5.8708791226071826
 21
6.242557615003272
 31
0.0
  0
LINE
  5
CEC
  8
0
 10
5.8708791226071826
 20
6.242557615003272
 30
0.0
 11
5.8406947713078088
 21
6.2213794977598367
 31
0.0
  0
LINE
  5
CED
  8
0
 10
5.8708791226071826
 20
6.2875576150032719
 30
0.0
 11
5.8407026902607777
 21
6.2663749529047994
 31
0.0
  0
LINE
  5
CEE
  8
0
 10
5.8708791226071826
 20
6.3325576150032719
 30
0.0
 11
5.840683004936456
 21
6.3113729799883931
 31
0.0
  0
LINE
  5
CEF
  8
0
 10
5.8708791226071826
 20
6.3775436609032718
 30
0.0
 11
5.8406978671017171
 21
6.3563789676521623
 31
0.0
  0
LINE
  5
CF0
  8
0
 10
5.8406876642794554
 20
6.1763748443042381
 30
0.0
 11
5.8549331315010207
 21
6.1663760992999981
 31
0.0
  0
LINE
  5
CF1
  8
0
 10
5.840672802114196
 20
6.1313688566404672
 30
0.0
 11
5.8708689197849226
 21
6.1101909355553463
 31
0.0
  0
LINE
  5
CF2
  8
0
 10
5.8406924874385204
 20
6.0863708295568726
 30
0.0
 11
5.8708689197849226
 21
6.0651909355553464
 31
0.0
  0
LINE
  5
CF3
  8
0
 10
5.8406845684855488
 20
6.041375374411909
 30
0.0
 11
5.8707922842849243
 21
6.0202912040553471
 31
0.0
  0
LINE
  5
CF4
  8
0
 10
5.8708689197849226
 20
6.2001909355553462
 30
0.0
 11
5.8708689197849226
 21
6.1975395375553459
 31
0.0
  0
LINE
  5
CF6
  8
0
 10
5.8708689197849226
 20
6.1101909355553463
 30
0.0
 11
5.8708689197849226
 21
6.107553491655346
 31
0.0
  0
LINE
  5
CF7
  8
0
 10
5.8708689197849226
 20
6.0651909355553464
 30
0.0
 11
5.8708689197849226
 21
6.0625534916553461
 31
0.0
  0
LINE
  5
CF8
  8
0
 10
5.8708689197849226
 20
6.0625534916553461
 30
0.0
 11
5.8406845684855488
 21
6.0413753744119107
 31
0.0
  0
LINE
  5
CF9
  8
0
 10
5.8708689197849226
 20
6.107553491655346
 30
0.0
 11
5.8406924874385204
 21
6.0863708295568726
 31
0.0
  0
LINE
  5
CFA
  8
0
 10
5.847810016819424
 20
6.1363760992999978
 30
0.0
 11
5.840672802114196
 21
6.1313688566404672
 31
0.0
  0
LINE
  5
CFB
  8
0
 10
5.8708689197849226
 20
6.1975395375553459
 30
0.0
 11
5.8406876642794572
 21
6.1763748443042363
 31
0.0
  0
LINE
  5
CFC
  8
0
 10
5.8407150606891793
 20
5.9963732179960401
 30
0.0
 11
5.8708963161946466
 21
5.9751893092471482
 31
0.0
  0
LINE
  5
CFD
  8
0
 10
5.8407001985239191
 20
5.9513672303322691
 30
0.0
 11
5.8708963161946466
 21
5.9301893092471483
 31
0.0
  0
LINE
  5
CFE
  8
0
 10
5.8407198838482417
 20
5.9063692032486754
 30
0.0
 11
5.8549577372206949
 21
5.8963760992999994
 31
0.0
  0
LINE
  5
D00
  8
0
 10
5.8708963161946466
 20
6.0201893092471481
 30
0.0
 11
5.8708963161946466
 21
6.0175379112471479
 31
0.0
  0
LINE
  5
D01
  8
0
 10
5.8708963161946466
 20
5.9751893092471482
 30
0.0
 11
5.8708963161946466
 21
5.9725518653471479
 31
0.0
  0
LINE
  5
D02
  8
0
 10
5.8708963161946466
 20
5.9301893092471483
 30
0.0
 11
5.8708963161946466
 21
5.927551865347148
 31
0.0
  0
LINE
  5
D05
  8
0
 10
5.8708963161946466
 20
5.927551865347148
 30
0.0
 11
5.8407198838482417
 21
5.9063692032486754
 31
0.0
  0
LINE
  5
D06
  8
0
 10
5.8708963161946466
 20
5.9725518653471479
 30
0.0
 11
5.84070019852392
 21
5.9513672303322691
 31
0.0
  0
LINE
  5
D07
  8
0
 10
5.8708963161946466
 20
6.0175379112471479
 30
0.0
 11
5.8407150606891811
 21
5.9963732179960383
 31
0.0
  0
LINE
  5
D0E
  8
0
 10
4.4335057657751493
 20
6.1777916645648228
 30
0.0
 11
4.4335057657751493
 21
6.1663760992999981
 31
0.0
  0
LINE
  5
D0F
  8
0
 10
5.7770905007
 20
4.0659729406
 30
0.0
 11
5.7770905007
 21
4.0663760993000002
 31
0.0
  0
LINE
  5
D10
  8
0
 10
4.5272006072000002
 20
4.021773883899999
 30
0.0
 11
4.5272006072000002
 21
4.020971260749528
 31
0.0
  0
LINE
  5
D14
  8
0
 10
4.4635765998811783
 20
8.4038741468310771
 30
0.0
 11
5.8407107897312089
 21
8.4263728110260843
 31
0.0
  0
LINE
  5
D15
  8
0
 10
4.4635765998811774
 20
8.358880932140309
 30
0.0
 11
5.8407280098938648
 21
8.3813798776664026
 31
0.0
  0
LINE
  5
D16
  8
0
 10
4.4635946022707262
 20
8.3138727423851204
 30
0.0
 11
5.840709148402901
 21
8.3363710856546778
 31
0.0
  0
LINE
  5
D17
  8
0
 10
4.4635749169464027
 20
8.2688747153015267
 30
0.0
 11
5.84072977152071
 21
8.2913737171024806
 31
0.0
  0
LINE
  5
D18
  8
0
 10
4.4635828358993743
 20
8.2238792601565631
 30
0.0
 11
5.8407214757450783
 21
8.2463779970525177
 31
0.0
  0
LINE
  5
D19
  8
0
 10
4.4635904604073708
 20
8.1788727189922081
 30
0.0
 11
5.840714381929617
 21
8.2013712154303935
 31
0.0
  0
LINE
  5
D1A
  8
0
 10
4.4636053225726311
 20
8.1338667313284372
 30
0.0
 11
5.8407002053214629
 21
8.1563647533512622
 31
0.0
  0
LINE
  5
D1B
  8
0
 10
4.4635856372483067
 20
8.0888687042448453
 30
0.0
 11
5.8407198270983391
 21
8.1113673684398524
 31
0.0
  0
LINE
  5
D1C
  8
0
 10
4.4635935562012774
 20
8.0438732490998817
 30
0.0
 11
5.8407114190404883
 21
8.0663716465554991
 31
0.0
  0
LINE
  5
D1D
  8
0
 10
4.4635734728357841
 20
7.9988764670307146
 30
0.0
 11
5.8406863755831182
 21
8.0213747834517886
 31
0.0
  0
LINE
  5
D1E
  8
0
 10
4.4635883350010443
 20
7.9538704793669437
 30
0.0
 11
5.8406721923318914
 21
7.9763683212641281
 31
0.0
  0
LINE
  5
D1F
  8
0
 10
4.46356864967672
 20
7.90887245228335
 30
0.0
 11
5.8406909794007316
 21
7.9313709227158338
 31
0.0
  0
LINE
  5
D20
  8
0
 10
4.4635765686296898
 20
7.8638769971383873
 30
0.0
 11
5.8406834276259474
 21
7.8863752148208413
 31
0.0
  0
LINE
  5
D21
  8
0
 10
4.4636029409807643
 20
7.8188788076339231
 30
0.0
 11
5.8406964593892257
 21
7.8413768073671006
 31
0.0
  0
LINE
  5
D22
  8
0
 10
4.4636178031460227
 20
7.773872819970153
 30
0.0
 11
5.840680886267922
 21
7.796370322472705
 31
0.0
  0
LINE
  5
D23
  8
0
 10
4.4635981178217001
 20
7.7288747928865593
 30
0.0
 11
5.840701507319447
 21
7.7513729538867517
 31
0.0
  0
LINE
  5
D24
  8
0
 10
4.4636060367746699
 20
7.6838793377415957
 30
0.0
 11
5.8406932133068112
 21
7.7063772338655889
 31
0.0
  0
LINE
  5
D25
  8
0
 10
4.4636134299567791
 20
7.6388769911420571
 30
0.0
 11
5.8406947189758869
 21
7.6613747910799441
 31
0.0
  0
LINE
  5
D26
  8
0
 10
4.4636282921220403
 20
7.593871003478287
 30
0.0
 11
5.8406805374263806
 21
7.6163683289200872
 31
0.0
  0
LINE
  5
D27
  8
0
 10
4.4636086067977159
 20
7.5488729763946942
 30
0.0
 11
5.8406993228587298
 21
7.5713709303450578
 31
0.0
  0
LINE
  5
D28
  8
0
 10
4.4636165257506866
 20
7.5038775212497306
 30
0.0
 11
5.8406917696310501
 21
7.5263752224263287
 31
0.0
  0
LINE
  5
D29
  8
0
 10
4.4636042984154347
 20
7.458878415260334
 30
0.0
 11
5.8407216957926407
 21
7.481376805111557
 31
0.0
  0
LINE
  5
D2A
  8
0
 10
4.463619160580695
 20
7.4138724275965648
 30
0.0
 11
5.8407075119711722
 21
7.4363703429145804
 31
0.0
  0
LINE
  5
D2B
  8
0
 10
4.4635994752563732
 20
7.368874400512972
 30
0.0
 11
5.8407262995883977
 21
7.3913729443752487
 31
0.0
  0
LINE
  5
D2C
  8
0
 10
4.463607394209343
 20
7.3238789453680084
 30
0.0
 11
5.8407187387392163
 21
7.3463772363320041
 31
0.0
  0
LINE
  5
D2D
  8
0
 10
4.4636059908644627
 20
7.278874051912382
 30
0.0
 11
5.840698976439251
 21
7.30137204294049
 31
0.0
  0
LINE
  5
D2E
  8
0
 10
4.4636208530297239
 20
7.2338680642486128
 30
0.0
 11
5.8406847973959621
 21
7.256365580821579
 31
0.0
  0
LINE
  5
D2F
  8
0
 10
4.4636011677054013
 20
7.18887003716502
 30
0.0
 11
5.8407035804181637
 21
7.211368182207174
 31
0.0
  0
LINE
  5
D30
  8
0
 10
4.4636090866583711
 20
7.1438745820200564
 30
0.0
 11
5.8406960408691431
 21
7.1663724745119177
 31
0.0
  0
LINE
  5
D31
  8
0
 10
4.4635789647980548
 20
7.0988787092241239
 30
0.0
 11
5.8407250660087868
 21
7.1213775680186897
 31
0.0
  0
LINE
  5
D32
  8
0
 10
4.4635938269633142
 20
7.0538727215603529
 30
0.0
 11
5.840709494432434
 21
7.0763710831495352
 31
0.0
  0
LINE
  5
D33
  8
0
 10
4.4635741416389907
 20
7.0088746944767601
 30
0.0
 11
5.8407301174043811
 21
7.031373714594956
 31
0.0
  0
LINE
  5
D34
  8
0
 10
4.4635820605919614
 20
6.9638792393317983
 30
0.0
 11
5.8407218217532053
 21
6.9863779945470279
 31
0.0
  0
LINE
  5
D35
  8
0
 10
4.4636110295705462
 20
6.9188748848699442
 30
0.0
 11
5.8406948217818906
 21
6.9413727257032498
 31
0.0
  0
LINE
  5
D36
  8
0
 10
4.4635741599934802
 20
6.378877243892342
 30
0.0
 11
5.5346720641292011
 21
6.3963760992999994
 31
0.0
  0
LINE
  5
D37
  8
0
 10
4.4636103857806146
 20
6.333875304813712
 30
0.0
 11
5.8407445756306471
 21
6.3563739690087191
 31
0.0
  0
LINE
  5
D38
  8
0
 10
4.4636252479458758
 20
6.2888693171499428
 30
0.0
 11
5.8407594377959082
 21
6.3113679813449499
 31
0.0
  0
LINE
  5
D39
  8
0
 10
4.4636055626215532
 20
6.2438712900663491
 30
0.0
 11
5.8407397524715838
 21
6.2663699542613571
 31
0.0
  0
LINE
  5
D3A
  8
0
 10
4.463613481574523
 20
6.1988758349213873
 30
0.0
 11
5.8407476714245554
 21
6.2213744991163944
 31
0.0
  0
LINE
  5
D3B
  8
0
 10
4.4636085446182641
 20
6.1088746120129809
 30
0.0
 11
5.8407427344682947
 21
6.131373276207988
 31
0.0
  0
LINE
  5
D3C
  8
0
 10
4.4636234067835234
 20
6.0638686243492099
 30
0.0
 11
5.8407575966335541
 21
6.086367288544217
 31
0.0
  0
LINE
  5
D3D
  8
0
 10
4.463603721459199
 20
6.0188705972656171
 30
0.0
 11
5.8407379113092306
 21
6.0413692614606243
 31
0.0
  0
LINE
  5
D3E
  8
0
 10
4.4636116404121688
 20
5.9738751421206526
 30
0.0
 11
5.8407458302622013
 21
5.9963738063156597
 31
0.0
  0
LINE
  5
D3F
  8
0
 10
4.4635803802208978
 20
5.9288733757096566
 30
0.0
 11
5.8407145700709302
 21
5.9513720399046637
 31
0.0
  0
LINE
  5
D40
  8
0
 10
4.5490790524999989
 20
4.038341448415034
 30
0.0
 11
5.7552156746999996
 21
4.0533416659563226
 31
0.0
  0
LINE
  5
D41
  8
0
 10
4.5490737230000002
 20
4.0083411351454323
 30
0.0
 11
5.7552204577000001
 21
4.0233413134031162
 31
0.0
  0
LINE
  5
D42
  8
0
 10
4.5495632709932501
 20
3.9783760993000001
 30
0.0
 11
5.7552262238000003
 21
3.99334110345514
 31
0.0
  0
ARC
  5
1077
  8
0
 10
5.9231153621796064
 20
5.7652663530557531
 30
0.0
 40
0.0579060181924929
 50
118.0384040714502
 51
188.83149372782691
  0
ARC
  5
1078
  8
0
 10
5.3878808668450748
 20
5.7680588167311351
 30
0.0
 40
0.1256806672912039
 50
157.3907211423361
 51
185.33366157063941
  0
ARC
  5
1079
  8
0
 10
4.8720281560720959
 20
5.7659974552957998
 30
0.0
 40
0.1697972592287702
 50
356.75166419544013
 51
17.259433185665952
  0
ARC
  5
107A
  8
0
 10
4.381181607403235
 20
5.7652663531518078
 30
0.0
 40
0.0579060179277522
 50
351.16850613528982
 51
61.961596218219107
  0
LINE
  5
107B
  8
0
 10
5.8658958696000001
 20
5.4663760992999988
 30
0.0
 11
5.8482196641001192
 21
5.4363760992999994
 31
0.0
  0
LINE
  5
107C
  8
0
 10
4.4384010997000001
 20
5.4663760992999988
 30
0.0
 11
4.4560914561000002
 21
5.4363760992999994
 31
0.0
  0
LINE
  5
107D
  8
0
 10
5.0415526048999988
 20
5.4663760992999988
 30
0.0
 11
5.0483218909999996
 21
5.4363760992999994
 31
0.0
  0
LINE
  5
107E
  8
0
 10
5.2627443643999987
 20
5.4663760992999988
 30
0.0
 11
5.2560238730002888
 21
5.4363760992999994
 31
0.0
  0
ATTDEF
  5
1EF5
  8
DEFPOINTS
 10
5.164614369287392
 20
0.2769935594558248
 30
0.0
 40
0.001
  1
BRASS
  3

  2
MATERIAL
 70
     0
1001
ACDBATTR
1070
     0
1070
     1
  0
ATTDEF
  5
1EF6
  8
DEFPOINTS
 10
5.164614369287392
 20
0.27866022612249
 30
0.0
 40
0.001
  1
POP-UP CLICKER DRAIN
  3

  2
PRODUCT
 70
     0
1001
ACDBATTR
1070
     0
1070
     1
  0
ATTDEF
  5
1EF7
  8
DEFPOINTS
 10
5.164614369287392
 20
0.2803268927891551
 30
0.0
 40
0.001
  1

  3

  2
TRADENAME
 70
     0
1001
ACDBATTR
1070
     0
1070
     1
  0
ATTDEF
  5
1EF8
  8
DEFPOINTS
 10
5.164614369287392
 20
0.2819935594558203
 30
0.0
 40
0.001
  1
K-7124
  3

  2
MODELNUMBER
 70
     0
1001
ACDBATTR
1070
     0
1070
     1
  0
ENDSEC
  0
EOF
