  0
SECTION
  2
HEADER
  9
$ACADVER
  1
AC1009
  9
$INSBASE
 10
123.4686278311197043
 20
-12.0900506857581096
 30
0.0
  9
$EXTMIN
 10
122.4672160020644043
 20
-16.6792171590465301
 30
-0.0015258207003583
  9
$EXTMAX
 10
124.4670011414006012
 20
-10.98050631327785
 30
0.0000000349246037
  9
$LIMMIN
 10
0.0
 20
0.0
  9
$LIMMAX
 10
11.6929133858000007
 20
8.2677165353999982
  9
$ORTHOMODE
 70
     0
  9
$REGENMODE
 70
     1
  9
$FILLMODE
 70
     1
  9
$QTEXTMODE
 70
     0
  9
$MIRRTEXT
 70
     0
  9
$DRAGMODE
 70
     2
  9
$LTSCALE
 40
0.6431102362
  9
$OSMODE
 70
  4095
  9
$ATTMODE
 70
     1
  9
$TEXTSIZE
 40
0.2
  9
$TRACEWID
 40
0.05
  9
$TEXTSTYLE
  7
STANDARD
  9
$CLAYER
  8
0
  9
$CELTYPE
  6
BYLAYER
  9
$CECOLOR
 62
   256
  9
$DIMSCALE
 40
1.0
  9
$DIMASZ
 40
0.1875
  9
$DIMEXO
 40
0.0625
  9
$DIMDLI
 40
0.4443307087
  9
$DIMRND
 40
0.0
  9
$DIMDLE
 40
0.0
  9
$DIMEXE
 40
0.125
  9
$DIMTP
 40
0.01
  9
$DIMTM
 40
0.01
  9
$DIMTXT
 40
1.0
  9
$DIMCEN
 40
0.1052362205
  9
$DIMTSZ
 40
0.0
  9
$DIMTOL
 70
     1
  9
$DIMLIM
 70
     0
  9
$DIMTIH
 70
     1
  9
$DIMTOH
 70
     1
  9
$DIMSE1
 70
     0
  9
$DIMSE2
 70
     0
  9
$DIMTAD
 70
     0
  9
$DIMZIN
 70
     0
  9
$DIMBLK
  1

  9
$DIMASO
 70
     1
  9
$DIMSHO
 70
     1
  9
$DIMPOST
  1
\X
  9
$DIMAPOST
  1

  9
$DIMALT
 70
     1
  9
$DIMALTD
 70
     2
  9
$DIMALTF
 40
25.3999999999999986
  9
$DIMLFAC
 40
1.0
  9
$DIMTOFL
 70
     0
  9
$DIMTVP
 40
0.0
  9
$DIMTIX
 70
     0
  9
$DIMSOXD
 70
     0
  9
$DIMSAH
 70
     0
  9
$DIMBLK1
  1

  9
$DIMBLK2
  1

  9
$DIMSTYLE
  2
STANDARD
  9
$DIMCLRD
 70
     0
  9
$DIMCLRE
 70
     0
  9
$DIMCLRT
 70
     0
  9
$DIMTFAC
 40
1.0
  9
$DIMGAP
 40
0.09
  9
$LUNITS
 70
     2
  9
$LUPREC
 70
     4
  9
$SKETCHINC
 40
0.1
  9
$FILLETRAD
 40
0.0
  9
$AUNITS
 70
     0
  9
$AUPREC
 70
     0
  9
$MENU
  1
.
  9
$ELEVATION
 40
0.0
  9
$PELEVATION
 40
0.0
  9
$THICKNESS
 40
0.0
  9
$LIMCHECK
 70
     0
  9
$BLIPMODE
 70
     0
  9
$CHAMFERA
 40
0.0
  9
$CHAMFERB
 40
0.0
  9
$SKPOLY
 70
     0
  9
$TDCREATE
 40
2458172.4620254631154239
  9
$TDUPDATE
 40
2460010.7258101850748062
  9
$TDINDWG
 40
0.1160360301
  9
$TDUSRTIMER
 40
0.1160360301
  9
$USRTIMER
 70
     1
  9
$ANGBASE
 50
0.0
  9
$ANGDIR
 70
     0
  9
$PDMODE
 70
     0
  9
$PDSIZE
 40
0.3125
  9
$PLINEWID
 40
0.0
  9
$COORDS
 70
     1
  9
$SPLFRAME
 70
     0
  9
$SPLINETYPE
 70
     6
  9
$SPLINESEGS
 70
     8
  9
$ATTDIA
 70
     1
  9
$ATTREQ
 70
     1
  9
$HANDLING
 70
     1
  9
$HANDSEED
  5
91B2
  9
$SURFTAB1
 70
     6
  9
$SURFTAB2
 70
     6
  9
$SURFTYPE
 70
     6
  9
$SURFU
 70
     6
  9
$SURFV
 70
     6
  9
$UCSNAME
  2

  9
$UCSORG
 10
0.0
 20
0.0
 30
0.0
  9
$UCSXDIR
 10
1.0
 20
0.0
 30
0.0
  9
$UCSYDIR
 10
0.0
 20
1.0
 30
0.0
  9
$PUCSNAME
  2

  9
$PUCSORG
 10
0.0
 20
0.0
 30
0.0
  9
$PUCSXDIR
 10
1.0
 20
0.0
 30
0.0
  9
$PUCSYDIR
 10
0.0
 20
1.0
 30
0.0
  9
$USERI1
 70
     0
  9
$USERI2
 70
     0
  9
$USERI3
 70
     0
  9
$USERI4
 70
     0
  9
$USERI5
 70
     0
  9
$USERR1
 40
0.0
  9
$USERR2
 40
0.0
  9
$USERR3
 40
0.0
  9
$USERR4
 40
0.0
  9
$USERR5
 40
0.0
  9
$WORLDVIEW
 70
     1
  9
$SHADEDGE
 70
     3
  9
$SHADEDIF
 70
    70
  9
$TILEMODE
 70
     1
  9
$MAXACTVP
 70
    64
  9
$PLIMCHECK
 70
     0
  9
$PEXTMIN
 10
1.0000000000000000E+20
 20
1.0000000000000000E+20
 30
1.0000000000000000E+20
  9
$PEXTMAX
 10
-1.0000000000000000E+20
 20
-1.0000000000000000E+20
 30
-1.0000000000000000E+20
  9
$PLIMMIN
 10
0.0
 20
0.0
  9
$PLIMMAX
 10
12.0
 20
9.0
  9
$UNITMODE
 70
     0
  9
$VISRETAIN
 70
     1
  9
$PLINEGEN
 70
     0
  9
$PSLTSCALE
 70
     1
  0
ENDSEC
  0
SECTION
  2
TABLES
  0
TABLE
  2
VPORT
 70
     1
  0
VPORT
  2
*ACTIVE
 70
     0
 10
0.0
 20
0.0
 11
1.0
 21
1.0
 12
17.4762829186563806
 22
0.6899641093964722
 13
0.0
 23
0.0
 14
1.0
 24
1.0
 15
0.0
 25
0.0
 16
0.0
 26
0.0
 36
22.1717569192708517
 17
105.9908256530762003
 27
-14.5198258455586604
 37
0.0
 40
5.7424909546990479
 41
1.593589743589743
 42
50.0
 43
0.0
 44
0.0
 50
0.0
 51
0.0
 71
     0
 72
   100
 73
     1
 74
     1
 75
     0
 76
     0
 77
     0
 78
     0
  0
ENDTAB
  0
TABLE
  2
LTYPE
 70
     2
  0
LTYPE
  2
CONTINUOUS
 70
     0
  3
Solid line
 72
    65
 73
     0
 40
0.0
  0
LTYPE
  2
PHANTOM2
 70
     0
  3
___ _ _ ___ _ _ ___ _ _ ___ _ _
 72
    65
 73
     6
 40
1.25
 49
0.625
 49
-0.125
 49
0.125
 49
-0.125
 49
0.125
 49
-0.125
  0
ENDTAB
  0
TABLE
  2
LAYER
 70
     2
  0
LAYER
  2
0
 70
     0
 62
   255
  6
CONTINUOUS
  0
LAYER
  2
DEFPOINTS
 70
     0
 62
     7
  6
CONTINUOUS
  0
ENDTAB
  0
TABLE
  2
STYLE
 70
     1
  0
STYLE
  2
STANDARD
 70
     0
 40
0.0
 41
0.8
 50
0.0
 71
     0
 42
0.2
  3
txt
  4

  0
ENDTAB
  0
TABLE
  2
VIEW
 70
     0
  0
ENDTAB
  0
TABLE
  2
UCS
 70
     0
  0
ENDTAB
  0
TABLE
  2
APPID
 70
     9
  0
APPID
  2
ACAD
 70
     0
  0
APPID
  2
ACAD_MLEADERVER
 70
     0
  0
APPID
  2
ACAD_EXEMPT_FROM_CAD_STANDARDS
 70
     0
  0
APPID
  2
ACAD_DSTYLE_DIMJAG
 70
     0
  0
APPID
  2
ACAD_DSTYLE_DIMTALN
 70
     0
  0
APPID
  2
ACAD_NAV_VCDISPLAY
 70
     0
  0
APPID
  2
ACAECLAYERSTANDARD
 70
     0
  0
APPID
  2
ACCMTRANSPARENCY
 70
     0
  0
APPID
  2
ACDBATTR
 70
     0
  0
ENDTAB
  0
TABLE
  2
DIMSTYLE
 70
     1
  0
DIMSTYLE
  2
STANDARD
 70
     0
  3

  4

  5

  6

  7

 40
1.0
 41
0.1875
 42
0.0625
 43
0.38
 44
0.125
 45
0.0
 46
0.0
 47
0.01
 48
0.01
140
0.15625
141
0.09
142
0.0
143
25.3999999999999986
144
1.0
145
0.0
146
1.0
147
0.09
 71
     1
 72
     0
 73
     1
 74
     1
 75
     0
 76
     0
 77
     0
 78
     4
170
     0
171
     2
172
     0
173
     0
174
     0
175
     0
176
     0
177
     0
178
     0
  0
ENDTAB
  0
ENDSEC
  0
SECTION
  2
BLOCKS
  0
BLOCK
  8
0
  2
$MODEL_SPACE
 70
     0
 10
0.0
 20
0.0
 30
0.0
  3
$MODEL_SPACE
  1

  0
ENDBLK
  5
21
  8
0
  0
BLOCK
 67
     1
  8
0
  2
$PAPER_SPACE
 70
     0
 10
0.0
 20
0.0
 30
0.0
  3
$PAPER_SPACE
  1

  0
ENDBLK
  5
1D
 67
     1
  8
0
  0
ENDSEC
  0
SECTION
  2
ENTITIES
  0
ATTDEF
  5
383D
  8
DEFPOINTS
 10
123.4640707676525011
 20
-12.0925177593850695
 30
0.0
 40
0.001
  1
K-72275ME-4ND
  3

  2
MODELNUMBER
 70
     0
1001
ACDBATTR
1070
     0
1070
     1
  0
ATTDEF
  5
383E
  8
DEFPOINTS
 10
123.4640707676525011
 20
-12.0941844260517399
 30
0.0
 40
0.001
  1
ALEO
  3

  2
TRADENAME
 70
     0
1001
ACDBATTR
1070
     0
1070
     1
  0
ATTDEF
  5
383F
  8
DEFPOINTS
 10
123.4640707676525011
 20
-12.0958510927184104
 30
0.0
 40
0.001
  1
BATHROOM SINK FAUCET
  3

  2
PRODUCT
 70
     0
1001
ACDBATTR
1070
     0
1070
     1
  0
ARC
  5
9103
  8
0
 10
123.3082749764917025
 20
-12.0339217378513599
 30
0.0
 40
1.1534994506318601
 50
0.9187992094759897
 51
34.8531617778362275
  0
ARC
  5
9104
  8
0
 10
-190.7403658742888979
 20
3.5047169572811678
 30
0.0
 40
315.5838566194606756
 50
356.5087063756263888
 51
357.1731396973881942
  0
ARC
  5
9105
  8
0
 10
118.0714958711768929
 20
-15.3973895507414795
 30
0.0
 40
6.1943548222992977
 50
352.7397222120411016
 51
357.076187226740501
  0
ARC
  5
9106
  8
0
 10
123.2786850408998021
 20
-16.0547946715784313
 30
0.0
 40
0.9458531393847021
 50
340.6551004679936909
 51
352.3802476431284845
  0
ARC
  5
9107
  8
0
 10
123.7989233929483959
 20
-16.2295731370341905
 30
0.0
 40
0.3971598583872093
 50
316.7031655538020232
 51
339.5845695243398268
  0
ARC
  5
9108
  8
0
 10
123.746218309714294
 20
-16.1802122065835299
 30
0.0
 40
0.4693698772591059
 50
287.129728895527478
 51
316.7298479301958878
  0
ARC
  5
9109
  8
0
 10
123.6013161267151048
 20
-15.7376086322919697
 30
0.0
 40
0.935053823071258
 50
273.4127489447034804
 51
287.6267756965128797
  0
ARC
  5
910A
  8
0
 10
123.6090653110950939
 20
-14.3911036102208207
 30
0.0
 40
1.182567951217433
 50
272.1018284586716049
 51
283.3495747707304986
  0
ARC
  5
910B
  8
0
 10
123.7443174374182036
 20
-14.97536028783958
 30
0.0
 40
0.5828789687444611
 50
283.67420230458589
 51
300.5635454614101718
  0
ARC
  5
910C
  8
0
 10
123.8310119365374931
 20
-15.1237996429190407
 30
0.0
 40
0.4109801631534254
 50
300.6793707556689128
 51
321.5263485627339151
  0
ARC
  5
910D
  8
0
 10
123.7290979701741946
 20
-15.0590101617106509
 30
0.0
 40
0.5312285323609593
 50
322.8943991623115153
 51
345.4980005565079182
  0
ARC
  5
910E
  8
0
 10
122.3850425476828008
 20
-14.7614244092092495
 30
0.0
 40
1.9075962246322491
 50
346.9538521647564835
 51
355.487626133527101
  0
ARC
  5
910F
  8
0
 10
719.0165872657698856
 20
-47.9638268481307506
 30
0.0
 40
595.6476005659038719
 50
176.5411545443078865
 51
176.8190389193746057
  0
ARC
  5
9110
  8
0
 10
121.3627172573821014
 20
-12.0676706195482009
 30
0.0
 40
3.0915679044882638
 50
0.745144537321581
 51
4.1184705678235041
  0
ARC
  5
9111
  8
0
 10
437.4793873202233954
 20
3.4932067266487499
 30
0.0
 40
315.3852962133100846
 50
182.8185766575618061
 51
183.4913994570640909
  0
ARC
  5
9112
  8
0
 10
128.865752941859796
 20
-15.3973895507414795
 30
0.0
 40
6.1943548222992977
 50
182.923812773259101
 51
187.2602777879585858
  0
ARC
  5
9113
  8
0
 10
123.6585637721369011
 20
-16.0547946715784313
 30
0.0
 40
0.9458531393847021
 50
187.6197523568712029
 51
199.3448995320059112
  0
ARC
  5
9114
  8
0
 10
123.1383254200882931
 20
-16.2295731370341905
 30
0.0
 40
0.3971598583872093
 50
200.415430475659889
 51
223.2968344461978916
  0
ARC
  5
9115
  8
0
 10
123.1910305033223949
 20
-16.1802122065835299
 30
0.0
 40
0.4693698772591059
 50
223.2701520698041122
 51
252.8702711044724936
  0
ARC
  5
9116
  8
0
 10
123.3359326863214989
 20
-15.7376086322919697
 30
0.0
 40
0.935053823071258
 50
252.3732243034862108
 51
266.5872510552965196
  0
ARC
  5
9117
  8
0
 10
123.3281835019415951
 20
-14.3911036102208207
 30
0.0
 40
1.182567951217433
 50
256.6504252292693877
 51
267.8981715413283951
  0
ARC
  5
9118
  8
0
 10
123.1929313756184996
 20
-14.97536028783958
 30
0.0
 40
0.5828789687444611
 50
239.4364545385897998
 51
256.3257976954139963
  0
ARC
  5
9119
  8
0
 10
123.1062368764991959
 20
-15.1237996429190407
 30
0.0
 40
0.4109801631534254
 50
218.4736514372658007
 51
239.3206292443310872
  0
ARC
  5
911A
  8
0
 10
123.2081508428624943
 20
-15.0590101617106509
 30
0.0
 40
0.5312285323609593
 50
194.5019994434919113
 51
217.1056008376883142
  0
ARC
  5
911B
  8
0
 10
124.5522062653539024
 20
-14.7614244092092495
 30
0.0
 40
1.9075962246322491
 50
184.5123738664725863
 51
193.0461478352430902
  0
ARC
  5
911C
  8
0
 10
-472.0793384202373204
 20
-47.9638268462881072
 30
0.0
 40
595.6476005333561261
 50
3.180961080621854
 51
3.4588454557038331
  0
ARC
  5
911D
  8
0
 10
124.4064753905646938
 20
-12.0180649646816207
 30
0.0
 40
1.923273268150365
 50
174.8563431452784869
 51
180.2800417494428018
  0
ARC
  5
911E
  8
0
 10
123.4676417392853978
 20
-14.3046471765882206
 30
0.0
 40
2.3737636317193052
 50
265.4726874685330813
 51
270.0238014017862156
  0
ARC
  5
911F
  8
0
 10
123.4697378967234016
 20
-14.3079732152236794
 30
0.0
 40
2.370437648185701
 50
269.9731686355701186
 51
274.5305060916844013
  0
ARC
  5
9120
  8
0
 10
123.4686244065883045
 20
-11.3659429034171406
 30
0.0
 40
4.2109467682027057
 50
267.4981835123036262
 51
270.0000465955059212
  0
ARC
  5
9121
  8
0
 10
123.4686244064482992
 20
-11.3659429034141706
 30
0.0
 40
4.2109467682056776
 50
270.0000465974104031
 51
272.501816487695578
  0
ARC
  5
9122
  8
0
 10
123.4528530592007058
 20
-11.9960394975047002
 30
0.0
 40
1.014516938348125
 50
37.7649521204327812
 51
89.109069308051545
  0
ARC
  5
9123
  8
0
 10
123.4985760180848047
 20
-12.0244030995873405
 30
0.0
 40
1.043187861586683
 50
91.6450924775179345
 51
141.4804868154652979
  0
ARC
  5
9124
  8
0
 10
123.6289283575221987
 20
-12.0338947317900296
 30
0.0
 40
1.1534466963785011
 50
145.1466480500479861
 51
179.0825004237456142
  0
ARC
  5
9126
  8
0
 10
123.4688385527312988
 20
-11.9647092139239302
 30
0.0
 40
0.9589415597534232
 50
76.7390067861124265
 51
90.0125904013321758
  0
ARC
  5
9127
  8
0
 10
123.4686628063495988
 20
-11.9645956118110703
 30
0.0
 40
0.9588279351260542
 50
90.0020899819339775
 51
101.9481622924187008
  0
ARC
  5
9128
  8
0
 10
123.4553913677376045
 20
-12.0218936618300596
 30
0.0
 40
1.017685811278989
 50
47.686661036525372
 51
76.7406258626909619
  0
ARC
  5
9129
  8
0
 10
123.5368613036719978
 20
-11.9324012351657895
 30
0.0
 40
0.8966641401146359
 50
31.6445290142424511
 51
47.686661036525372
  0
ARC
  5
912A
  8
0
 10
123.3179169935147002
 20
-12.0673313453992304
 30
0.0
 40
1.1538464598760321
 50
17.535245349974371
 51
31.6445290142424511
  0
ARC
  5
912B
  8
0
 10
123.4752551780831027
 20
-12.0090081534130793
 30
0.0
 40
1.003646843075273
 50
101.7914549983238004
 51
133.1316146958648119
  0
ARC
  5
912C
  8
0
 10
123.4531003631282005
 20
-11.9853591710023704
 30
0.0
 40
0.9712414392859379
 50
133.1316146958646129
 51
161.6538761953138987
  0
ARC
  5
912D
  8
0
 10
124.950893189751099
 20
-12.0615154210881208
 30
0.0
 40
0.4914332129916535
 50
174.6184397796097016
 51
179.735805827664592
  0
ENDSEC
  0
EOF
