  0
SECTION
  2
HEADER
  9
$ACADVER
  1
AC1009
  9
$INSBASE
 10
106.2220912011394063
 20
-7.4600646549228182
 30
0.0
  9
$EXTMIN
 10
105.2378392326635037
 20
-7.4650080861410428
 30
0.0
  9
$EXTMAX
 10
109.6472880515394053
 20
3.0793054237771811
 30
0.0
  9
$LIMMIN
 10
0.0
 20
0.0
  9
$LIMMAX
 10
11.6929133858000007
 20
8.2677165353999982
  9
$ORTHOMODE
 70
     0
  9
$REGENMODE
 70
     1
  9
$FILLMODE
 70
     1
  9
$QTEXTMODE
 70
     0
  9
$MIRRTEXT
 70
     0
  9
$DRAGMODE
 70
     2
  9
$LTSCALE
 40
0.6431102362
  9
$OSMODE
 70
  4095
  9
$ATTMODE
 70
     1
  9
$TEXTSIZE
 40
0.2
  9
$TRACEWID
 40
0.05
  9
$TEXTSTYLE
  7
STANDARD
  9
$CLAYER
  8
0
  9
$CELTYPE
  6
BYLAYER
  9
$CECOLOR
 62
   256
  9
$DIMSCALE
 40
1.0
  9
$DIMASZ
 40
0.1875
  9
$DIMEXO
 40
0.0625
  9
$DIMDLI
 40
0.4443307087
  9
$DIMRND
 40
0.0
  9
$DIMDLE
 40
0.0
  9
$DIMEXE
 40
0.125
  9
$DIMTP
 40
0.01
  9
$DIMTM
 40
0.01
  9
$DIMTXT
 40
1.0
  9
$DIMCEN
 40
0.1052362205
  9
$DIMTSZ
 40
0.0
  9
$DIMTOL
 70
     1
  9
$DIMLIM
 70
     0
  9
$DIMTIH
 70
     1
  9
$DIMTOH
 70
     1
  9
$DIMSE1
 70
     0
  9
$DIMSE2
 70
     0
  9
$DIMTAD
 70
     0
  9
$DIMZIN
 70
     0
  9
$DIMBLK
  1

  9
$DIMASO
 70
     1
  9
$DIMSHO
 70
     1
  9
$DIMPOST
  1
\X
  9
$DIMAPOST
  1

  9
$DIMALT
 70
     1
  9
$DIMALTD
 70
     2
  9
$DIMALTF
 40
25.3999999999999986
  9
$DIMLFAC
 40
1.0
  9
$DIMTOFL
 70
     0
  9
$DIMTVP
 40
0.0
  9
$DIMTIX
 70
     0
  9
$DIMSOXD
 70
     0
  9
$DIMSAH
 70
     0
  9
$DIMBLK1
  1

  9
$DIMBLK2
  1

  9
$DIMSTYLE
  2
STANDARD
  9
$DIMCLRD
 70
     0
  9
$DIMCLRE
 70
     0
  9
$DIMCLRT
 70
     0
  9
$DIMTFAC
 40
1.0
  9
$DIMGAP
 40
0.09
  9
$LUNITS
 70
     2
  9
$LUPREC
 70
     4
  9
$SKETCHINC
 40
0.1
  9
$FILLETRAD
 40
0.0
  9
$AUNITS
 70
     0
  9
$AUPREC
 70
     0
  9
$MENU
  1
.
  9
$ELEVATION
 40
0.0
  9
$PELEVATION
 40
0.0
  9
$THICKNESS
 40
0.0
  9
$LIMCHECK
 70
     0
  9
$BLIPMODE
 70
     0
  9
$CHAMFERA
 40
0.0
  9
$CHAMFERB
 40
0.0
  9
$SKPOLY
 70
     0
  9
$TDCREATE
 40
2458172.4620254631154239
  9
$TDUPDATE
 40
2459104.4272916670888662
  9
$TDINDWG
 40
0.1119966782
  9
$TDUSRTIMER
 40
0.1119966782
  9
$USRTIMER
 70
     1
  9
$ANGBASE
 50
0.0
  9
$ANGDIR
 70
     0
  9
$PDMODE
 70
     0
  9
$PDSIZE
 40
0.3125
  9
$PLINEWID
 40
0.0
  9
$COORDS
 70
     1
  9
$SPLFRAME
 70
     0
  9
$SPLINETYPE
 70
     6
  9
$SPLINESEGS
 70
     8
  9
$ATTDIA
 70
     1
  9
$ATTREQ
 70
     1
  9
$HANDLING
 70
     1
  9
$HANDSEED
  5
7BAA
  9
$SURFTAB1
 70
     6
  9
$SURFTAB2
 70
     6
  9
$SURFTYPE
 70
     6
  9
$SURFU
 70
     6
  9
$SURFV
 70
     6
  9
$UCSNAME
  2

  9
$UCSORG
 10
0.0
 20
0.0
 30
0.0
  9
$UCSXDIR
 10
1.0
 20
0.0
 30
0.0
  9
$UCSYDIR
 10
0.0
 20
1.0
 30
0.0
  9
$PUCSNAME
  2

  9
$PUCSORG
 10
0.0
 20
0.0
 30
0.0
  9
$PUCSXDIR
 10
1.0
 20
0.0
 30
0.0
  9
$PUCSYDIR
 10
0.0
 20
1.0
 30
0.0
  9
$USERI1
 70
     0
  9
$USERI2
 70
     0
  9
$USERI3
 70
     0
  9
$USERI4
 70
     0
  9
$USERI5
 70
     0
  9
$USERR1
 40
0.0
  9
$USERR2
 40
0.0
  9
$USERR3
 40
0.0
  9
$USERR4
 40
0.0
  9
$USERR5
 40
0.0
  9
$WORLDVIEW
 70
     1
  9
$SHADEDGE
 70
     3
  9
$SHADEDIF
 70
    70
  9
$TILEMODE
 70
     1
  9
$MAXACTVP
 70
    64
  9
$PLIMCHECK
 70
     0
  9
$PEXTMIN
 10
1.0000000000000000E+20
 20
1.0000000000000000E+20
 30
1.0000000000000000E+20
  9
$PEXTMAX
 10
-1.0000000000000000E+20
 20
-1.0000000000000000E+20
 30
-1.0000000000000000E+20
  9
$PLIMMIN
 10
0.0
 20
0.0
  9
$PLIMMAX
 10
12.0
 20
9.0
  9
$UNITMODE
 70
     0
  9
$VISRETAIN
 70
     1
  9
$PLINEGEN
 70
     0
  9
$PSLTSCALE
 70
     1
  0
ENDSEC
  0
SECTION
  2
TABLES
  0
TABLE
  2
VPORT
 70
     1
  0
VPORT
  2
*ACTIVE
 70
     0
 10
0.0
 20
0.0
 11
1.0
 21
1.0
 12
0.33781762022093
 22
0.1610730675570817
 13
0.0
 23
0.0
 14
1.0
 24
1.0
 15
0.0
 25
0.0
 16
-0.0000000000000142
 26
0.0
 36
48.5874387997790009
 17
107.1076240539551065
 27
-2.193118843523707
 37
0.0
 40
10.6127436068310192
 41
2.005224660397074
 42
50.0
 43
0.0
 44
0.0
 50
0.0
 51
0.0
 71
     0
 72
   100
 73
     1
 74
     1
 75
     0
 76
     0
 77
     0
 78
     0
  0
ENDTAB
  0
TABLE
  2
LTYPE
 70
     2
  0
LTYPE
  2
CONTINUOUS
 70
     0
  3
Solid line
 72
    65
 73
     0
 40
0.0
  0
LTYPE
  2
PHANTOM2
 70
     0
  3
___ _ _ ___ _ _ ___ _ _ ___ _ _
 72
    65
 73
     6
 40
1.25
 49
0.625
 49
-0.125
 49
0.125
 49
-0.125
 49
0.125
 49
-0.125
  0
ENDTAB
  0
TABLE
  2
LAYER
 70
     2
  0
LAYER
  2
0
 70
     0
 62
   255
  6
CONTINUOUS
  0
LAYER
  2
DEFPOINTS
 70
     0
 62
     7
  6
CONTINUOUS
  0
ENDTAB
  0
TABLE
  2
STYLE
 70
     1
  0
STYLE
  2
STANDARD
 70
     0
 40
0.0
 41
0.8
 50
0.0
 71
     0
 42
0.2
  3
txt
  4

  0
ENDTAB
  0
TABLE
  2
VIEW
 70
     0
  0
ENDTAB
  0
TABLE
  2
UCS
 70
     0
  0
ENDTAB
  0
TABLE
  2
APPID
 70
     9
  0
APPID
  2
ACAD
 70
     0
  0
APPID
  2
ACAD_MLEADERVER
 70
     0
  0
APPID
  2
ACAD_EXEMPT_FROM_CAD_STANDARDS
 70
     0
  0
APPID
  2
ACAD_DSTYLE_DIMJAG
 70
     0
  0
APPID
  2
ACAD_DSTYLE_DIMTALN
 70
     0
  0
APPID
  2
ACAD_NAV_VCDISPLAY
 70
     0
  0
APPID
  2
ACAECLAYERSTANDARD
 70
     0
  0
APPID
  2
ACCMTRANSPARENCY
 70
     0
  0
APPID
  2
ACDBATTR
 70
     0
  0
ENDTAB
  0
TABLE
  2
DIMSTYLE
 70
     1
  0
DIMSTYLE
  2
STANDARD
 70
     0
  3

  4

  5

  6

  7

 40
1.0
 41
0.1875
 42
0.0625
 43
0.38
 44
0.125
 45
0.0
 46
0.0
 47
0.01
 48
0.01
140
0.15625
141
0.09
142
0.0
143
25.3999999999999986
144
1.0
145
0.0
146
1.0
147
0.09
 71
     1
 72
     0
 73
     1
 74
     1
 75
     0
 76
     0
 77
     0
 78
     4
170
     0
171
     2
172
     0
173
     0
174
     0
175
     0
176
     0
177
     0
178
     0
  0
ENDTAB
  0
ENDSEC
  0
SECTION
  2
BLOCKS
  0
BLOCK
  8
0
  2
$MODEL_SPACE
 70
     0
 10
0.0
 20
0.0
 30
0.0
  3
$MODEL_SPACE
  1

  0
ENDBLK
  5
21
  8
0
  0
BLOCK
 67
     1
  8
0
  2
$PAPER_SPACE
 70
     0
 10
0.0
 20
0.0
 30
0.0
  3
$PAPER_SPACE
  1

  0
ENDBLK
  5
1D
 67
     1
  8
0
  0
BLOCK
  8
0
  2
_FILLED
 70
     0
 10
0.0
 20
0.0
 30
0.0
  3
_FILLED
  1

  0
SOLID
  5
3BD9
  8
0
  6
BYBLOCK
 62
     0
 10
0.0
 20
0.0
 30
0.0
 11
-1.0
 21
0.1666666667
 31
0.0
 12
-1.0
 22
-0.1666666667
 32
0.0
 13
-1.0
 23
-0.1666666667
 33
0.0
  0
ENDBLK
  5
3BDA
  8
0
  6
BYBLOCK
 62
     0
  0
BLOCK
  8
0
  2
A$C226D500F
 70
     2
 10
0.0
 20
0.0
 30
0.0
  3
A$C226D500F
  1

  0
ATTDEF
  5
564D
  8
DEFPOINTS
 10
0.000291919742196
 20
0.0005288174062983
 30
0.0
 40
0.001
  1
BATHROOM SINK FAUCET
  3

  2
PRODUCT
 70
     0
1001
ACDBATTR
1070
     0
1070
     1
  0
ATTDEF
  5
564E
  8
DEFPOINTS
 10
0.000291919742196
 20
0.0021954840729634
 30
0.0
 40
0.001
  1
ALEO
  3

  2
TRADENAME
 70
     0
1001
ACDBATTR
1070
     0
1070
     1
  0
ATTDEF
  5
564F
  8
DEFPOINTS
 10
0.000291919742196
 20
0.0038621507396286
 30
0.0
 40
0.001
  1
K-98868T-4
  3

  2
MODELNUMBER
 70
     0
1001
ACDBATTR
1070
     0
1070
     1
  0
ENDBLK
  5
5653
  8
0
  0
BLOCK
  8
0
  2
A$C393A5527
 70
     2
 10
0.0
 20
0.0
 30
0.0
  3
A$C393A5527
  1

  0
ATTDEF
  5
5655
  8
DEFPOINTS
 10
0.0000000879847164
 20
-0.0000001116000696
 30
0.0
 40
0.001
  1
BATHROOM SINK FAUCET
  3

  2
PRODUCT
 70
     0
1001
ACDBATTR
1070
     0
1070
     1
  0
ATTDEF
  5
5656
  8
DEFPOINTS
 10
0.0000000879847164
 20
0.0016665550665955
 30
0.0
 40
0.001
  1
ALEO
  3

  2
TRADENAME
 70
     0
1001
ACDBATTR
1070
     0
1070
     1
  0
ATTDEF
  5
5657
  8
DEFPOINTS
 10
0.0000000879847164
 20
0.0033332217332607
 30
0.0
 40
0.001
  1
K-98868T-4
  3

  2
MODELNUMBER
 70
     0
1001
ACDBATTR
1070
     0
1070
     1
  0
ENDBLK
  5
565B
  8
0
  0
ENDSEC
  0
SECTION
  2
ENTITIES
  0
ATTDEF
  5
383D
  8
DEFPOINTS
 10
106.2223328134144964
 20
-7.4616747528077134
 30
0.0
 40
0.001
  1
K-72278IN-4ND
  3

  2
MODELNUMBER
 70
     0
1001
ACDBATTR
1070
     0
1070
     1
  0
ATTDEF
  5
383E
  8
DEFPOINTS
 10
106.2223328134144964
 20
-7.4633414194743777
 30
0.0
 40
0.001
  1
ALEO
  3

  2
TRADENAME
 70
     0
1001
ACDBATTR
1070
     0
1070
     1
  0
ATTDEF
  5
383F
  8
DEFPOINTS
 10
106.2223328134144964
 20
-7.4650080861410428
 30
0.0
 40
0.001
  1
BATHROOM SINK FAUCET
  3

  2
PRODUCT
 70
     0
1001
ACDBATTR
1070
     0
1070
     1
  0
CIRCLE
  5
77AD
  8
0
 10
106.2220912011394063
 20
2.6068644788771809
 30
0.0
 40
0.4724409449000007
  0
LINE
  5
77AE
  8
0
 10
106.6945321460394069
 20
2.6068644788771809
 30
0.0
 11
106.6945321460394069
 21
-2.9640016628228181
 31
0.0
  0
LINE
  5
77AF
  8
0
 10
106.6945321460394069
 20
-2.9640016628228181
 30
0.0
 11
105.7496502562394056
 21
-2.9640016628228181
 31
0.0
  0
LINE
  5
77B0
  8
0
 10
107.1866601145323017
 20
-2.9718756786228182
 30
0.0
 11
105.2575222877463972
 21
-2.9718756786228182
 31
0.0
  0
LINE
  5
77B1
  8
0
 10
106.5607169808394019
 20
-2.9718756786228182
 30
0.0
 11
106.5607169808394019
 21
-2.9640016628228181
 31
0.0
  0
LINE
  5
77B2
  8
0
 10
107.2063431696151952
 20
-3.6824935421288179
 30
0.0
 11
107.2063431696151952
 21
-2.9915585071272059
 31
0.0
  0
LINE
  5
77B3
  8
0
 10
107.2063431696151952
 20
-6.1982657012228168
 30
0.0
 11
107.2063431696151952
 21
-7.4600646549228182
 31
0.0
  0
LINE
  5
77B4
  8
0
 10
108.190595138339404
 20
-5.9246315841228183
 30
0.0
 11
107.4765028658293033
 21
-5.9246315841228183
 31
0.0
  0
LINE
  5
77B5
  8
0
 10
108.1905971222278993
 20
-3.9561276471228171
 30
0.0
 11
107.4791226657392968
 21
-3.9561276471228171
 31
0.0
  0
LINE
  5
77B6
  8
0
 10
107.2063431696151952
 20
-7.4600646549228182
 30
0.0
 11
105.2378392326635037
 21
-7.4600646549228182
 31
0.0
  0
LINE
  5
77B7
  8
0
 10
108.2102801775394028
 20
-5.9049493507867492
 30
0.0
 11
108.2102801775394028
 21
-3.975386713930106
 31
0.0
  0
LINE
  5
77B8
  8
0
 10
108.308705374340505
 20
-3.9364584785904881
 30
0.0
 11
108.308705374340505
 21
-4.767332379229706
 31
0.0
  0
LINE
  5
77BA
  8
0
 10
109.6472880515394053
 20
-5.8808886593116583
 30
0.0
 11
109.6472880515394053
 21
-1.3490839120927161
 31
0.0
  0
ARC
  5
77BB
  8
0
 10
109.6276034959358014
 20
-1.34908391206607
 30
0.0
 40
0.0196845556035381
 50
359.9999999224380076
 51
112.6512080028503959
  0
ARC
  5
77BC
  8
0
 10
109.7039953590689976
 20
-1.532142257858488
 30
0.0
 40
0.2180430056812233
 50
112.6512080008449033
 51
126.9434213943297038
  0
ARC
  5
77BD
  8
0
 10
109.763822617957203
 20
-1.584756024193914
 30
0.0
 40
0.2964937637073275
 50
130.0742754337817928
 51
159.7110615026255971
  0
ARC
  5
77BE
  8
0
 10
110.5020418606894026
 20
-1.846470272531469
 30
0.0
 40
1.079712568668485
 50
160.2684985462867928
 51
176.6232891938932141
  0
ARC
  5
77BF
  8
0
 10
113.273314171548094
 20
-2.1050645154640431
 30
0.0
 40
3.8625712650330262
 50
175.2152080516310946
 51
178.364738027279401
  0
ARC
  5
77C0
  8
0
 10
108.5246880472829929
 20
5.7079118438529326
 30
0.0
 40
9.6467884516785514
 50
268.7170932835131794
 51
271.0789627904924828
  0
ARC
  5
77C1
  8
0
 10
108.6924706402521963
 20
-3.2007346365451421
 30
0.0
 40
0.7365621295690797
 50
271.0789627904924828
 51
309.3143937768504088
  0
ARC
  5
77C2
  8
0
 10
108.6592876581061944
 20
-3.280729244231444
 30
0.0
 40
0.6998733723344119
 50
315.5777867724929138
 51
349.0869185398996137
  0
ARC
  5
77C3
  8
0
 10
106.3263724419993963
 20
-2.8907563946074428
 30
0.0
 40
3.0649915749249992
 50
350.1851659432151109
 51
359.1028933377652947
  0
ARC
  5
77C4
  8
0
 10
78.324354250544701
 20
-1.932402732189487
 30
0.0
 40
31.0829290166614989
 50
358.1446661608429167
 51
359.3550785585861718
  0
ARC
  5
77C5
  8
0
 10
142.9589606545947902
 20
-2.9558397599295172
 30
0.0
 40
33.5604066134863075
 50
178.3591135428499967
 51
178.8499665646365884
  0
LINE
  5
77C7
  8
0
 10
108.7799381393405014
 20
-5.9005424648927161
 30
0.0
 11
108.3640354214662977
 21
-5.0086362080190483
 31
0.0
  0
ARC
  5
77C8
  8
0
 10
108.8992564779891978
 20
-4.7590585305940394
 30
0.0
 40
0.5905510955153255
 50
190.4628461198076934
 51
204.9999999967089082
  0
ARC
  5
77C9
  8
0
 10
108.8992577995619939
 20
-4.7590582865413253
 30
0.0
 40
0.5905524394335713
 50
185.5438225718216927
 51
190.4628461198076934
  0
ARC
  5
77CA
  8
0
 10
108.9166103629817002
 20
-4.7573740286072521
 30
0.0
 40
0.6079865491620066
 50
180.9385026321897953
 51
185.5438225718216927
  0
ARC
  5
77CB
  8
0
 10
108.0823274224320016
 20
-4.940392837549644
 30
0.0
 40
0.9251968489255968
 50
281.2910773100473989
 51
309.169061057279805
  0
ARC
  5
77CC
  8
0
 10
108.2018113494839042
 20
-5.5388364863976491
 30
0.0
 40
0.3149418123464204
 50
271.5408770173340258
 51
281.2910773100473989
  0
ARC
  5
77CD
  8
0
 10
108.1937098020591037
 20
-4.4391591027509696
 30
0.0
 40
0.4122070075907612
 50
73.7965847824460042
 51
87.6961370071272341
  0
LINE
  5
77CE
  8
0
 10
109.5791798835026043
 20
-1.353357892251096
 30
0.0
 11
109.5791798835026043
 21
-3.7151939174918729
 31
0.0
  0
ARC
  5
77CF
  8
0
 10
105.8661564902019023
 20
-3.6657313246239189
 30
0.0
 40
3.7133528336654882
 50
347.9292177092148108
 51
359.2367863347012076
  0
ARC
  5
77D0
  8
0
 10
109.0714780877243015
 20
-4.3445220490614096
 30
0.0
 40
0.4370007742776802
 50
281.1019982877489838
 51
347.0751354751623126
  0
ARC
  5
77D1
  8
0
 10
108.7423047545157999
 20
-2.8175760084236421
 30
0.0
 40
1.998966060171979
 50
269.0541233127868281
 51
281.9329665808360232
  0
ARC
  5
77D2
  8
0
 10
108.4306503348500996
 20
-203.2495976770482002
 30
0.0
 40
198.4335236522971115
 50
89.9195408197414423
 51
90.0344128723605763
  0
ARC
  5
77E2
  8
0
 10
107.1856459126955059
 20
-2.9925729472188318
 30
0.0
 40
0.0207221025164292
 50
2.806007576138688
 51
87.1946519793894055
  0
ARC
  5
77E3
  8
0
 10
108.1907178025418972
 20
-5.9050692264121381
 30
0.0
 40
0.0195627422849442
 50
269.640736096474825
 51
0.3510965020008463
  0
ARC
  5
77E4
  8
0
 10
108.1907197864304067
 20
-3.9756900048334951
 30
0.0
 40
0.0195627422849412
 50
0.88832049620983
 51
90.3592639035357763
  0
ARC
  5
77E5
  8
0
 10
107.512657962844898
 20
-6.2305093622879602
 30
0.0
 40
0.3080071528641068
 50
96.7411469693565493
 51
173.9909942973503973
  0
ARC
  5
77E6
  8
0
 10
107.4788163786095936
 20
-3.6836521469890648
 30
0.0
 40
0.2724756722809335
 50
179.7563695573120128
 51
270.0644056160901982
  0
LINE
  5
77E7
  8
0
 10
105.7496502562394056
 20
2.6068644788771809
 30
0.0
 11
105.7496502562394056
 21
-2.9640016628228181
 31
0.0
  0
LINE
  5
77E8
  8
0
 10
105.8834654214393964
 20
-2.9718756786228182
 30
0.0
 11
105.8834654214393964
 21
-2.9640016628228181
 31
0.0
  0
LINE
  5
77E9
  8
0
 10
105.2378392326635037
 20
-7.4600646549228182
 30
0.0
 11
105.2378392326635037
 21
-2.9915585071272059
 31
0.0
  0
ARC
  5
77EA
  8
0
 10
105.258536489583193
 20
-2.9925729472188318
 30
0.0
 40
0.0207221025164292
 50
92.8053480206097845
 51
177.1939924238612889
  0
LINE
  5
77EB
  8
0
 10
108.2102801775394028
 20
-4.8616394581228182
 30
0.0
 11
108.2496502562394056
 21
-4.8616394581228182
 31
0.0
  0
LINE
  5
77EC
  8
0
 10
108.2496502562394056
 20
-4.8616394581228182
 30
0.0
 11
108.2496502562394056
 21
-5.0191197731228181
 31
0.0
  0
LINE
  5
77ED
  8
0
 10
108.2496502562394056
 20
-5.0191197731228181
 30
0.0
 11
108.2102801775394028
 21
-5.0191197731228181
 31
0.0
  0
ARC
  5
78CD
  8
0
 10
109.6276255229205958
 20
-5.8808843867138361
 30
0.0
 40
0.0196625290830205
 50
270.0655654992963264
 51
359.987549830277203
  0
LINE
  5
78CE
  8
0
 10
109.627648023413002
 20
-5.9005469029228168
 30
0.0
 11
108.7799381393405014
 21
-5.9005424648927161
 31
0.0
  0
ENDSEC
  0
EOF
