  0
SECTION
  2
HEADER
  9
$ACADVER
  1
AC1009
  9
$INSBASE
 10
4244.9837325171220073
 20
215.1476635061418961
 30
0.0
  9
$EXTMIN
 10
4242.7593230683232832
 20
211.9545173876084903
 30
0.0
  9
$EXTMAX
 10
4247.2081419659225503
 20
215.1520890688817929
 30
0.0
  9
$LIMMIN
 10
0.0
 20
0.0
  9
$LIMMAX
 10
11.6929133858000007
 20
8.2677165353999982
  9
$ORTHOMODE
 70
     0
  9
$REGENMODE
 70
     1
  9
$FILLMODE
 70
     1
  9
$QTEXTMODE
 70
     0
  9
$MIRRTEXT
 70
     0
  9
$DRAGMODE
 70
     2
  9
$LTSCALE
 40
0.6431102362
  9
$OSMODE
 70
  4095
  9
$ATTMODE
 70
     1
  9
$TEXTSIZE
 40
0.2
  9
$TRACEWID
 40
0.05
  9
$TEXTSTYLE
  7
STANDARD
  9
$CLAYER
  8
0
  9
$CELTYPE
  6
BYLAYER
  9
$CECOLOR
 62
   256
  9
$DIMSCALE
 40
1.0
  9
$DIMASZ
 40
0.1875
  9
$DIMEXO
 40
0.0625
  9
$DIMDLI
 40
0.4443307087
  9
$DIMRND
 40
0.0
  9
$DIMDLE
 40
0.0
  9
$DIMEXE
 40
0.125
  9
$DIMTP
 40
0.01
  9
$DIMTM
 40
0.01
  9
$DIMTXT
 40
2.0
  9
$DIMCEN
 40
0.1052362205
  9
$DIMTSZ
 40
0.0
  9
$DIMTOL
 70
     1
  9
$DIMLIM
 70
     0
  9
$DIMTIH
 70
     1
  9
$DIMTOH
 70
     1
  9
$DIMSE1
 70
     0
  9
$DIMSE2
 70
     0
  9
$DIMTAD
 70
     0
  9
$DIMZIN
 70
     0
  9
$DIMBLK
  1

  9
$DIMASO
 70
     1
  9
$DIMSHO
 70
     1
  9
$DIMPOST
  1
\X
  9
$DIMAPOST
  1

  9
$DIMALT
 70
     1
  9
$DIMALTD
 70
     2
  9
$DIMALTF
 40
25.3999999999999986
  9
$DIMLFAC
 40
1.0
  9
$DIMTOFL
 70
     0
  9
$DIMTVP
 40
0.0
  9
$DIMTIX
 70
     0
  9
$DIMSOXD
 70
     0
  9
$DIMSAH
 70
     0
  9
$DIMBLK1
  1

  9
$DIMBLK2
  1

  9
$DIMSTYLE
  2
STANDARD
  9
$DIMCLRD
 70
     0
  9
$DIMCLRE
 70
     0
  9
$DIMCLRT
 70
     0
  9
$DIMTFAC
 40
1.0
  9
$DIMGAP
 40
0.09
  9
$LUNITS
 70
     2
  9
$LUPREC
 70
     4
  9
$SKETCHINC
 40
0.1
  9
$FILLETRAD
 40
0.0
  9
$AUNITS
 70
     0
  9
$AUPREC
 70
     0
  9
$MENU
  1
.
  9
$ELEVATION
 40
0.0
  9
$PELEVATION
 40
0.0
  9
$THICKNESS
 40
0.0
  9
$LIMCHECK
 70
     0
  9
$BLIPMODE
 70
     0
  9
$CHAMFERA
 40
0.0
  9
$CHAMFERB
 40
0.0
  9
$SKPOLY
 70
     0
  9
$TDCREATE
 40
2458060.468368056230247
  9
$TDUPDATE
 40
2459387.6678240741603076
  9
$TDINDWG
 40
0.5526459491
  9
$TDUSRTIMER
 40
0.5526459491
  9
$USRTIMER
 70
     1
  9
$ANGBASE
 50
0.0
  9
$ANGDIR
 70
     0
  9
$PDMODE
 70
     0
  9
$PDSIZE
 40
0.3125
  9
$PLINEWID
 40
0.0
  9
$COORDS
 70
     1
  9
$SPLFRAME
 70
     0
  9
$SPLINETYPE
 70
     6
  9
$SPLINESEGS
 70
     8
  9
$ATTDIA
 70
     1
  9
$ATTREQ
 70
     1
  9
$HANDLING
 70
     1
  9
$HANDSEED
  5
98DB
  9
$SURFTAB1
 70
     6
  9
$SURFTAB2
 70
     6
  9
$SURFTYPE
 70
     6
  9
$SURFU
 70
     6
  9
$SURFV
 70
     6
  9
$UCSNAME
  2

  9
$UCSORG
 10
0.0
 20
0.0
 30
0.0
  9
$UCSXDIR
 10
1.0
 20
0.0
 30
0.0
  9
$UCSYDIR
 10
0.0
 20
1.0
 30
0.0
  9
$PUCSNAME
  2

  9
$PUCSORG
 10
0.0
 20
0.0
 30
0.0
  9
$PUCSXDIR
 10
1.0
 20
0.0
 30
0.0
  9
$PUCSYDIR
 10
0.0
 20
1.0
 30
0.0
  9
$USERI1
 70
     0
  9
$USERI2
 70
     0
  9
$USERI3
 70
     0
  9
$USERI4
 70
     0
  9
$USERI5
 70
     0
  9
$USERR1
 40
0.0
  9
$USERR2
 40
0.0
  9
$USERR3
 40
0.0
  9
$USERR4
 40
0.0
  9
$USERR5
 40
0.0
  9
$WORLDVIEW
 70
     1
  9
$SHADEDGE
 70
     3
  9
$SHADEDIF
 70
    70
  9
$TILEMODE
 70
     1
  9
$MAXACTVP
 70
    64
  9
$PLIMCHECK
 70
     0
  9
$PEXTMIN
 10
1.0000000000000000E+20
 20
1.0000000000000000E+20
 30
1.0000000000000000E+20
  9
$PEXTMAX
 10
-1.0000000000000000E+20
 20
-1.0000000000000000E+20
 30
-1.0000000000000000E+20
  9
$PLIMMIN
 10
0.0
 20
0.0
  9
$PLIMMAX
 10
12.0
 20
9.0
  9
$UNITMODE
 70
     0
  9
$VISRETAIN
 70
     1
  9
$PLINEGEN
 70
     0
  9
$PSLTSCALE
 70
     1
  0
ENDSEC
  0
SECTION
  2
TABLES
  0
TABLE
  2
VPORT
 70
     1
  0
VPORT
  2
*ACTIVE
 70
     0
 10
0.0
 20
0.0
 11
1.0
 21
1.0
 12
0.0000899389983715
 22
0.0008258935113332
 13
0.0
 23
0.0
 14
1.0
 24
1.0
 15
0.0
 25
0.0
 16
0.0
 26
0.0
 36
22.7489032464789602
 17
4244.983642578125
 27
213.5524773347337941
 37
0.0
 40
3.224019348296518
 41
2.0410052910052912
 42
50.0
 43
0.0
 44
0.0
 50
0.0
 51
0.0
 71
     0
 72
   100
 73
     1
 74
     1
 75
     0
 76
     0
 77
     0
 78
     0
  0
ENDTAB
  0
TABLE
  2
LTYPE
 70
     2
  0
LTYPE
  2
CONTINUOUS
 70
     0
  3
Solid line
 72
    65
 73
     0
 40
0.0
  0
LTYPE
  2
PHANTOM2
 70
     0
  3
___ _ _ ___ _ _ ___ _ _ ___ _ _
 72
    65
 73
     6
 40
1.25
 49
0.625
 49
-0.125
 49
0.125
 49
-0.125
 49
0.125
 49
-0.125
  0
ENDTAB
  0
TABLE
  2
LAYER
 70
     2
  0
LAYER
  2
0
 70
     0
 62
   255
  6
CONTINUOUS
  0
LAYER
  2
DEFPOINTS
 70
     0
 62
     7
  6
CONTINUOUS
  0
ENDTAB
  0
TABLE
  2
STYLE
 70
     1
  0
STYLE
  2
STANDARD
 70
     0
 40
0.0
 41
0.8
 50
0.0
 71
     0
 42
0.2
  3
txt
  4

  0
ENDTAB
  0
TABLE
  2
VIEW
 70
     1
  0
ENDTAB
  0
TABLE
  2
UCS
 70
     0
  0
ENDTAB
  0
TABLE
  2
APPID
 70
     9
  0
APPID
  2
ACAD
 70
     0
  0
APPID
  2
ACAD_MLEADERVER
 70
     0
  0
APPID
  2
ACAD_EXEMPT_FROM_CAD_STANDARDS
 70
     0
  0
APPID
  2
ACAD_NAV_VCDISPLAY
 70
     0
  0
APPID
  2
ACAECLAYERSTANDARD
 70
     0
  0
APPID
  2
ACCMTRANSPARENCY
 70
     0
  0
APPID
  2
ACAD_DSTYLE_DIMJAG
 70
     0
  0
APPID
  2
ACAD_DSTYLE_DIMTALN
 70
     0
  0
APPID
  2
ACDBATTR
 70
     0
  0
ENDTAB
  0
TABLE
  2
DIMSTYLE
 70
     1
  0
DIMSTYLE
  2
STANDARD
 70
     0
  3

  4

  5

  6

  7

 40
1.0
 41
0.1875
 42
0.0625
 43
0.38
 44
0.125
 45
0.0
 46
0.0
 47
0.01
 48
0.01
140
0.15625
141
0.09
142
0.0
143
25.3999999999999986
144
1.0
145
0.0
146
1.0
147
0.09
 71
     1
 72
     0
 73
     1
 74
     1
 75
     0
 76
     0
 77
     0
 78
     4
170
     0
171
     2
172
     0
173
     0
174
     0
175
     0
176
     0
177
     0
178
     0
  0
ENDTAB
  0
ENDSEC
  0
SECTION
  2
BLOCKS
  0
BLOCK
  8
0
  2
$MODEL_SPACE
 70
     0
 10
0.0
 20
0.0
 30
0.0
  3
$MODEL_SPACE
  1

  0
ENDBLK
  5
21
  8
0
  0
BLOCK
 67
     1
  8
0
  2
$PAPER_SPACE
 70
     0
 10
0.0
 20
0.0
 30
0.0
  3
$PAPER_SPACE
  1

  0
ENDBLK
  5
1D
 67
     1
  8
0
  0
BLOCK
  8
0
  2
_FILLED
 70
     0
 10
0.0
 20
0.0
 30
0.0
  3
_FILLED
  1

  0
SOLID
  5
6F59
  8
0
  6
BYBLOCK
 62
     0
 10
0.0
 20
0.0
 30
0.0
 11
-1.0
 21
0.1666666667
 31
0.0
 12
-1.0
 22
-0.1666666667
 32
0.0
 13
-1.0
 23
-0.1666666667
 33
0.0
  0
ENDBLK
  5
6F5A
  8
0
  6
BYBLOCK
 62
     0
  0
ENDSEC
  0
SECTION
  2
ENTITIES
  0
ATTDEF
  5
3930
  8
DEFPOINTS
 10
4244.9838973306132175
 20
215.1510890688817028
 30
0.0
 40
0.001
  1
K-72291T-4
  3

  2
MODELNUMBER
 70
     0
1001
ACDBATTR
1070
     0
1070
     1
  0
ATTDEF
  5
3931
  8
DEFPOINTS
 10
4244.9838973306132175
 20
215.1494224022150092
 30
0.0
 40
0.001
  1
ALEO
  3

  2
TRADENAME
 70
     0
1001
ACDBATTR
1070
     0
1070
     1
  0
ATTDEF
  5
3932
  8
DEFPOINTS
 10
4244.9838973306132175
 20
215.1477557355482872
 30
0.0
 40
0.001
  1
VALVE TRIM
  3

  2
PRODUCT
 70
     0
1001
ACDBATTR
1070
     0
1070
     1
  0
LINE
  5
967A
  8
0
 10
4247.2081419659225503
 20
215.1476635061418961
 30
0.0
 11
4242.7593230683232832
 21
215.1476635061418961
 31
0.0
  0
LINE
  5
967B
  8
0
 10
4247.1647149803229695
 20
214.7500456863052989
 30
0.0
 11
4242.802750053922864
 21
214.7500456863052989
 31
0.0
  0
LINE
  5
967C
  8
0
 10
4245.967749222772909
 20
213.2834576079162048
 30
0.0
 11
4245.967749222772909
 21
211.9873643803391872
 31
0.0
  0
LINE
  5
967D
  8
0
 10
4245.9364884226233698
 20
213.4410916571418966
 30
0.0
 11
4244.0309766116233732
 21
213.4410916571418966
 31
0.0
  0
LINE
  5
967E
  8
0
 10
4245.9482994462232455
 20
213.4529026807418859
 30
0.0
 11
4245.9482994462232455
 21
214.6556034409659048
 31
0.0
  0
ARC
  5
967F
  8
0
 10
4245.9356324550608406
 20
213.453758648363106
 30
0.0
 40
0.0126958790832357
 50
273.8658618043114075
 51
356.1341343097910794
  0
ARC
  5
9680
  8
0
 10
4244.9837325171220073
 20
213.4505456193419093
 30
0.0
 40
0.944881889800108
 50
344.4500893317485861
 51
359.4267207598201139
  0
LINE
  5
9681
  8
0
 10
4245.9602387604218166
 20
213.291485357841907
 30
0.0
 11
4245.9151301866950234
 21
213.291485357841907
 31
0.0
  0
ARC
  5
9682
  8
0
 10
4244.9654035630646831
 20
232.553794495534504
 30
0.0
 40
17.9405988562664511
 50
273.1405861382394278
 51
277.0183301186484073
  0
ARC
  5
9683
  8
0
 10
4247.1547448781002458
 20
214.7677683568134057
 30
0.0
 40
0.0203346007648716
 50
277.8132102422960088
 51
4.036372509712665
  0
LINE
  5
9684
  8
0
 10
4247.1750290402387691
 20
214.7691997039381988
 30
0.0
 11
4247.2081419659225503
 21
215.1476635061418961
 31
0.0
  0
ARC
  5
9685
  8
0
 10
4245.9462163655607583
 20
214.8178945689992076
 30
0.0
 40
0.171904859957363
 50
270.6943064405152768
 51
287.7156045967597038
  0
ARC
  5
9686
  8
0
 10
4245.9597284620067512
 20
213.2834808130525914
 30
0.0
 40
0.0080207943344736
 50
359.8342360894765761
 51
86.3522682496852383
  0
ARC
  5
9687
  8
0
 10
4245.945503971407561
 20
211.9895004719039093
 30
0.0
 40
0.022347574710846
 50
283.2453933428249115
 51
354.5150124422763156
  0
ARC
  5
9688
  8
0
 10
4245.9269323428243297
 20
213.2804325375161909
 30
0.0
 40
0.0111297201375234
 50
355.350535465200096
 51
83.2607972240402603
  0
ARC
  5
9689
  8
0
 10
4245.5535629672076539
 20
213.4321865164870928
 30
0.0
 40
0.413660840472223
 50
300.2552751619576838
 51
338.3437623269682035
  0
ARC
  5
968A
  8
0
 10
4245.6344918515696918
 20
213.3099948124144021
 30
0.0
 40
0.3343122771963902
 50
296.2175850153553256
 51
355.4471576455404147
  0
LINE
  5
968B
  8
0
 10
4243.999715811472015
 20
213.2834576079162048
 30
0.0
 11
4243.999715811472015
 21
211.9873643803391872
 31
0.0
  0
LINE
  5
968C
  8
0
 10
4244.0191655880225881
 20
213.4529026807418859
 30
0.0
 11
4244.0191655880225881
 21
214.6556034409659048
 31
0.0
  0
ARC
  5
968D
  8
0
 10
4244.0309766116233732
 20
213.4529026807418859
 30
0.0
 40
0.0118110235999965
 50
179.9999999999917861
 51
270.0000038808556155
  0
ARC
  5
968E
  8
0
 10
4244.9837325171220073
 20
213.4505456193419093
 30
0.0
 40
0.944881889800108
 50
180.5732792401798008
 51
196.3303043202936919
  0
LINE
  5
968F
  8
0
 10
4244.007226273824017
 20
213.291485357841907
 30
0.0
 11
4244.0523348475508101
 21
213.291485357841907
 31
0.0
  0
ARC
  5
9690
  8
0
 10
4245.0020614711820599
 20
232.553794495534504
 30
0.0
 40
17.9405988562664511
 50
262.9816698813517064
 51
266.8594138617605722
  0
ARC
  5
9691
  8
0
 10
4242.8127201561455877
 20
214.7677683568134057
 30
0.0
 40
0.0203346007648716
 50
175.9636274902873083
 51
262.1867897577039912
  0
LINE
  5
9692
  8
0
 10
4242.7924359940070644
 20
214.7691997039381988
 30
0.0
 11
4242.7593230683232832
 21
215.1476635061418961
 31
0.0
  0
ARC
  5
9693
  8
0
 10
4244.0212486686859847
 20
214.8178945689992076
 30
0.0
 40
0.171904859957363
 50
252.2843954032402962
 51
269.3056935594846095
  0
ARC
  5
9694
  8
0
 10
4244.0077365722399918
 20
213.2834808130525914
 30
0.0
 40
0.0080207943344736
 50
93.6477317503147617
 51
180.1657639105233102
  0
ARC
  5
9695
  8
0
 10
4244.0207611419036766
 20
211.9884529838205083
 30
0.0
 40
0.0210734665036145
 50
182.9610770742644945
 51
259.2785171439201122
  0
ARC
  5
9696
  8
0
 10
4244.0405326914233228
 20
213.2804325375161909
 30
0.0
 40
0.0111297201375234
 50
96.7392027759597539
 51
184.6494645347997903
  0
ARC
  5
9697
  8
0
 10
4244.3290400922169283
 20
213.3707002079229937
 30
0.0
 40
0.3131651270476709
 50
196.9252515934880989
 51
241.3459457762785974
  0
ARC
  5
9698
  8
0
 10
4244.3329731826761417
 20
213.3099948124144021
 30
0.0
 40
0.3343122771963902
 50
184.5528423544596137
 51
243.7824149846447028
  0
ARC
  5
9699
  8
0
 10
4244.9934249734278637
 20
214.8175136040395046
 30
0.0
 40
1.9045976620477361
 50
244.6797334330171907
 51
293.7990475387504148
  0
ARC
  5
969A
  8
0
 10
4244.9837325171220073
 20
214.5943509736023032
 30
0.0
 40
1.7741066150603959
 50
243.2525461775663018
 51
296.7474538224337266
  0
ARC
  5
969B
  8
0
 10
4244.9837325171220073
 20
180.6495585528811034
 30
0.0
 40
34.0197219020254877
 50
88.2906387568408064
 51
91.7093612431591936
  0
ARC
  5
969C
  8
0
 10
4244.9837325171220073
 20
243.3660675476288873
 30
0.0
 40
31.4132040414869991
 50
268.236169439298294
 51
271.763830560701706
  0
ENDSEC
  0
EOF
