  0
SECTION
  2
HEADER
  9
$ACADVER
  1
AC1009
  9
$INSBASE
 10
252.9523805717300036
 20
67.4747209197555549
 30
0.0
  9
$EXTMIN
 10
245.8687696537153045
 20
67.4721334983356087
 30
-0.0000000000000058
  9
$EXTMAX
 10
253.9677752737846106
 20
75.7929602316738453
 30
0.0000000000000104
  9
$LIMMIN
 10
0.0
 20
0.0
  9
$LIMMAX
 10
11.6929133858000007
 20
8.2677165353999982
  9
$ORTHOMODE
 70
     0
  9
$REGENMODE
 70
     1
  9
$FILLMODE
 70
     1
  9
$QTEXTMODE
 70
     0
  9
$MIRRTEXT
 70
     0
  9
$DRAGMODE
 70
     2
  9
$LTSCALE
 40
0.6431102362
  9
$OSMODE
 70
  2039
  9
$ATTMODE
 70
     1
  9
$TEXTSIZE
 40
0.2
  9
$TRACEWID
 40
0.05
  9
$TEXTSTYLE
  7
STANDARD
  9
$CLAYER
  8
0
  9
$CELTYPE
  6
BYLAYER
  9
$CECOLOR
 62
   256
  9
$DIMSCALE
 40
1.0
  9
$DIMASZ
 40
0.1875
  9
$DIMEXO
 40
0.0625
  9
$DIMDLI
 40
0.4443307087
  9
$DIMRND
 40
0.0
  9
$DIMDLE
 40
0.0
  9
$DIMEXE
 40
0.125
  9
$DIMTP
 40
0.01
  9
$DIMTM
 40
0.01
  9
$DIMTXT
 40
1.0
  9
$DIMCEN
 40
0.1052362205
  9
$DIMTSZ
 40
0.0
  9
$DIMTOL
 70
     1
  9
$DIMLIM
 70
     0
  9
$DIMTIH
 70
     0
  9
$DIMTOH
 70
     1
  9
$DIMSE1
 70
     0
  9
$DIMSE2
 70
     0
  9
$DIMTAD
 70
     0
  9
$DIMZIN
 70
     0
  9
$DIMBLK
  1

  9
$DIMASO
 70
     1
  9
$DIMSHO
 70
     1
  9
$DIMPOST
  1
\X
  9
$DIMAPOST
  1

  9
$DIMALT
 70
     1
  9
$DIMALTD
 70
     2
  9
$DIMALTF
 40
25.3999999999999986
  9
$DIMLFAC
 40
1.0
  9
$DIMTOFL
 70
     0
  9
$DIMTVP
 40
0.0
  9
$DIMTIX
 70
     0
  9
$DIMSOXD
 70
     0
  9
$DIMSAH
 70
     0
  9
$DIMBLK1
  1

  9
$DIMBLK2
  1

  9
$DIMSTYLE
  2
STANDARD
  9
$DIMCLRD
 70
     0
  9
$DIMCLRE
 70
     0
  9
$DIMCLRT
 70
     0
  9
$DIMTFAC
 40
1.0
  9
$DIMGAP
 40
0.09
  9
$LUNITS
 70
     2
  9
$LUPREC
 70
     4
  9
$SKETCHINC
 40
0.1
  9
$FILLETRAD
 40
0.0
  9
$AUNITS
 70
     0
  9
$AUPREC
 70
     0
  9
$MENU
  1
.
  9
$ELEVATION
 40
0.0
  9
$PELEVATION
 40
0.0
  9
$THICKNESS
 40
0.0
  9
$LIMCHECK
 70
     0
  9
$BLIPMODE
 70
     0
  9
$CHAMFERA
 40
0.0
  9
$CHAMFERB
 40
0.0
  9
$SKPOLY
 70
     0
  9
$TDCREATE
 40
2458172.5207638889551163
  9
$TDUPDATE
 40
2459152.3777777780778706
  9
$TDINDWG
 40
0.2897194213
  9
$TDUSRTIMER
 40
0.2897194213
  9
$USRTIMER
 70
     1
  9
$ANGBASE
 50
0.0
  9
$ANGDIR
 70
     0
  9
$PDMODE
 70
     0
  9
$PDSIZE
 40
0.3125
  9
$PLINEWID
 40
0.0
  9
$COORDS
 70
     1
  9
$SPLFRAME
 70
     0
  9
$SPLINETYPE
 70
     6
  9
$SPLINESEGS
 70
     8
  9
$ATTDIA
 70
     1
  9
$ATTREQ
 70
     1
  9
$HANDLING
 70
     1
  9
$HANDSEED
  5
202D0
  9
$SURFTAB1
 70
     6
  9
$SURFTAB2
 70
     6
  9
$SURFTYPE
 70
     6
  9
$SURFU
 70
     6
  9
$SURFV
 70
     6
  9
$UCSNAME
  2

  9
$UCSORG
 10
0.0
 20
0.0
 30
0.0
  9
$UCSXDIR
 10
1.0
 20
0.0
 30
0.0
  9
$UCSYDIR
 10
0.0
 20
1.0
 30
0.0
  9
$PUCSNAME
  2

  9
$PUCSORG
 10
0.0
 20
0.0
 30
0.0
  9
$PUCSXDIR
 10
1.0
 20
0.0
 30
0.0
  9
$PUCSYDIR
 10
0.0
 20
1.0
 30
0.0
  9
$USERI1
 70
     0
  9
$USERI2
 70
     0
  9
$USERI3
 70
     0
  9
$USERI4
 70
     0
  9
$USERI5
 70
     0
  9
$USERR1
 40
0.0
  9
$USERR2
 40
0.0
  9
$USERR3
 40
0.0
  9
$USERR4
 40
0.0
  9
$USERR5
 40
0.0
  9
$WORLDVIEW
 70
     1
  9
$SHADEDGE
 70
     3
  9
$SHADEDIF
 70
    70
  9
$TILEMODE
 70
     1
  9
$MAXACTVP
 70
    64
  9
$PLIMCHECK
 70
     0
  9
$PEXTMIN
 10
1.0000000000000000E+20
 20
1.0000000000000000E+20
 30
1.0000000000000000E+20
  9
$PEXTMAX
 10
-1.0000000000000000E+20
 20
-1.0000000000000000E+20
 30
-1.0000000000000000E+20
  9
$PLIMMIN
 10
0.0
 20
0.0
  9
$PLIMMAX
 10
12.0
 20
9.0
  9
$UNITMODE
 70
     0
  9
$VISRETAIN
 70
     1
  9
$PLINEGEN
 70
     0
  9
$PSLTSCALE
 70
     1
  0
ENDSEC
  0
SECTION
  2
TABLES
  0
TABLE
  2
VPORT
 70
     1
  0
VPORT
  2
*ACTIVE
 70
     0
 10
0.0
 20
0.0
 11
1.0
 21
1.0
 12
-179.7110166443038111
 22
1.930005352786039
 13
0.0
 23
0.0
 14
1.0
 24
1.0
 15
0.0
 25
0.0
 16
0.0
 26
0.0
 36
14.6338572656650907
 17
429.6292891080536833
 27
69.7025415122186871
 37
0.0
 40
8.3928685232372686
 41
2.7557803468208091
 42
50.0
 43
0.0
 44
0.0
 50
0.0
 51
0.0
 71
     0
 72
   100
 73
     1
 74
     1
 75
     0
 76
     0
 77
     0
 78
     0
  0
ENDTAB
  0
TABLE
  2
LTYPE
 70
     2
  0
LTYPE
  2
CONTINUOUS
 70
     0
  3
Solid line
 72
    65
 73
     0
 40
0.0
  0
LTYPE
  2
PHANTOM2
 70
     0
  3
___ _ _ ___ _ _ ___ _ _ ___ _ _
 72
    65
 73
     6
 40
1.25
 49
0.625
 49
-0.125
 49
0.125
 49
-0.125
 49
0.125
 49
-0.125
  0
ENDTAB
  0
TABLE
  2
LAYER
 70
     2
  0
LAYER
  2
0
 70
     0
 62
   255
  6
CONTINUOUS
  0
LAYER
  2
DEFPOINTS
 70
     0
 62
     7
  6
CONTINUOUS
  0
ENDTAB
  0
TABLE
  2
STYLE
 70
     1
  0
STYLE
  2
STANDARD
 70
     0
 40
0.0
 41
0.8
 50
0.0
 71
     0
 42
0.2
  3
txt
  4

  0
ENDTAB
  0
TABLE
  2
VIEW
 70
     0
  0
ENDTAB
  0
TABLE
  2
UCS
 70
     0
  0
ENDTAB
  0
TABLE
  2
APPID
 70
    10
  0
APPID
  2
ACAD
 70
     0
  0
APPID
  2
ACAD_MLEADERVER
 70
     0
  0
APPID
  2
ACAD_EXEMPT_FROM_CAD_STANDARDS
 70
     0
  0
APPID
  2
ACAD_DSTYLE_DIMJAG
 70
     0
  0
APPID
  2
ACAD_DSTYLE_DIMTALN
 70
     0
  0
APPID
  2
ACAD_NAV_VCDISPLAY
 70
     0
  0
APPID
  2
ACAECLAYERSTANDARD
 70
     0
  0
APPID
  2
ACCMTRANSPARENCY
 70
     0
  0
APPID
  2
DCO15
 70
     0
  0
APPID
  2
ACDBATTR
 70
     0
  0
ENDTAB
  0
TABLE
  2
DIMSTYLE
 70
     1
  0
DIMSTYLE
  2
STANDARD
 70
     0
  3

  4

  5

  6

  7

 40
1.0
 41
0.1875
 42
0.0625
 43
0.38
 44
0.125
 45
0.0
 46
0.0
 47
0.01
 48
0.01
140
0.15625
141
0.09
142
0.0
143
25.3999999999999986
144
1.0
145
0.0
146
1.0
147
0.09
 71
     1
 72
     0
 73
     1
 74
     1
 75
     0
 76
     0
 77
     0
 78
     4
170
     0
171
     2
172
     0
173
     0
174
     0
175
     0
176
     0
177
     0
178
     0
  0
ENDTAB
  0
ENDSEC
  0
SECTION
  2
BLOCKS
  0
BLOCK
  8
0
  2
$MODEL_SPACE
 70
     0
 10
0.0
 20
0.0
 30
0.0
  3
$MODEL_SPACE
  1

  0
ENDBLK
  5
21
  8
0
  0
BLOCK
 67
     1
  8
0
  2
$PAPER_SPACE
 70
     0
 10
0.0
 20
0.0
 30
0.0
  3
$PAPER_SPACE
  1

  0
ENDBLK
  5
1D
 67
     1
  8
0
  0
BLOCK
  8
0
  2
_FILLED
 70
     0
 10
0.0
 20
0.0
 30
0.0
  3
_FILLED
  1

  0
SOLID
  5
87E2
  8
0
  6
BYBLOCK
 62
     0
 10
0.0
 20
0.0
 30
0.0
 11
-1.0
 21
0.1666666667
 31
0.0
 12
-1.0
 22
-0.1666666667
 32
0.0
 13
-1.0
 23
-0.1666666667
 33
0.0
  0
ENDBLK
  5
87E3
  8
0
  6
BYBLOCK
 62
     0
  0
ENDSEC
  0
SECTION
  2
ENTITIES
  0
ATTDEF
  5
1A71E
  8
DEFPOINTS
 10
252.9526303855354001
 20
67.4783813254708207
 30
0.0
 40
0.001
  1
K-72292IN-4
  3

  2
MODELNUMBER
 70
     0
1001
ACDBATTR
1070
     0
1070
     1
  0
ATTDEF
  5
1A71F
  8
DEFPOINTS
 10
252.9526303855354001
 20
67.4767146588041555
 30
0.0
 40
0.001
  1
ALEO
  3

  2
TRADENAME
 70
     0
1001
ACDBATTR
1070
     0
1070
     1
  0
ATTDEF
  5
1A720
  8
DEFPOINTS
 10
252.9526303855354001
 20
67.4750479921374904
 30
0.0
 40
0.001
  1
BATH AND SHOWER FAUCET
  3

  2
PRODUCT
 70
     0
1001
ACDBATTR
1070
     0
1070
     1
  0
LINE
  5
1FCC4
  8
0
 10
245.9406509872800086
 20
75.1328688765055546
 30
0.0
 11
246.5916344180799911
 21
75.7839067201555565
 31
0.0
  0
ARC
  5
1FCC5
  8
0
 10
246.6001271594267905
 20
75.7750579966901938
 30
0.0
 40
0.0122648506941774
 50
46.2252865364975989
 51
133.8240088719610981
  0
LINE
  5
1FCC6
  8
0
 10
246.6086122844799888
 20
75.7839140237555569
 30
0.0
 11
246.6561548208086947
 21
75.7363494463817801
 31
0.0
  0
ARC
  5
1FCC7
  8
0
 10
252.6953874567682021
 20
69.6660261530798834
 30
0.0
 40
0.0200000002117494
 50
315.0015863093468056
 51
45.0013273495892534
  0
LINE
  5
1FCC8
  8
0
 10
252.7095299840800067
 20
69.6518844088555511
 30
0.0
 11
252.0731507178124104
 21
69.0154699036109633
 31
0.0
  0
ARC
  5
1FCC9
  8
0
 10
252.0590089614659917
 20
69.0296108769126846
 30
0.0
 40
0.0199989099323507
 50
224.9254889673132993
 51
315.0015863093451003
  0
LINE
  5
1FCCA
  8
0
 10
245.9880621893375121
 20
75.0694682740914061
 30
0.0
 11
245.9411084793601106
 21
75.1164002260754131
 31
0.0
  0
ARC
  5
1FCCB
  8
0
 10
245.9496371096024916
 20
75.1248778344126436
 30
0.0
 40
0.0120252712288053
 50
138.3544318998083043
 51
224.8427031008058066
  0
ARC
  5
1FCCC
  8
0
 10
245.9962633399889
 20
75.0782758570054938
 30
0.0
 40
0.0120346328899324
 50
227.0419684408990975
 51
314.7982511961316732
  0
LINE
  5
1FCCD
  8
0
 10
246.0047430933800001
 20
75.0697361748555494
 30
0.0
 11
246.6538672287215945
 21
75.7188603100971704
 31
0.0
  0
ARC
  5
1FCCE
  8
0
 10
246.645151030388007
 20
75.7288942687862345
 30
0.0
 40
0.0132914663075489
 50
310.9553928610661728
 51
34.1180311206027227
  0
ARC
  5
1FCCF
  8
0
 10
246.6623522849390042
 20
75.7066422950387192
 30
0.0
 40
0.0148753511212531
 50
55.2198989520785233
 51
124.7788549407341065
  0
LINE
  5
1FCD0
  8
0
 10
246.6708376068800135
 20
75.7188601255555511
 30
0.0
 11
249.2560200732800126
 21
73.1336778079555501
 31
0.0
  0
LINE
  5
1FCD1
  8
0
 10
249.2998606519464033
 20
73.0898371458220169
 30
0.0
 11
252.6586179043800087
 21
69.731079976855554
 31
0.0
  0
LINE
  5
1FCD2
  8
0
 10
252.6586179043800087
 20
69.731079976855554
 30
0.0
 11
251.9939375300799895
 21
69.0663996025555491
 31
0.0
  0
LINE
  5
1FCD3
  8
0
 10
251.9939375300799895
 20
69.0663996025555491
 30
0.0
 11
248.6351803193799981
 21
72.425156813155553
 31
0.0
  0
LINE
  5
1FCD4
  8
0
 10
248.6351803193799981
 20
72.425156813155553
 30
0.0
 11
249.2998606437375031
 21
73.0898371540308744
 31
0.0
  0
LINE
  5
1FCD5
  8
0
 10
249.2927896177089906
 20
73.0827661278265452
 30
0.0
 11
249.2645053546299891
 21
73.1110503909055609
 31
0.0
  0
LINE
  5
1FCD6
  8
0
 10
249.2645053546299891
 20
73.1110503909055609
 30
0.0
 11
248.6139671159799889
 21
72.460512152255518
 31
0.0
  0
LINE
  5
1FCD7
  8
0
 10
248.6139671159799889
 20
72.460512152255518
 30
0.0
 11
248.6422513874935873
 21
72.4322278814448453
 31
0.0
  0
ARC
  5
1FCD8
  8
0
 10
248.5998249803299984
 20
72.4774830851680889
 30
0.0
 40
0.012000261713008
 50
225.0012497103643909
 51
314.9987502896470914
  0
LINE
  5
1FCD9
  8
0
 10
248.6083102616800034
 20
72.4689974336555593
 30
0.0
 11
249.2560200732800126
 21
73.1167072451555526
 31
0.0
  0
ARC
  5
1FCDA
  8
0
 10
249.2475832069850981
 20
73.1251925265555514
 30
0.0
 40
0.0119658143607172
 50
314.8360743761239746
 51
45.1639256238811129
  0
LINE
  5
1FCDB
  8
0
 10
248.5913396989799935
 20
72.4689974336555593
 30
0.0
 11
248.2087163247161925
 21
72.851620829942604
 31
0.0
  0
LINE
  5
1FCDC
  8
0
 10
246.3468860274842882
 20
74.7134512343392885
 30
0.0
 11
246.0061573813800067
 21
75.0541799000555585
 31
0.0
  0
ARC
  5
1FCDD
  8
0
 10
246.0149537055633004
 20
75.0628220387144012
 30
0.0
 40
0.0123313373052874
 50
145.8960295109143885
 51
224.4934215417922871
  0
LINE
  5
1FCDE
  8
0
 10
248.6616968236841103
 20
72.522383995651424
 30
0.0
 11
248.665232357568101
 21
72.5188484617555531
 31
0.0
  0
ARC
  5
1FCDF
  8
0
 10
248.6687741075703002
 20
72.5223902117458152
 30
0.0
 40
0.0050087908791754
 50
224.9999999038574003
 51
311.604925299884826
  0
LINE
  5
1FCE0
  8
0
 10
249.2026335113258142
 20
73.0633206832096818
 30
0.0
 11
249.2061690452300127
 21
73.0597851492174186
 31
0.0
  0
ARC
  5
1FCE1
  8
0
 10
249.2026254477432019
 20
73.0562415518189425
 30
0.0
 40
0.005011403562987
 50
318.8659903863336922
 51
44.9999992858359334
  0
LINE
  5
1FCE2
  8
0
 10
252.0448492182563029
 20
69.0154879143318283
 30
0.0
 11
252.0094938792562971
 21
69.0508432533318199
 31
0.0
  0
ARC
  5
1FCE3
  8
0
 10
252.0236360148799974
 20
69.0649853889555629
 30
0.0
 40
0.0200000000000002
 50
135.0000000000069065
 51
225.0000010928386871
  0
LINE
  5
1FCE4
  8
0
 10
252.0094938792562971
 20
69.0791275245792917
 30
0.0
 11
252.645889982306187
 21
69.7155236276293664
 31
0.0
  0
ARC
  5
1FCE5
  8
0
 10
252.6600321179298874
 20
69.7013814920056376
 30
0.0
 40
0.0199999999999968
 50
45.0000002022558192
 51
135.0000000000005969
  0
LINE
  5
1FCE6
  8
0
 10
252.6741742535037076
 20
69.7155236276792891
 30
0.0
 11
252.7095292649349858
 21
69.6801686164976246
 31
0.0
  0
LINE
  5
1FCE7
  8
0
 10
252.5631584888799921
 20
69.6356205614555535
 30
0.0
 11
252.5645727025062115
 21
69.634206347829334
 31
0.0
  0
LINE
  5
1FCE8
  8
0
 10
252.0893969455300123
 20
69.1618590180055577
 30
0.0
 11
252.0908111591062095
 21
69.1604448044292894
 31
0.0
  0
ARC
  5
1FCE9
  8
0
 10
252.136773099856498
 20
69.050843253391335
 30
0.0
 40
0.019999999957738
 50
44.9999998799917904
 51
132.2547311559731895
  0
LINE
  5
1FCEA
  8
0
 10
252.1509152354799994
 20
69.0649853889555345
 30
0.0
 11
252.1898061083485061
 21
69.0260945159241004
 31
0.0
  0
LINE
  5
1FCEB
  8
0
 10
252.1898061083485061
 20
69.0260945159241004
 30
0.0
 11
252.1898061084800133
 21
68.999090831947413
 31
0.0
  0
LINE
  5
1FCEC
  8
0
 10
252.1933973200800096
 20
68.8913266448555532
 30
0.0
 11
252.1377223926799047
 21
68.9470071161555609
 31
0.0
  0
LINE
  5
1FCED
  8
0
 10
252.1377223926799047
 20
68.9470071161555609
 30
0.0
 11
252.7780103907799969
 21
69.5872951141555518
 31
0.0
  0
LINE
  5
1FCEE
  8
0
 10
252.7780103907799969
 20
69.5872951141555518
 30
0.0
 11
252.8336908620800045
 21
69.5316201868555481
 31
0.0
  0
LINE
  5
1FCEF
  8
0
 10
252.8336908620800045
 20
69.5316201868555481
 30
0.0
 11
252.1933654442420902
 21
68.8913585238674813
 31
0.0
  0
LINE
  5
1FCF0
  8
0
 10
252.1933654442420902
 20
68.8913585238674813
 30
0.0
 11
252.1845727582800123
 21
68.8583929305055591
 31
0.0
  0
LINE
  5
1FCF1
  8
0
 10
252.1845727582800123
 20
68.8583929305055591
 30
0.0
 11
252.3553355548799004
 21
68.687630135555537
 31
0.0
  0
LINE
  5
1FCF2
  8
0
 10
252.3553355548799004
 20
68.687630135555537
 30
0.0
 11
252.3882692675800001
 21
68.696454697255561
 31
0.0
  0
LINE
  5
1FCF3
  8
0
 10
252.3882692675800001
 20
68.696454697255561
 30
0.0
 11
252.4439469668755862
 21
68.6407769963575305
 31
0.0
  0
LINE
  5
1FCF4
  8
0
 10
252.4439469668755862
 20
68.6407769963575305
 30
0.0
 11
252.4996246661800114
 21
68.640776996361879
 31
0.0
  0
LINE
  5
1FCF5
  8
0
 10
252.4996246661800114
 20
68.640776996361879
 30
0.0
 11
253.0842403471800139
 21
69.2253926789555436
 31
0.0
  0
LINE
  5
1FCF6
  8
0
 10
253.0842403471800139
 20
69.2253926789555436
 30
0.0
 11
253.0842405089800025
 21
69.2810705399555502
 31
0.0
  0
LINE
  5
1FCF7
  8
0
 10
253.0842405089800025
 20
69.2810705399555502
 30
0.0
 11
253.028562809579995
 21
69.3367482393555576
 31
0.0
  0
LINE
  5
1FCF8
  8
0
 10
253.028562809579995
 20
69.3367482393555576
 30
0.0
 11
253.0373873713799071
 21
69.3696819520555437
 31
0.0
  0
LINE
  5
1FCF9
  8
0
 10
253.0373873713799071
 20
69.3696819520555437
 30
0.0
 11
252.8666245747799906
 21
69.5404447486555597
 31
0.0
  0
LINE
  5
1FCFA
  8
0
 10
252.8666245747799906
 20
69.5404447486555597
 30
0.0
 11
252.8336908620800045
 21
69.5316201868555481
 31
0.0
  0
LINE
  5
1FCFB
  8
0
 10
252.7259266750718041
 20
69.5352113984555444
 30
0.0
 11
252.7209179426799892
 21
69.5352113984555444
 31
0.0
  0
ARC
  5
1FCFC
  8
0
 10
252.7240785228966047
 20
69.5131563567481265
 30
0.0
 40
0.0222803530497688
 50
98.1552032562602506
 51
107.861641367949403
  0
LINE
  5
1FCFD
  8
0
 10
252.7172447047881008
 20
69.5343627959136512
 30
0.0
 11
252.7082039428800044
 21
69.5315193706555448
 31
0.0
  0
ARC
  5
1FCFE
  8
0
 10
252.6742219145951083
 20
69.5882583124312362
 30
0.0
 40
0.0200435482245591
 50
137.662796031228396
 51
224.9317693557563018
  0
LINE
  5
1FCFF
  8
0
 10
252.6600321179562059
 20
69.5741022714318262
 30
0.0
 11
252.6989229633039997
 21
69.5352114260315517
 31
0.0
  0
LINE
  5
1FD00
  8
0
 10
252.6989229908799075
 20
69.5352113984555444
 30
0.0
 11
252.704511914980003
 21
69.5352113984555444
 31
0.0
  0
LINE
  5
1FD01
  8
0
 10
252.704511914980003
 20
69.5352113984555444
 30
0.0
 11
252.7082039428800044
 21
69.5315193706555448
 31
0.0
  0
ARC
  5
1FD02
  8
0
 10
252.6412972369566887
 20
69.4646126629201035
 30
0.0
 40
0.094620372211792
 50
44.7939863042011979
 51
45.0000007759244767
  0
ARC
  5
1FD03
  8
0
 10
252.7080468406747116
 20
69.5309297356938885
 30
0.0
 40
0.0005285301345814
 50
353.8917281114323146
 51
41.2712032222345329
  0
ARC
  5
1FD04
  8
0
 10
252.6856717252464932
 20
69.539766516527024
 30
0.0
 40
0.0245667529205914
 50
320.5230733858599024
 51
338.7772867224579159
  0
ARC
  5
1FD05
  8
0
 10
251.3053925670020021
 20
70.679173419465215
 30
0.0
 40
1.8143764058392129
 50
316.905979079250983
 51
320.4615063219803233
  0
LINE
  5
1FD06
  8
0
 10
252.1898061083485061
 20
69.0260945161870154
 30
0.0
 11
252.6989229633039997
 21
69.5352114260315517
 31
0.0
  0
LINE
  5
1FD07
  8
0
 10
252.8666245747799906
 20
69.5404447486555597
 30
0.0
 11
252.8616006373800076
 21
69.5354208111555607
 31
0.0
  0
ARC
  5
1FD08
  8
0
 10
252.9399746998350054
 20
69.3395532802338863
 30
0.0
 40
0.2109658345207821
 50
111.8082305195922004
 51
158.1917694316429106
  0
LINE
  5
1FD09
  8
0
 10
252.7441071689800083
 20
69.417927342855549
 30
0.0
 11
252.6430921348799927
 21
69.3169123087555619
 31
0.0
  0
ARC
  5
1FD0A
  8
0
 10
253.0924138013726861
 20
68.6326037057540219
 30
0.0
 40
0.8186380299752244
 50
123.2891739996580043
 51
146.7108260247239002
  0
LINE
  5
1FD0B
  8
0
 10
252.4081051981800101
 20
69.0819253719555491
 30
0.0
 11
252.3070901641299884
 21
68.9809103379055557
 31
0.0
  0
ARC
  5
1FD0C
  8
0
 10
252.3854642263590051
 20
68.7850428073265618
 30
0.0
 40
0.2109658341186704
 50
111.8082304971867984
 51
158.1917695028157027
  0
LINE
  5
1FD0D
  8
0
 10
252.1895966957800113
 20
68.8634168695555502
 30
0.0
 11
252.1845727583300061
 21
68.8583929304555511
 31
0.0
  0
LINE
  5
1FD0E
  8
0
 10
252.3553355548800141
 20
68.6876301355555512
 30
0.0
 11
252.3603594922815034
 21
68.6926540729540847
 31
0.0
  0
ARC
  5
1FD0F
  8
0
 10
252.2819854306862908
 20
68.8885216030261063
 30
0.0
 40
0.2109658333678116
 50
291.8082303833153901
 51
338.1917695845709204
  0
LINE
  5
1FD10
  8
0
 10
252.4778529606799964
 20
68.8101475413555619
 30
0.0
 11
252.5788679947800119
 21
68.9111625754555348
 31
0.0
  0
ARC
  5
1FD11
  8
0
 10
252.1294870977866083
 20
69.5955304091489211
 30
0.0
 40
0.8187200512853584
 50
303.2903638209368751
 51
326.7096361790635228
  0
LINE
  5
1FD12
  8
0
 10
252.8138549314799945
 20
69.1461495121555743
 30
0.0
 11
252.9148699655800101
 21
69.2471645462555614
 31
0.0
  0
ARC
  5
1FD13
  8
0
 10
252.8363078715017025
 20
69.4432201087338399
 30
0.0
 40
0.2112102890596022
 50
291.8366384878549979
 51
338.1633615121435241
  0
LINE
  5
1FD14
  8
0
 10
253.0323634339800094
 20
69.3646580146555607
 30
0.0
 11
253.0373873713799071
 21
69.3696819520555437
 31
0.0
  0
LINE
  5
1FD15
  8
0
 10
253.0323634339800094
 20
69.3646580146555465
 30
0.0
 11
252.8616006373800076
 21
69.5354208111555607
 31
0.0
  0
LINE
  5
1FD16
  8
0
 10
252.7441071689800083
 20
69.417927342855549
 30
0.0
 11
252.9148699655800101
 21
69.2471645462555614
 31
0.0
  0
LINE
  5
1FD17
  8
0
 10
252.8138549314799945
 20
69.14614951215556
 30
0.0
 11
252.6430921348799927
 21
69.3169123087555619
 31
0.0
  0
LINE
  5
1FD18
  8
0
 10
252.4081051981800101
 20
69.0819253719555633
 30
0.0
 11
252.5788679947299897
 21
68.9111625754055552
 31
0.0
  0
LINE
  5
1FD19
  8
0
 10
252.4778529606799964
 20
68.8101475413555619
 30
0.0
 11
252.3070901641299884
 21
68.9809103379055557
 31
0.0
  0
LINE
  5
1FD1A
  8
0
 10
252.1895966957800113
 20
68.8634168695555502
 30
0.0
 11
252.3603594922469995
 21
68.6926540729884749
 31
0.0
  0
LINE
  5
1FD1B
  8
0
 10
252.3882692675800001
 20
68.696454697255561
 30
0.0
 11
253.0285628096299888
 21
69.3367482393055639
 31
0.0
  0
LINE
  5
1FD1C
  8
0
 10
253.0842405089800025
 20
69.2810705399555502
 30
0.0
 11
252.4439469668712945
 21
68.640776996361879
 31
0.0
  0
LINE
  5
1FD1D
  8
0
 10
252.5692217903799985
 20
68.7103741221555566
 30
0.0
 11
252.5970606399876033
 21
68.6825352724479501
 31
0.0
  0
LINE
  5
1FD1E
  8
0
 10
252.4996246661800114
 20
68.5850992986555354
 30
0.0
 11
253.1399182082799939
 21
69.2253928406555588
 31
0.0
  0
ARC
  5
1FD1F
  8
0
 10
252.9523805717988978
 20
68.8133035968611324
 30
0.0
 40
0.452755905481034
 50
359.9999999992949142
 51
65.5301994812060542
  0
LINE
  5
1FD20
  8
0
 10
253.0424822345223959
 20
69.1279568669131663
 30
0.0
 11
253.0146433847799869
 21
69.155795716555545
 31
0.0
  0
LINE
  5
1FD21
  8
0
 10
253.4051364772799957
 20
68.8133035968555618
 30
0.0
 11
253.4051364772799957
 21
68.458972888255559
 31
0.0
  0
LINE
  5
1FD22
  8
0
 10
253.4051364772799957
 20
68.458972888255559
 30
0.0
 11
252.4996246661800114
 21
68.458972888255559
 31
0.0
  0
LINE
  5
1FD23
  8
0
 10
252.4996246661800114
 20
68.458972888255559
 30
0.0
 11
252.4996246661800114
 21
68.5850992986555354
 31
0.0
  0
LINE
  5
1FD24
  8
0
 10
252.4996246661800114
 20
68.4196028094555544
 30
0.0
 11
253.4051364772799957
 21
68.4196028094555544
 31
0.0
  0
LINE
  5
1FD25
  8
0
 10
253.4051364772799957
 20
68.4196028094555544
 30
0.0
 11
253.3865667917112035
 21
68.0652721014506028
 31
0.0
  0
LINE
  5
1FD26
  8
0
 10
253.4996246661800114
 20
68.0652721014506028
 30
0.0
 11
252.4051364772799957
 21
68.0652721014506028
 31
0.0
  0
ARC
  5
1FD27
  8
0
 10
252.4051364784664884
 20
68.0259020214640913
 30
0.0
 40
0.0393700799865044
 50
90.0000017267238377
 51
179.9999991392353991
  0
LINE
  5
1FD28
  8
0
 10
252.365766398479991
 20
68.0259020220555612
 30
0.0
 11
252.3657663983844088
 21
67.9471618645555537
 31
0.0
  0
LINE
  5
1FD29
  8
0
 10
251.9484435638800051
 20
67.9353508409555502
 30
0.0
 11
251.9484435638800051
 21
67.4747209197555549
 31
0.0
  0
LINE
  5
1FD2A
  8
0
 10
251.9484435638800051
 20
67.4747209197555549
 30
0.0
 11
253.9563175795800021
 21
67.4747209197555549
 31
0.0
  0
LINE
  5
1FD2B
  8
0
 10
253.9563175795800021
 20
67.4747209197555549
 30
0.0
 11
253.9563175795800021
 21
67.9353508409555502
 31
0.0
  0
ARC
  5
1FD2C
  8
0
 10
253.9445065559800128
 20
67.9353508409555502
 30
0.0
 40
0.0118110235999964
 50
0.0000000000162844
 51
89.9999916615134339
  0
LINE
  5
1FD2D
  8
0
 10
253.9445065576989009
 20
67.9471618645555537
 30
0.0
 11
251.9602651805799951
 21
67.9471618645555537
 31
0.0
  0
ARC
  5
1FD2E
  8
0
 10
251.9602561384807871
 20
67.935349293314033
 30
0.0
 40
0.0118125747022154
 50
89.9561421464865845
 51
179.9924933107743072
  0
LINE
  5
1FD2F
  8
0
 10
252.5181943517488037
 20
68.0652721014506028
 30
0.0
 11
252.4996246661800114
 21
68.4196028094555544
 31
0.0
  0
LINE
  5
1FD30
  8
0
 10
253.3648805717799064
 20
68.458972888255559
 30
0.0
 11
253.3648805717799064
 21
68.4196028094555544
 31
0.0
  0
LINE
  5
1FD31
  8
0
 10
252.539880571780003
 20
68.458972888255559
 30
0.0
 11
252.539880571780003
 21
68.4196028094555544
 31
0.0
  0
ARC
  5
1FD32
  8
0
 10
253.4996246649228056
 20
68.025902021393378
 30
0.0
 40
0.0393700800572248
 50
0.0000009636781458
 51
89.9999981703454637
  0
LINE
  5
1FD33
  8
0
 10
253.5389947449799877
 20
68.0259020220555612
 30
0.0
 11
253.5389947451430999
 21
67.9471618645555537
 31
0.0
  0
LINE
  5
1FD34
  8
0
 10
253.9366328210799963
 20
67.9471618645555537
 30
0.0
 11
253.9366317773800006
 21
73.329051604155552
 31
0.0
  0
ARC
  5
1FD35
  8
0
 10
253.9048929553611913
 20
73.3289510281608585
 30
0.0
 40
0.0317389813741411
 50
0.181561896787845
 51
89.5603855169930227
  0
LINE
  5
1FD36
  8
0
 10
253.9051364772944055
 20
73.3606890752925835
 30
0.0
 11
249.0290087928765104
 21
73.3606890752925835
 31
0.0
  0
LINE
  5
1FD37
  8
0
 10
247.6986345168270134
 20
73.3606890752925835
 30
0.0
 11
247.6670340827465964
 21
73.3606890752925835
 31
0.0
  0
LINE
  5
1FD38
  8
0
 10
247.6482514736215137
 20
73.3606890752925835
 30
0.0
 11
245.902550608380011
 21
73.3606890752925835
 31
0.0
  0
ARC
  5
1FD39
  8
0
 10
245.9027506672111087
 20
73.3290111517217014
 30
0.0
 40
0.0316785552905909
 50
90.361841086766205
 51
194.5087857882087974
  0
ARC
  5
1FD3A
  8
0
 10
246.8528680239431026
 20
73.5866303556122432
 30
0.0
 40
1.0161005246471071
 50
195.1500477532260049
 51
228.099319543435513
  0
LINE
  5
1FD3B
  8
0
 10
246.1742740320800067
 20
72.8303430620555616
 30
0.0
 11
246.9969919011799959
 21
72.6252164588555615
 31
0.0
  0
LINE
  5
1FD3C
  8
0
 10
246.9969919011799959
 20
72.6252164588555615
 30
0.0
 11
246.9989217229799863
 21
72.6263760128555589
 31
0.0
  0
ARC
  5
1FD3D
  8
0
 10
247.3137500548745038
 20
73.715350460296861
 30
0.0
 40
1.1335705649599159
 50
253.8751357815862946
 51
260.5435848262565059
  0
ARC
  5
1FD3E
  8
0
 10
243.9587897891159116
 20
61.7864721860100872
 30
0.0
 40
11.2581489220279405
 50
74.3334512208633242
 51
76.1455636403265146
  0
ARC
  5
1FD3F
  8
0
 10
264.5479664492497136
 20
151.5872354498399091
 30
0.0
 40
80.874418800745687
 50
256.984727312749385
 51
257.2176250725433988
  0
LINE
  5
1FD40
  8
0
 10
246.3093807564648898
 20
72.7966571722949851
 30
0.0
 11
246.3038014429818077
 21
72.7742797677550897
 31
0.0
  0
ARC
  5
1FD41
  8
0
 10
246.3420020625881079
 20
72.764755283731489
 30
0.0
 40
0.0393700791746369
 50
166.0000002403317012
 51
210.9999998344200094
  0
LINE
  5
1FD42
  8
0
 10
246.3082553180348953
 20
72.7444781940418608
 30
0.0
 11
246.3141959112496977
 21
72.7345913865768097
 31
0.0
  0
LINE
  5
1FD43
  8
0
 10
246.3141959112496977
 20
72.7345913865768097
 30
0.0
 11
246.9636006797800007
 21
72.5726779311575143
 31
0.0
  0
LINE
  5
1FD44
  8
0
 10
246.9636006797800007
 20
72.5726779311575143
 30
0.0
 11
246.9734890579800037
 21
72.5786167942555522
 31
0.0
  0
ARC
  5
1FD45
  8
0
 10
246.9532338252440127
 20
72.6123473652226039
 30
0.0
 40
0.0393449599180296
 50
300.9848475593944954
 51
346.0151522853661277
  0
LINE
  5
1FD46
  8
0
 10
246.9914125875799868
 20
72.6028390542555542
 30
0.0
 11
246.9969919011799959
 21
72.6252164588555615
 31
0.0
  0
ARC
  5
1FD47
  8
0
 10
247.6428806404065881
 20
70.6869463382682
 30
0.0
 40
1.978539344216564
 50
90.3378347232397942
 51
105.0986424626278932
  0
LINE
  5
1FD48
  8
0
 10
247.6312145905799866
 20
72.6654512889555519
 30
0.0
 11
248.385232084379993
 21
72.6751050481555581
 31
0.0
  0
ARC
  5
1FD49
  8
0
 10
249.2325086960894112
 20
43.7021462573855572
 30
0.0
 40
28.9586823009498104
 50
87.086834820024194
 51
89.0093189977558126
  0
ARC
  5
1FD4A
  8
0
 10
250.5511596248493049
 20
69.614860335361044
 30
0.0
 40
3.012438041735185
 50
74.0516647955870866
 51
87.086834820024194
  0
ARC
  5
1FD4B
  8
0
 10
251.1718401462024985
 20
71.7868203394621105
 30
0.0
 40
0.7535324286114238
 50
28.3600898886045414
 51
74.0516647955870866
  0
ARC
  5
1FD4C
  8
0
 10
250.8375825917970019
 20
71.6734948302002266
 30
0.0
 40
1.1030849467606569
 50
3.1170524442558998
 51
25.2913795921116602
  0
ARC
  5
1FD4D
  8
0
 10
245.679150206034592
 20
71.3348016739146544
 30
0.0
 40
6.2725677345636761
 50
359.0227445047768242
 51
3.644085561891329
  0
LINE
  5
1FD4E
  8
0
 10
251.9508055604800063
 20
71.2278199009555522
 30
0.0
 11
251.9508107711801017
 21
70.4388870924661603
 31
0.0
  0
LINE
  5
1FD4F
  8
0
 10
251.9508086006167105
 20
70.7675240637076683
 30
0.0
 11
251.622173791771587
 21
70.7675240637076683
 31
0.0
  0
LINE
  5
1FD50
  8
0
 10
250.2928130688771944
 20
70.7675240637076683
 30
0.0
 11
249.3589235692807904
 21
70.7675240637076683
 31
0.0
  0
ARC
  5
1FD51
  8
0
 10
249.3589235694844035
 20
70.7478297048152456
 30
0.0
 40
0.0196943588924219
 50
90.0000005923204469
 51
202.6407749453339875
  0
ARC
  5
1FD52
  8
0
 10
249.5720952374499007
 20
70.8483795734453139
 30
0.0
 40
0.2553711208165854
 50
205.0511947842294944
 51
251.6736939628640926
  0
ARC
  5
1FD53
  8
0
 10
249.8584877381119043
 20
71.6308884142488012
 30
0.0
 40
1.0885483403072529
 50
250.3143154441461888
 51
266.7248533638793901
  0
ARC
  5
1FD54
  8
0
 10
250.6302035472544958
 20
85.7258849145534043
 30
0.0
 40
15.2046520840596102
 50
266.8560109893952017
 51
269.6556734735794976
  0
LINE
  5
1FD55
  8
0
 10
251.9508055864799871
 20
67.9424231747555609
 30
0.0
 11
251.9508055864799871
 21
69.1095315461542725
 31
0.0
  0
LINE
  5
1FD56
  8
0
 10
252.3874199417799957
 20
73.3605476913475911
 30
0.0
 11
252.3874199417799957
 21
73.6257018335555529
 31
0.0
  0
ARC
  5
1FD57
  8
0
 10
252.407104981179998
 20
73.6257018335555529
 30
0.0
 40
0.0196850394000023
 50
90.0000000000097771
 51
180.0000000000073044
  0
LINE
  5
1FD58
  8
0
 10
252.407104981179998
 20
73.6453868729555552
 30
0.0
 11
252.9858451386799914
 21
73.6453868729556547
 31
0.0
  0
ARC
  5
1FD59
  8
0
 10
252.9858451386799914
 20
73.6257018335556666
 30
0.0
 40
0.0196850393999952
 50
359.99999999968162
 51
90.0000000000113829
  0
LINE
  5
1FD5A
  8
0
 10
253.0055301780799937
 20
73.6257018335555529
 30
0.0
 11
253.0055301780784873
 21
73.3605476913555492
 31
0.0
  0
ARC
  5
1FD5B
  8
0
 10
246.7709875102129047
 20
73.1791891476953822
 30
0.0
 40
0.5919825579946921
 50
232.2616842209656909
 51
250.940934867051709
  0
LINE
  5
1FD5C
  8
0
 10
246.5776799282799061
 20
72.6196576224555486
 30
0.0
 11
246.5892384969523903
 21
72.6660165096018176
 31
0.0
  0
LINE
  5
1FD5D
  8
0
 10
246.5880021344922
 20
72.6610577307604473
 30
0.0
 11
246.5993163778121016
 21
72.6545556928862339
 31
0.0
  0
LINE
  5
1FD5E
  8
0
 10
246.5986947129811142
 20
72.6636589461949001
 30
0.0
 11
246.6011976060790971
 21
72.6621008870405944
 31
0.0
  0
LINE
  5
1FD5F
  8
0
 10
246.6011976060790971
 20
72.6621008870405944
 30
0.0
 11
246.5992804753799987
 21
72.6544116959555595
 31
0.0
  0
LINE
  5
1FD60
  8
0
 10
246.5992804753799987
 20
72.6544116959555595
 30
0.0
 11
246.60842949962219
 21
72.6517891104512046
 31
0.0
  0
LINE
  5
1FD61
  8
0
 10
246.60842949962219
 20
72.6517891104512046
 30
0.0
 11
246.6097248078800135
 21
72.6516958843555614
 31
0.0
  0
LINE
  5
1FD62
  8
0
 10
246.6097248078800135
 20
72.6516958843555614
 30
0.0
 11
246.6106762335799942
 21
72.6511605961555489
 31
0.0
  0
LINE
  5
1FD63
  8
0
 10
246.6106762335799942
 20
72.6511605961555489
 30
0.0
 11
246.6200721503799116
 21
72.6485910669555608
 31
0.0
  0
LINE
  5
1FD64
  8
0
 10
246.6200721503799116
 20
72.6485910669555608
 30
0.0
 11
246.6218705614799092
 21
72.6558040999555601
 31
0.0
  0
LINE
  5
1FD65
  8
0
 10
246.6218705614799092
 20
72.6558040999555601
 30
0.0
 11
246.6309572358503885
 21
72.6556151334776246
 31
0.0
  0
LINE
  5
1FD66
  8
0
 10
246.6202575049399002
 20
72.6493344834954655
 30
0.0
 11
246.6379635216671886
 21
72.6498814708043312
 31
0.0
  0
LINE
  5
1FD67
  8
0
 10
246.6379635216671886
 20
72.6498814708043312
 30
0.0
 11
246.653340211498687
 21
72.6410860382940626
 31
0.0
  0
LINE
  5
1FD68
  8
0
 10
246.6388996027299072
 20
72.6536358869055618
 30
0.0
 11
246.6379635216800068
 21
72.6498814708555614
 31
0.0
  0
LINE
  5
1FD69
  8
0
 10
246.6468417799640065
 20
72.6516545952975576
 30
0.0
 11
246.6549532680799928
 21
72.6475556547555499
 31
0.0
  0
LINE
  5
1FD6A
  8
0
 10
246.6549532680799928
 20
72.6475556547555499
 30
0.0
 11
246.6531549858800076
 21
72.6403431387555543
 31
0.0
  0
LINE
  5
1FD6B
  8
0
 10
246.6531549858800076
 20
72.6403431387555543
 30
0.0
 11
246.6626572798872132
 21
72.6382002656252439
 31
0.0
  0
LINE
  5
1FD6C
  8
0
 10
246.6626572798872132
 20
72.6382002656252439
 30
0.0
 11
246.6637486415266949
 21
72.638226229865154
 31
0.0
  0
LINE
  5
1FD6D
  8
0
 10
246.6637486415266949
 20
72.638226229865154
 30
0.0
 11
246.6649391000053129
 21
72.6377005519413927
 31
0.0
  0
LINE
  5
1FD6E
  8
0
 10
246.6649391000053129
 20
72.6377005519413927
 30
0.0
 11
246.6742456572339108
 21
72.6357217186375408
 31
0.0
  0
LINE
  5
1FD6F
  8
0
 10
246.6742456572339108
 20
72.6357217186375408
 30
0.0
 11
246.6761625667799933
 21
72.6434100230555515
 31
0.0
  0
LINE
  5
1FD70
  8
0
 10
246.6761625667799933
 20
72.6434100230555515
 30
0.0
 11
246.6791039547001105
 21
72.6436106705413209
 31
0.0
  0
LINE
  5
1FD71
  8
0
 10
246.6742813386530884
 20
72.6358648289959632
 30
0.0
 11
246.6873237444154086
 21
72.6362940721905659
 31
0.0
  0
LINE
  5
1FD72
  8
0
 10
246.6731586629827007
 20
72.6450938541971141
 30
0.0
 11
246.6653573666760053
 21
72.6446784736972688
 31
0.0
  0
LINE
  5
1FD73
  8
0
 10
246.6653573666760053
 20
72.6446784736972688
 30
0.0
 11
246.6551977590557954
 21
72.6495712443257133
 31
0.0
  0
LINE
  5
1FD74
  8
0
 10
246.6653573666760053
 20
72.6446784736972688
 30
0.0
 11
246.665911280345199
 21
72.6469001001372163
 31
0.0
  0
LINE
  5
1FD75
  8
0
 10
246.6046404064886985
 20
72.6621773742847097
 30
0.0
 11
246.6113335330493044
 21
72.6581481282456707
 31
0.0
  0
LINE
  5
1FD76
  8
0
 10
246.6113335330493044
 20
72.6581481282456707
 30
0.0
 11
246.6225573200657095
 21
72.657709308045682
 31
0.0
  0
LINE
  5
1FD77
  8
0
 10
246.6113335329513916
 20
72.6581481283033668
 30
0.0
 11
246.6118876858523095
 21
72.660370714192652
 31
0.0
  0
LINE
  5
1FD78
  8
0
 10
246.5578101185799937
 20
72.6701552079555597
 30
0.0
 11
246.5545241168738926
 21
72.6569757750179548
 31
0.0
  0
LINE
  5
1FD79
  8
0
 10
246.5532781016150068
 20
72.6519782807949355
 30
0.0
 11
246.5509998136882075
 21
72.6428405670532982
 31
0.0
  0
LINE
  5
1FD7A
  8
0
 10
246.5501889188415134
 20
72.6395882454759487
 30
0.0
 11
246.5488475476655026
 21
72.6342082995603846
 31
0.0
  0
LINE
  5
1FD7B
  8
0
 10
246.548447705989787
 20
72.6326046221970927
 30
0.0
 11
246.5480046729799994
 21
72.6308277138555525
 31
0.0
  0
LINE
  5
1FD7C
  8
0
 10
246.5480046729799994
 20
72.6308277138555525
 30
0.0
 11
246.5313804331800043
 21
72.6380891435555611
 31
0.0
  0
LINE
  5
1FD7D
  8
0
 10
246.5313804331800043
 20
72.6380891435555611
 30
0.0
 11
246.5316085487800137
 21
72.6390040656555556
 31
0.0
  0
LINE
  5
1FD7E
  8
0
 10
246.5316085487800137
 20
72.6390040656555556
 30
0.0
 11
246.5476717233082979
 21
72.6329619723425282
 31
0.0
  0
LINE
  5
1FD7F
  8
0
 10
246.5476717233082979
 20
72.6329619723425282
 30
0.0
 11
246.5484477060799975
 21
72.6326046221555544
 31
0.0
  0
LINE
  5
1FD80
  8
0
 10
246.5472245525375001
 20
72.6311684686701255
 30
0.0
 11
246.5476717232450881
 21
72.6329619723648676
 31
0.0
  0
LINE
  5
1FD81
  8
0
 10
246.5578101185799937
 20
72.6701552079555597
 30
0.0
 11
246.5570728775907128
 21
72.6706679425214759
 31
0.0
  0
LINE
  5
1FD82
  8
0
 10
246.5570728775907128
 20
72.6706679425214759
 30
0.0
 11
246.5403118320770091
 21
72.6739110282427845
 31
0.0
  0
LINE
  5
1FD83
  8
0
 10
246.5403118320770091
 20
72.6739110282427845
 30
0.0
 11
246.5386190540799873
 21
72.6671216664555573
 31
0.0
  0
LINE
  5
1FD84
  8
0
 10
246.5386190540799873
 20
72.6671216664555573
 30
0.0
 11
246.5537030447966913
 21
72.6571522818482975
 31
0.0
  0
LINE
  5
1FD85
  8
0
 10
246.5537030447966913
 20
72.6571522818482975
 30
0.0
 11
246.5545241168738926
 21
72.6569757750179548
 31
0.0
  0
LINE
  5
1FD86
  8
0
 10
246.5532781016800072
 20
72.6519782807555572
 30
0.0
 11
246.5525267068383926
 21
72.6524341617821534
 31
0.0
  0
LINE
  5
1FD87
  8
0
 10
246.5525267068383926
 20
72.6524341617821534
 30
0.0
 11
246.5360084461185863
 21
72.6566510898985882
 31
0.0
  0
LINE
  5
1FD88
  8
0
 10
246.5360084461185863
 20
72.6566510898985882
 30
0.0
 11
246.5348350930800052
 21
72.6519450277555592
 31
0.0
  0
LINE
  5
1FD89
  8
0
 10
246.5348350930800052
 20
72.6519450277555592
 30
0.0
 11
246.5501903162889903
 21
72.6430634972919052
 31
0.0
  0
LINE
  5
1FD8A
  8
0
 10
246.5501903162889903
 20
72.6430634972919052
 30
0.0
 11
246.5509998136882075
 21
72.6428405670532982
 31
0.0
  0
LINE
  5
1FD8B
  8
0
 10
246.5501889188799964
 20
72.6395882454555561
 30
0.0
 11
246.5494247605799956
 21
72.6399930210555596
 31
0.0
  0
LINE
  5
1FD8C
  8
0
 10
246.5494247605799956
 20
72.6399930210555596
 30
0.0
 11
246.533136625199802
 21
72.6451328450486216
 31
0.0
  0
LINE
  5
1FD8D
  8
0
 10
246.533136625199802
 20
72.6451328450486216
 30
0.0
 11
246.5324459074186052
 21
72.6423625276727449
 31
0.0
  0
LINE
  5
1FD8E
  8
0
 10
246.5324459074186052
 20
72.6423625276727449
 30
0.0
 11
246.5480492068708998
 21
72.6344759763493641
 31
0.0
  0
LINE
  5
1FD8F
  8
0
 10
246.5480492068708998
 20
72.6344759763493641
 30
0.0
 11
246.5488475476799977
 21
72.6342082995555529
 31
0.0
  0
LINE
  5
1FD90
  8
0
 10
246.5480492068165006
 20
72.6344759763768337
 30
0.0
 11
246.5494247605701048
 21
72.6399930210607749
 31
0.0
  0
LINE
  5
1FD91
  8
0
 10
246.5501903162883082
 20
72.6430634972923031
 30
0.0
 11
246.5525266866702054
 21
72.652434166930874
 31
0.0
  0
LINE
  5
1FD92
  8
0
 10
246.5537030448545863
 20
72.6571522818358488
 30
0.0
 11
246.5570728775915939
 21
72.6706679425208648
 31
0.0
  0
LINE
  5
1FD93
  8
0
 10
246.5392852934222105
 20
72.6439315806988333
 30
0.0
 11
246.5402121498526924
 21
72.6476489986564076
 31
0.0
  0
LINE
  5
1FD94
  8
0
 10
246.5402121498526924
 20
72.6476489986564076
 30
0.0
 11
246.5249470628799884
 21
72.6568920461555336
 31
0.0
  0
LINE
  5
1FD95
  8
0
 10
246.5249470628799884
 20
72.6568920461555336
 30
0.0
 11
246.5087497136800039
 21
72.6623959939555562
 31
0.0
  0
LINE
  5
1FD96
  8
0
 10
246.5087497136800039
 20
72.6623959939555562
 30
0.0
 11
246.5078119166799979
 21
72.6586346954555609
 31
0.0
  0
LINE
  5
1FD97
  8
0
 10
246.5078119166799979
 20
72.6586346954555609
 30
0.0
 11
246.5230824736800059
 21
72.64941358715555
 31
0.0
  0
LINE
  5
1FD98
  8
0
 10
246.5230824736800059
 20
72.64941358715555
 30
0.0
 11
246.5392852933800043
 21
72.6439315806555612
 31
0.0
  0
LINE
  5
1FD99
  8
0
 10
246.5249470628799884
 20
72.6568920461555336
 30
0.0
 11
246.5230824743860012
 21
72.6494135869166797
 31
0.0
  0
LINE
  5
1FD9A
  8
0
 10
246.5423542591221917
 20
72.6562405297988363
 30
0.0
 11
246.5437786865416001
 21
72.6619535959567742
 31
0.0
  0
LINE
  5
1FD9B
  8
0
 10
246.5437786865416001
 20
72.6619535959567742
 30
0.0
 11
246.5287890317422068
 21
72.6723013422216582
 31
0.0
  0
LINE
  5
1FD9C
  8
0
 10
246.5287890317422068
 20
72.6723013422216582
 30
0.0
 11
246.5124617343797127
 21
72.6768445374827934
 31
0.0
  0
LINE
  5
1FD9D
  8
0
 10
246.5124617343797127
 20
72.6768445374827934
 30
0.0
 11
246.5109176902799106
 21
72.6710912730555521
 31
0.0
  0
LINE
  5
1FD9E
  8
0
 10
246.5109176902799106
 20
72.6710912730555521
 30
0.0
 11
246.5259225513958086
 21
72.6608045198478152
 31
0.0
  0
LINE
  5
1FD9F
  8
0
 10
246.5259225513958086
 20
72.6608045198478152
 30
0.0
 11
246.5423542590800139
 21
72.65624052975555
 31
0.0
  0
LINE
  5
1FDA0
  8
0
 10
246.5287890317422068
 20
72.6723013422216582
 30
0.0
 11
246.5259225521018038
 21
72.6608045196089449
 31
0.0
  0
LINE
  5
1FDA1
  8
0
 10
246.5149225705222022
 20
72.6612917445988415
 30
0.0
 11
246.5161048602799951
 21
72.6660336496555601
 31
0.0
  0
LINE
  5
1FDA2
  8
0
 10
246.5161048602799951
 20
72.6660336496555601
 30
0.0
 11
246.5011954748729011
 21
72.6767033383184469
 31
0.0
  0
LINE
  5
1FDA3
  8
0
 10
246.5011954748729011
 20
72.6767033383184469
 30
0.0
 11
246.485094808380012
 21
72.6825950591555596
 31
0.0
  0
LINE
  5
1FDA4
  8
0
 10
246.485094808380012
 20
72.6825950591555596
 30
0.0
 11
246.4838942541800009
 21
72.6777798992555546
 31
0.0
  0
LINE
  5
1FDA5
  8
0
 10
246.4838942541800009
 20
72.6777798992555546
 30
0.0
 11
246.498812771780905
 21
72.6671468343150764
 31
0.0
  0
LINE
  5
1FDA6
  8
0
 10
246.498812771780905
 20
72.6671468343150764
 30
0.0
 11
246.5149225704799107
 21
72.6612917445555553
 31
0.0
  0
LINE
  5
1FDA7
  8
0
 10
246.5011954748729011
 20
72.6767033383184469
 30
0.0
 11
246.4988127724869003
 21
72.6671468340762061
 31
0.0
  0
LINE
  5
1FDA8
  8
0
 10
246.5375672624799961
 20
72.6370409348555484
 30
0.0
 11
246.53802424290609
 21
72.63887378348754
 31
0.0
  0
LINE
  5
1FDA9
  8
0
 10
246.53802424290609
 20
72.63887378348754
 30
0.0
 11
246.5225083080779029
 21
72.6471107336918038
 31
0.0
  0
LINE
  5
1FDAA
  8
0
 10
246.5225083080779029
 20
72.6471107336918038
 30
0.0
 11
246.5065362171800132
 21
72.6535181442555569
 31
0.0
  0
LINE
  5
1FDAB
  8
0
 10
246.5065362171800132
 20
72.6535181442555569
 30
0.0
 11
246.5060739942306896
 21
72.6516642691089345
 31
0.0
  0
LINE
  5
1FDAC
  8
0
 10
246.5060739942306896
 20
72.6516642691089345
 30
0.0
 11
246.521589145479993
 21
72.6434241750555572
 31
0.0
  0
LINE
  5
1FDAD
  8
0
 10
246.521589145479993
 20
72.6434241750555572
 30
0.0
 11
246.5375672624799961
 21
72.6370409348555484
 31
0.0
  0
LINE
  5
1FDAE
  8
0
 10
246.5225083080779029
 20
72.6471107336918038
 30
0.0
 11
246.521589145479993
 21
72.6434241750555572
 31
0.0
  0
LINE
  5
1FDAF
  8
0
 10
246.5125156574447942
 20
72.6516381433886806
 30
0.0
 11
246.5132114367800114
 21
72.6544287621555611
 31
0.0
  0
LINE
  5
1FDB0
  8
0
 10
246.5132114367800114
 20
72.6544287621555611
 30
0.0
 11
246.4980323814812095
 21
72.6640168633603025
 31
0.0
  0
LINE
  5
1FDB1
  8
0
 10
246.4980323814812095
 20
72.6640168633603025
 30
0.0
 11
246.4821572533674043
 21
72.6708131693035568
 31
0.0
  0
LINE
  5
1FDB2
  8
0
 10
246.4821572533674043
 20
72.6708131693035568
 30
0.0
 11
246.4814511425799139
 21
72.6679811137555589
 31
0.0
  0
LINE
  5
1FDB3
  8
0
 10
246.4814511425799139
 20
72.6679811137555589
 30
0.0
 11
246.4966305917322984
 21
72.6583945919723249
 31
0.0
  0
LINE
  5
1FDB4
  8
0
 10
246.4966305917322984
 20
72.6583945919723249
 30
0.0
 11
246.5125156573799927
 21
72.6516381433555551
 31
0.0
  0
LINE
  5
1FDB5
  8
0
 10
246.520381015594694
 20
72.683184372174253
 30
0.0
 11
246.5187359218799941
 21
72.6765862613555527
 31
0.0
  0
LINE
  5
1FDB6
  8
0
 10
246.5187359218799941
 20
72.6765862613555527
 30
0.0
 11
246.5023957880976866
 21
72.6815175313264348
 31
0.0
  0
LINE
  5
1FDB7
  8
0
 10
246.5023957880976866
 20
72.6815175313264348
 30
0.0
 11
246.4911998194928913
 21
72.6904599616163409
 31
0.0
  0
LINE
  5
1FDB8
  8
0
 10
246.4881085016540965
 20
72.6912307031360569
 30
0.0
 11
246.4927500564799914
 21
72.6874363564555495
 31
0.0
  0
LINE
  5
1FDB9
  8
0
 10
246.4927500564799914
 20
72.6874363564555495
 30
0.0
 11
246.4912935097702018
 21
72.681594466518888
 31
0.0
  0
LINE
  5
1FDBA
  8
0
 10
246.4912935097702018
 20
72.681594466518888
 30
0.0
 11
246.4752834291003012
 21
72.6878495078558871
 31
0.0
  0
LINE
  5
1FDBB
  8
0
 10
246.4752834291003012
 20
72.6878495078558871
 30
0.0
 11
246.4639199721628984
 21
72.6972632087266533
 31
0.0
  0
LINE
  5
1FDBC
  8
0
 10
246.4614186674550922
 20
72.6978858420527558
 30
0.0
 11
246.4657499031027044
 21
72.6942183641981643
 31
0.0
  0
LINE
  5
1FDBD
  8
0
 10
246.4657499031027044
 20
72.6942183641981643
 30
0.0
 11
246.4645348952799111
 21
72.689345234155553
 31
0.0
  0
LINE
  5
1FDBE
  8
0
 10
246.4645348952799111
 20
72.689345234155553
 30
0.0
 11
246.4488580087910918
 21
72.6969366437625553
 31
0.0
  0
LINE
  5
1FDBF
  8
0
 10
246.4488580087910918
 20
72.6969366437625553
 30
0.0
 11
246.4420738025876005
 21
72.7027082851148521
 31
0.0
  0
LINE
  5
1FDC0
  8
0
 10
246.4393451999796127
 20
72.7033885928122032
 30
0.0
 11
246.4384640253834959
 21
72.6998543944696536
 31
0.0
  0
LINE
  5
1FDC1
  8
0
 10
246.4384640253834959
 20
72.6998543944696536
 30
0.0
 11
246.4270175481564138
 21
72.7064630620742349
 31
0.0
  0
LINE
  5
1FDC2
  8
0
 10
246.4193972392700971
 20
72.7083633731000845
 30
0.0
 11
246.4225191611942876
 21
72.7063710039369084
 31
0.0
  0
LINE
  5
1FDC3
  8
0
 10
246.4225191611942876
 20
72.7063710039369084
 30
0.0
 11
246.4371344303800129
 21
72.6945216803555496
 31
0.0
  0
LINE
  5
1FDC4
  8
0
 10
246.4371344303800129
 20
72.6945216803555496
 30
0.0
 11
246.4366529391654979
 21
72.6925905245317523
 31
0.0
  0
LINE
  5
1FDC5
  8
0
 10
246.4366529391654979
 20
72.6925905245317523
 30
0.0
 11
246.4215438859598919
 21
72.7024593888828576
 31
0.0
  0
LINE
  5
1FDC6
  8
0
 10
246.4215438859598919
 20
72.7024593888828576
 30
0.0
 11
246.4118659274226957
 21
72.7102414693094232
 31
0.0
  0
LINE
  5
1FDC7
  8
0
 10
246.4111772740236859
 20
72.7104115491014511
 30
0.0
 11
246.4121968057800132
 21
72.7095760393555537
 31
0.0
  0
LINE
  5
1FDC8
  8
0
 10
246.4121968057800132
 20
72.7095760393555537
 30
0.0
 11
246.4119520315800003
 21
72.7085943035555573
 31
0.0
  0
LINE
  5
1FDC9
  8
0
 10
246.4119520315800003
 20
72.7085943035555573
 30
0.0
 11
246.4090953466075007
 21
72.7107049847923008
 31
0.0
  0
LINE
  5
1FDCA
  8
0
 10
246.4326209787726043
 20
72.7022814404257218
 30
0.0
 11
246.4318908885583994
 21
72.6993532086372909
 31
0.0
  0
LINE
  5
1FDCB
  8
0
 10
246.4318908885583994
 20
72.6993532086372909
 30
0.0
 11
246.4466095376799046
 21
72.6879185186554224
 31
0.0
  0
LINE
  5
1FDCC
  8
0
 10
246.4466095376799046
 20
72.6879185186554224
 30
0.0
 11
246.4620631690802952
 21
72.6794316817567392
 31
0.0
  0
LINE
  5
1FDCD
  8
0
 10
246.4620631690802952
 20
72.6794316817567392
 30
0.0
 11
246.4627774425746907
 21
72.6822964761342547
 31
0.0
  0
LINE
  5
1FDCE
  8
0
 10
246.4627774425746907
 20
72.6822964761342547
 30
0.0
 11
246.4480536573800009
 21
72.6937105665555521
 31
0.0
  0
LINE
  5
1FDCF
  8
0
 10
246.4480536573800009
 20
72.6937105665555521
 30
0.0
 11
246.4326209787726043
 21
72.7022814404257218
 31
0.0
  0
LINE
  5
1FDD0
  8
0
 10
246.430765502868212
 20
72.6948395331950366
 30
0.0
 11
246.4310063624822931
 21
72.6958055681650137
 31
0.0
  0
LINE
  5
1FDD1
  8
0
 10
246.4310063624822931
 20
72.6958055681650137
 30
0.0
 11
246.4462134893510949
 21
72.6863300566814416
 31
0.0
  0
LINE
  5
1FDD2
  8
0
 10
246.4462134893510949
 20
72.6863300566814416
 30
0.0
 11
246.4611975802766892
 21
72.6759599946424544
 31
0.0
  0
LINE
  5
1FDD3
  8
0
 10
246.4611975802766892
 20
72.6759599946424544
 30
0.0
 11
246.4609618351881011
 21
72.675014472988039
 31
0.0
  0
LINE
  5
1FDD4
  8
0
 10
246.4609618351881011
 20
72.675014472988039
 30
0.0
 11
246.4560787583895944
 21
72.6779149442946135
 31
0.0
  0
LINE
  5
1FDD5
  8
0
 10
246.430765502880007
 20
72.6948395331555588
 30
0.0
 11
246.4335488518908903
 21
72.6927957875023765
 31
0.0
  0
LINE
  5
1FDD6
  8
0
 10
246.4585129713800029
 20
72.6910548422555536
 30
0.0
 11
246.4575485703884112
 21
72.6871868411892024
 31
0.0
  0
LINE
  5
1FDD7
  8
0
 10
246.4575485703884112
 20
72.6871868411892024
 30
0.0
 11
246.4723722453800008
 21
72.676173387055556
 31
0.0
  0
LINE
  5
1FDD8
  8
0
 10
246.4723722453800008
 20
72.676173387055556
 30
0.0
 11
246.4881576545272992
 21
72.6690172380028656
 31
0.0
  0
LINE
  5
1FDD9
  8
0
 10
246.4881576545272992
 20
72.6690172380028656
 30
0.0
 11
246.4891043882799977
 21
72.6728143796555628
 31
0.0
  0
LINE
  5
1FDDA
  8
0
 10
246.4891043882799977
 20
72.6728143796555628
 30
0.0
 11
246.4742831713977012
 21
72.6838376928229906
 31
0.0
  0
LINE
  5
1FDDB
  8
0
 10
246.4742831713977012
 20
72.6838376928229906
 30
0.0
 11
246.4585129713800029
 21
72.6910548422555536
 31
0.0
  0
LINE
  5
1FDDC
  8
0
 10
246.4562372836790018
 20
72.6819275576434904
 30
0.0
 11
246.4557623344402089
 21
72.6800226399212903
 31
0.0
  0
LINE
  5
1FDDD
  8
0
 10
246.4557623344402089
 20
72.6800226399212903
 30
0.0
 11
246.4708427291772921
 21
72.670038832544833
 31
0.0
  0
LINE
  5
1FDDE
  8
0
 10
246.4708427291772921
 20
72.670038832544833
 30
0.0
 11
246.4864034937799886
 21
72.6619816838555579
 31
0.0
  0
LINE
  5
1FDDF
  8
0
 10
246.4864034937799886
 20
72.6619816838555579
 30
0.0
 11
246.4868699952693873
 21
72.663852718813061
 31
0.0
  0
LINE
  5
1FDE0
  8
0
 10
246.4868699952693873
 20
72.663852718813061
 30
0.0
 11
246.4717840703987974
 21
72.6738143461255106
 31
0.0
  0
LINE
  5
1FDE1
  8
0
 10
246.4717840703987974
 20
72.6738143461255106
 30
0.0
 11
246.4562372836790018
 21
72.6819275576434904
 31
0.0
  0
LINE
  5
1FDE2
  8
0
 10
246.5247354220101954
 20
72.6820992293286565
 30
0.0
 11
246.5301966601954859
 21
72.6779470310493849
 31
0.0
  0
LINE
  5
1FDE3
  8
0
 10
246.5301966601954859
 20
72.6779470310493849
 30
0.0
 11
246.5468688575865031
 21
72.6743475951414695
 31
0.0
  0
LINE
  5
1FDE4
  8
0
 10
246.5468688575865031
 20
72.6743475951414695
 30
0.0
 11
246.5473932886800128
 21
72.6764509734555588
 31
0.0
  0
LINE
  5
1FDE5
  8
0
 10
246.4966305917322984
 20
72.6583945919723249
 30
0.0
 11
246.4980323814812095
 21
72.6640168633603025
 31
0.0
  0
LINE
  5
1FDE6
  8
0
 10
246.5023957880976866
 20
72.6815175313264348
 30
0.0
 11
246.5045407029388116
 21
72.6871337514634632
 31
0.0
  0
LINE
  5
1FDE7
  8
0
 10
246.5301966601954859
 20
72.6779470310493849
 30
0.0
 11
246.5308515790906938
 21
72.6805738033353919
 31
0.0
  0
LINE
  5
1FDE8
  8
0
 10
246.4752834291003012
 20
72.6878495078558871
 30
0.0
 11
246.4768276903944866
 21
72.6940432866577169
 31
0.0
  0
LINE
  5
1FDE9
  8
0
 10
246.4723722453800008
 20
72.676173387055556
 30
0.0
 11
246.4742831713977012
 21
72.6838376928229906
 31
0.0
  0
LINE
  5
1FDEA
  8
0
 10
246.4708427291772921
 20
72.670038832544833
 30
0.0
 11
246.4717840703987974
 21
72.6738143461255106
 31
0.0
  0
LINE
  5
1FDEB
  8
0
 10
246.4480536573800009
 20
72.6937105665555521
 30
0.0
 11
246.4466095376799046
 21
72.6879185186554224
 31
0.0
  0
LINE
  5
1FDEC
  8
0
 10
246.4462134893510949
 20
72.6863300566814416
 30
0.0
 11
246.4452569962188875
 21
72.6848785356070408
 31
0.0
  0
LINE
  5
1FDED
  8
0
 10
246.4488580087910918
 20
72.6969366437625553
 30
0.0
 11
246.4509051565256073
 21
72.7005064115094513
 31
0.0
  0
LINE
  5
1FDEE
  8
0
 10
246.4225191611942876
 20
72.7063710039369084
 30
0.0
 11
246.4215438859598919
 21
72.7024593888828576
 31
0.0
  0
ARC
  5
1FDEF
  8
0
 10
246.7690052946173012
 20
73.1796837095019583
 30
0.0
 40
0.591982557994692
 50
261.0590652174328739
 51
279.7383158635184941
  0
LINE
  5
1FDF0
  8
0
 10
246.6770016200462976
 20
72.5948942834387196
 30
0.0
 11
246.688560188789296
 21
72.6412531705673672
 31
0.0
  0
LINE
  5
1FDF1
  8
0
 10
246.7182528010210092
 20
72.6301526944498335
 30
0.0
 11
246.7149667993591891
 21
72.6169732615012435
 31
0.0
  0
LINE
  5
1FDF2
  8
0
 10
246.7137207841171005
 20
72.611975767274032
 30
0.0
 11
246.7114424962207977
 21
72.6028380535247493
 31
0.0
  0
LINE
  5
1FDF3
  8
0
 10
246.7106316013849892
 20
72.5995857319446998
 30
0.0
 11
246.7092902302271966
 21
72.5942057860246308
 31
0.0
  0
LINE
  5
1FDF4
  8
0
 10
246.7088903885567106
 20
72.5926021086600031
 30
0.0
 11
246.7084473555528916
 21
72.5908252003169849
 31
0.0
  0
LINE
  5
1FDF5
  8
0
 10
246.7084473555528916
 20
72.5908252003169849
 30
0.0
 11
246.7265347228187977
 21
72.5894320543789462
 31
0.0
  0
LINE
  5
1FDF6
  8
0
 10
246.7265347228187977
 20
72.5894320543789462
 30
0.0
 11
246.7267628386055947
 21
72.5903469764323575
 31
0.0
  0
LINE
  5
1FDF7
  8
0
 10
246.7267628386055947
 20
72.5903469764323575
 30
0.0
 11
246.7097433063287895
 21
72.5925533283097906
 31
0.0
  0
LINE
  5
1FDF8
  8
0
 10
246.7097433063287895
 20
72.5925533283097906
 30
0.0
 11
246.7088903884576041
 21
72.5926021086656732
 31
0.0
  0
LINE
  5
1FDF9
  8
0
 10
246.7092961357151069
 20
72.5907598245982228
 30
0.0
 11
246.709743306395012
 21
72.5925533282998998
 31
0.0
  0
LINE
  5
1FDFA
  8
0
 10
246.7182528010210092
 20
72.6301526944498335
 30
0.0
 11
246.7191444604756896
 21
72.6302592985225033
 31
0.0
  0
LINE
  5
1FDFB
  8
0
 10
246.7191444604756896
 20
72.6302592985225033
 30
0.0
 11
246.7354661217949001
 21
72.6252539390464449
 31
0.0
  0
LINE
  5
1FDFC
  8
0
 10
246.7354661217949001
 20
72.6252539390464449
 30
0.0
 11
246.7337733437740894
 21
72.6184645772651152
 31
0.0
  0
LINE
  5
1FDFD
  8
0
 10
246.7337733437740894
 20
72.6184645772651152
 30
0.0
 11
246.7157746279110881
 21
72.6167436377921405
 31
0.0
  0
LINE
  5
1FDFE
  8
0
 10
246.7157746279110881
 20
72.6167436377921405
 30
0.0
 11
246.7149667993591891
 21
72.6169732615012435
 31
0.0
  0
LINE
  5
1FDFF
  8
0
 10
246.7137207840412998
 20
72.6119757672697403
 30
0.0
 11
246.714598249485789
 21
72.6120255278155611
 31
0.0
  0
LINE
  5
1FE00
  8
0
 10
246.714598249485789
 20
72.6120255278155611
 30
0.0
 11
246.731162735865496
 21
72.6079940006950153
 31
0.0
  0
LINE
  5
1FE01
  8
0
 10
246.731162735865496
 20
72.6079940006950153
 30
0.0
 11
246.7299893827646997
 21
72.6032879385675045
 31
0.0
  0
LINE
  5
1FE02
  8
0
 10
246.7299893827646997
 20
72.6032879385675045
 30
0.0
 11
246.7122618994085883
 21
72.6026548532344691
 31
0.0
  0
LINE
  5
1FE03
  8
0
 10
246.7122618994085883
 20
72.6026548532344691
 30
0.0
 11
246.7114424962207977
 21
72.6028380535247493
 31
0.0
  0
LINE
  5
1FE04
  8
0
 10
246.7106316013413903
 20
72.5995857319447708
 30
0.0
 11
246.7114963437065001
 21
72.5995843769963898
 31
0.0
  0
LINE
  5
1FE05
  8
0
 10
246.7114963437065001
 20
72.5995843769963898
 30
0.0
 11
246.7282909148395902
 21
72.5964757558717508
 31
0.0
  0
LINE
  5
1FE06
  8
0
 10
246.7282909148395902
 20
72.5964757558717508
 30
0.0
 11
246.727600197218095
 21
72.593705438456027
 31
0.0
  0
LINE
  5
1FE07
  8
0
 10
246.727600197218095
 20
72.593705438456027
 30
0.0
 11
246.7101207899507926
 21
72.5940673323018189
 31
0.0
  0
LINE
  5
1FE08
  8
0
 10
246.7101207899507926
 20
72.5940673323018189
 30
0.0
 11
246.7092902302121047
 21
72.5942057860271319
 31
0.0
  0
LINE
  5
1FE09
  8
0
 10
246.7101207900117004
 20
72.5940673323005683
 30
0.0
 11
246.7114963437176982
 21
72.5995843769963756
 31
0.0
  0
LINE
  5
1FE0A
  8
0
 10
246.7122618994094125
 20
72.6026548532344975
 30
0.0
 11
246.7145982697105069
 21
72.6120255228932194
 31
0.0
  0
LINE
  5
1FE0B
  8
0
 10
246.7157746278541026
 20
72.6167436378083266
 30
0.0
 11
246.7191444604746096
 21
72.6302592985223896
 31
0.0
  0
LINE
  5
1FE0C
  8
0
 10
246.7222980035789988
 20
72.5983017272763362
 30
0.0
 11
246.7232248599374032
 21
72.6020191452518588
 31
0.0
  0
LINE
  5
1FE0D
  8
0
 10
246.7232248599374032
 20
72.6020191452518588
 30
0.0
 11
246.741042479687593
 21
72.6030137475810449
 31
0.0
  0
LINE
  5
1FE0E
  8
0
 10
246.741042479687593
 20
72.6030137475810449
 30
0.0
 11
246.7579278371536873
 21
72.6002692502252529
 31
0.0
  0
LINE
  5
1FE0F
  8
0
 10
246.7579278371536873
 20
72.6002692502252529
 30
0.0
 11
246.756990040078108
 21
72.5965079517441154
 31
0.0
  0
LINE
  5
1FE10
  8
0
 10
246.756990040078108
 20
72.5965079517441154
 30
0.0
 11
246.7391778904105024
 21
72.5955352886002743
 31
0.0
  0
LINE
  5
1FE11
  8
0
 10
246.7391778904105024
 20
72.5955352886002743
 30
0.0
 11
246.7222980035959949
 21
72.5983017272182707
 31
0.0
  0
LINE
  5
1FE12
  8
0
 10
246.741042479687593
 20
72.6030137475810449
 30
0.0
 11
246.7391778896750054
 21
72.5955352887208107
 31
0.0
  0
LINE
  5
1FE13
  8
0
 10
246.725366969253713
 20
72.6106106763826347
 30
0.0
 11
246.7267913965816035
 21
72.6163237425633667
 31
0.0
  0
LINE
  5
1FE14
  8
0
 10
246.7267913965816035
 20
72.6163237425633667
 30
0.0
 11
246.744884448811689
 21
72.6184230435818563
 31
0.0
  0
LINE
  5
1FE15
  8
0
 10
246.744884448811689
 20
72.6184230435818563
 30
0.0
 11
246.7614334977004944
 21
72.6147692451171309
 31
0.0
  0
LINE
  5
1FE16
  8
0
 10
246.7614334977004944
 20
72.6147692451171309
 30
0.0
 11
246.7600958136883946
 21
72.6089645293415202
 31
0.0
  0
LINE
  5
1FE17
  8
0
 10
246.7600958136883946
 20
72.6089645293415202
 30
0.0
 11
246.7420179695835998
 21
72.6069262209291821
 31
0.0
  0
LINE
  5
1FE18
  8
0
 10
246.7420179695835998
 20
72.6069262209291821
 30
0.0
 11
246.7253669692707092
 21
72.6106106763245833
 31
0.0
  0
LINE
  5
1FE19
  8
0
 10
246.744884448811689
 20
72.6184230435818563
 30
0.0
 11
246.7420179688481028
 21
72.6069262210497186
 31
0.0
  0
LINE
  5
1FE1A
  8
0
 10
246.751959114389706
 20
72.6021922366536216
 30
0.0
 11
246.7531414040645927
 21
72.6069341417309886
 31
0.0
  0
LINE
  5
1FE1B
  8
0
 10
246.7531414040645927
 20
72.6069341417309886
 30
0.0
 11
246.7713147254281978
 21
72.609355385211984
 31
0.0
  0
LINE
  5
1FE1C
  8
0
 10
246.7713147254281978
 20
72.609355385211984
 30
0.0
 11
246.7882967655440041
 21
72.6069986609076352
 31
0.0
  0
LINE
  5
1FE1D
  8
0
 10
246.7882967655440041
 20
72.6069986609076352
 30
0.0
 11
246.787096211348711
 21
72.6021835010064507
 31
0.0
  0
LINE
  5
1FE1E
  8
0
 10
246.787096211348711
 20
72.6021835010064507
 30
0.0
 11
246.7689320205327022
 21
72.5997988816583018
 31
0.0
  0
LINE
  5
1FE1F
  8
0
 10
246.7689320205327022
 20
72.5997988816583018
 30
0.0
 11
246.7519591144067022
 21
72.6021922365955703
 31
0.0
  0
LINE
  5
1FE20
  8
0
 10
246.7713147254281978
 20
72.609355385211984
 30
0.0
 11
246.7689320197972052
 21
72.5997988817788524
 31
0.0
  0
LINE
  5
1FE21
  8
0
 10
246.720579972601513
 20
72.5914110814418336
 30
0.0
 11
246.7210369531431127
 21
72.5932439300450199
 31
0.0
  0
LINE
  5
1FE22
  8
0
 10
246.7210369531431127
 20
72.5932439300450199
 30
0.0
 11
246.7386037243356895
 21
72.593232435254393
 31
0.0
  0
LINE
  5
1FE23
  8
0
 10
246.7386037243356895
 20
72.593232435254393
 30
0.0
 11
246.7557143406004059
 21
72.5913914005385408
 31
0.0
  0
LINE
  5
1FE24
  8
0
 10
246.7557143406004059
 20
72.5913914005385408
 30
0.0
 11
246.7552521175813069
 21
72.5895375254093409
 31
0.0
  0
LINE
  5
1FE25
  8
0
 10
246.7552521175813069
 20
72.5895375254093409
 30
0.0
 11
246.7376845623001032
 21
72.5895458764779136
 31
0.0
  0
LINE
  5
1FE26
  8
0
 10
246.7376845623001032
 20
72.5895458764779136
 30
0.0
 11
246.720579972601513
 21
72.5914110814418336
 31
0.0
  0
LINE
  5
1FE27
  8
0
 10
246.7386037243356895
 20
72.593232435254393
 30
0.0
 11
246.7376845623001032
 21
72.5895458764779136
 31
0.0
  0
LINE
  5
1FE28
  8
0
 10
246.7495522012652032
 20
72.5925386354552131
 30
0.0
 11
246.7502479807255895
 21
72.5953292541908581
 31
0.0
  0
LINE
  5
1FE29
  8
0
 10
246.7502479807255895
 20
72.5953292541908581
 30
0.0
 11
246.7681516319183004
 21
72.5966689102833129
 31
0.0
  0
LINE
  5
1FE2A
  8
0
 10
246.7681516319183004
 20
72.5966689102833129
 30
0.0
 11
246.7853592104472114
 21
72.5952167710766219
 31
0.0
  0
LINE
  5
1FE2B
  8
0
 10
246.7853592104472114
 20
72.5952167710766219
 30
0.0
 11
246.7846530997273931
 21
72.5923847155117699
 31
0.0
  0
LINE
  5
1FE2C
  8
0
 10
246.7846530997273931
 20
72.5923847155117699
 30
0.0
 11
246.7667498422761128
 21
72.591046638868761
 31
0.0
  0
LINE
  5
1FE2D
  8
0
 10
246.7667498422761128
 20
72.591046638868761
 30
0.0
 11
246.7495522013068978
 21
72.5925386353955133
 31
0.0
  0
LINE
  5
1FE2E
  8
0
 10
246.757417559501306
 20
72.6240848642192844
 30
0.0
 11
246.7557724656489029
 21
72.6174867534349033
 31
0.0
  0
LINE
  5
1FE2F
  8
0
 10
246.7557724656489029
 20
72.6174867534349033
 30
0.0
 11
246.7725150384636947
 21
72.6141695782671945
 31
0.0
  0
LINE
  5
1FE30
  8
0
 10
246.7725150384636947
 20
72.6141695782671945
 30
0.0
 11
246.7865987087122903
 21
72.6168090867089546
 31
0.0
  0
LINE
  5
1FE31
  8
0
 10
246.7896900215837945
 20
72.6160383252662029
 30
0.0
 11
246.7838104340590064
 21
72.6148671939873935
 31
0.0
  0
LINE
  5
1FE32
  8
0
 10
246.7838104340590064
 20
72.6148671939873935
 30
0.0
 11
246.7823538872806921
 21
72.6090253040678277
 31
0.0
  0
LINE
  5
1FE33
  8
0
 10
246.7823538872806921
 20
72.6090253040678277
 30
0.0
 11
246.7994265135043861
 21
72.607031900192311
 31
0.0
  0
LINE
  5
1FE34
  8
0
 10
246.7994265135043861
 20
72.607031900192311
 30
0.0
 11
246.8138793153088102
 21
72.6100088848503162
 31
0.0
  0
LINE
  5
1FE35
  8
0
 10
246.8163801449211974
 20
72.6093843460202919
 30
0.0
 11
246.810834114273888
 21
72.6081795472368725
 31
0.0
  0
LINE
  5
1FE36
  8
0
 10
246.810834114273888
 20
72.6081795472368725
 30
0.0
 11
246.8096191065367861
 21
72.6033064171729023
 31
0.0
  0
LINE
  5
1FE37
  8
0
 10
246.8096191065367861
 20
72.6033064171729023
 30
0.0
 11
246.8270249266585949
 21
72.6026493816379173
 31
0.0
  0
LINE
  5
1FE38
  8
0
 10
246.8270249266585949
 20
72.6026493816379173
 30
0.0
 11
246.8357246466781021
 21
72.6045604466009848
 31
0.0
  0
LINE
  5
1FE39
  8
0
 10
246.8384532449015012
 20
72.6038801213182268
 30
0.0
 11
246.8375720702761953
 21
72.6003459229829389
 31
0.0
  0
LINE
  5
1FE3A
  8
0
 10
246.8375720702761953
 20
72.6003459229829389
 30
0.0
 11
246.8507812912982047
 21
72.6008072346036784
 31
0.0
  0
LINE
  5
1FE3B
  8
0
 10
246.8584017666759962
 20
72.5989075913390849
 30
0.0
 11
246.8547099125636919
 21
72.5986140873416019
 31
0.0
  0
LINE
  5
1FE3C
  8
0
 10
246.8547099125636919
 20
72.5986140873416019
 30
0.0
 11
246.836242475362809
 21
72.5950132088463533
 31
0.0
  0
LINE
  5
1FE3D
  8
0
 10
246.836242475362809
 20
72.5950132088463533
 30
0.0
 11
246.8357609841318947
 21
72.5930820530266487
 31
0.0
  0
LINE
  5
1FE3E
  8
0
 10
246.8357609841318947
 20
72.5930820530266487
 30
0.0
 11
246.8537346374575918
 21
72.5947024722555767
 31
0.0
  0
LINE
  5
1FE3F
  8
0
 10
246.8537346374575918
 20
72.5947024722555767
 30
0.0
 11
246.8659332331079952
 21
72.5970301151345723
 31
0.0
  0
LINE
  5
1FE40
  8
0
 10
246.8666211255948895
 20
72.5968569834911222
 30
0.0
 11
246.865328684419211
 21
72.5965979133371917
 31
0.0
  0
LINE
  5
1FE41
  8
0
 10
246.865328684419211
 20
72.5965979133371917
 30
0.0
 11
246.8650839101709948
 21
72.5956161775492035
 31
0.0
  0
LINE
  5
1FE42
  8
0
 10
246.8650839101709948
 20
72.5956161775492035
 30
0.0
 11
246.868597118108994
 21
72.5961386661132337
 31
0.0
  0
LINE
  5
1FE43
  8
0
 10
246.8438706032750929
 20
72.5997457331530143
 30
0.0
 11
246.8431405131225915
 21
72.5968175013492214
 31
0.0
  0
LINE
  5
1FE44
  8
0
 10
246.8431405131225915
 20
72.5968175013492214
 30
0.0
 11
246.8247764555395918
 21
72.5936312565327455
 31
0.0
  0
LINE
  5
1FE45
  8
0
 10
246.8247764555395918
 20
72.5936312565327455
 30
0.0
 11
246.8071473803121876
 21
72.5933928647802986
 31
0.0
  0
LINE
  5
1FE46
  8
0
 10
246.8071473803121876
 20
72.5933928647802986
 30
0.0
 11
246.8078616537389109
 21
72.5962576591746824
 31
0.0
  0
LINE
  5
1FE47
  8
0
 10
246.8078616537389109
 20
72.5962576591746824
 30
0.0
 11
246.8262205752974978
 21
72.5994233044184369
 31
0.0
  0
LINE
  5
1FE48
  8
0
 10
246.8262205752974978
 20
72.5994233044184369
 30
0.0
 11
246.8438706032750929
 21
72.5997457331530143
 31
0.0
  0
LINE
  5
1FE49
  8
0
 10
246.8420151274517877
 20
72.5923038259021354
 30
0.0
 11
246.8422559869808879
 21
72.5932698608933151
 31
0.0
  0
LINE
  5
1FE4A
  8
0
 10
246.8422559869808879
 20
72.5932698608933151
 30
0.0
 11
246.8243804077351911
 21
72.592042794427968
 31
0.0
  0
LINE
  5
1FE4B
  8
0
 10
246.8243804077351911
 20
72.592042794427968
 30
0.0
 11
246.8062817914926939
 21
72.5899211776699644
 31
0.0
  0
LINE
  5
1FE4C
  8
0
 10
246.8062817914926939
 20
72.5899211776699644
 30
0.0
 11
246.8060460465239032
 21
72.5889756559856636
 31
0.0
  0
LINE
  5
1FE4D
  8
0
 10
246.8060460465239032
 20
72.5889756559856636
 30
0.0
 11
246.8117192362255992
 21
72.5892441544565514
 31
0.0
  0
LINE
  5
1FE4E
  8
0
 10
246.8420151274227976
 20
72.5923038258728184
 30
0.0
 11
246.8385980956485071
 21
72.591806008772835
 31
0.0
  0
LINE
  5
1FE4F
  8
0
 10
246.8157387621369878
 20
72.6019887895142517
 30
0.0
 11
246.814774361171402
 21
72.5981207884414204
 31
0.0
  0
LINE
  5
1FE50
  8
0
 10
246.814774361171402
 20
72.5981207884414204
 30
0.0
 11
246.7965153295004939
 21
72.5953557794626789
 31
0.0
  0
LINE
  5
1FE51
  8
0
 10
246.7965153295004939
 20
72.5953557794626789
 30
0.0
 11
246.7792180320107036
 21
72.5964480755585839
 31
0.0
  0
LINE
  5
1FE52
  8
0
 10
246.7792180320107036
 20
72.5964480755585839
 30
0.0
 11
246.78016476574291
 21
72.6002452172163686
 31
0.0
  0
LINE
  5
1FE53
  8
0
 10
246.78016476574291
 20
72.6002452172163686
 30
0.0
 11
246.7984262555679891
 21
72.6030200852177074
 31
0.0
  0
LINE
  5
1FE54
  8
0
 10
246.7984262555679891
 20
72.6030200852177074
 30
0.0
 11
246.8157387621369878
 21
72.6019887895142517
 31
0.0
  0
LINE
  5
1FE55
  8
0
 10
246.8134630745574043
 20
72.5928615048719337
 30
0.0
 11
246.8129881251472
 21
72.5909565871924656
 31
0.0
  0
LINE
  5
1FE56
  8
0
 10
246.8129881251472
 20
72.5909565871924656
 30
0.0
 11
246.7949858132658107
 21
72.5892212249599424
 31
0.0
  0
LINE
  5
1FE57
  8
0
 10
246.7949858132658107
 20
72.5892212249599424
 30
0.0
 11
246.7774638714296884
 21
72.5894125213697663
 31
0.0
  0
LINE
  5
1FE58
  8
0
 10
246.7774638714296884
 20
72.5894125213697663
 30
0.0
 11
246.777930372765411
 21
72.5912835563656103
 31
0.0
  0
LINE
  5
1FE59
  8
0
 10
246.777930372765411
 20
72.5912835563656103
 30
0.0
 11
246.7959271545556987
 21
72.5929967385235528
 31
0.0
  0
LINE
  5
1FE5A
  8
0
 10
246.7959271545556987
 20
72.5929967385235528
 30
0.0
 11
246.8134630745574043
 21
72.5928615048719337
 31
0.0
  0
LINE
  5
1FE5B
  8
0
 10
246.7530634031290901
 20
72.6251710099343342
 30
0.0
 11
246.7462920770059043
 21
72.6240687324741998
 31
0.0
  0
LINE
  5
1FE5C
  8
0
 10
246.7462920770059043
 20
72.6240687324741998
 30
0.0
 11
246.7298815676440995
 21
72.6287177417436709
 31
0.0
  0
LINE
  5
1FE5D
  8
0
 10
246.7298815676440995
 20
72.6287177417436709
 30
0.0
 11
246.7304059987737048
 21
72.6308211200487648
 31
0.0
  0
LINE
  5
1FE5E
  8
0
 10
246.7667498422761128
 20
72.591046638868761
 30
0.0
 11
246.7681516319183004
 21
72.5966689102833129
 31
0.0
  0
LINE
  5
1FE5F
  8
0
 10
246.7725150384636947
 20
72.6141695782671945
 30
0.0
 11
246.7732578467037001
 21
72.6201353828417524
 31
0.0
  0
LINE
  5
1FE60
  8
0
 10
246.7462920770059043
 20
72.6240687324741998
 30
0.0
 11
246.7469470128301907
 21
72.6266955005392845
 31
0.0
  0
LINE
  5
1FE61
  8
0
 10
246.7994265135043861
 20
72.607031900192311
 30
0.0
 11
246.8009708147164929
 21
72.6132256690414835
 31
0.0
  0
LINE
  5
1FE62
  8
0
 10
246.7965153295004939
 20
72.5953557794626789
 30
0.0
 11
246.7984262555679891
 21
72.6030200852177074
 31
0.0
  0
LINE
  5
1FE63
  8
0
 10
246.7949858132658107
 20
72.5892212249599424
 30
0.0
 11
246.7959271545556987
 21
72.5929967385235528
 31
0.0
  0
LINE
  5
1FE64
  8
0
 10
246.8262205752974978
 20
72.5994233044184369
 30
0.0
 11
246.8247764555395918
 21
72.5936312565327455
 31
0.0
  0
LINE
  5
1FE65
  8
0
 10
246.8243804077351911
 20
72.592042794427968
 30
0.0
 11
246.824543493179192
 21
72.5903121310640245
 31
0.0
  0
LINE
  5
1FE66
  8
0
 10
246.8270249266585949
 20
72.6026493816379173
 30
0.0
 11
246.8268933069309981
 21
72.6067623771230899
 31
0.0
  0
LINE
  5
1FE67
  8
0
 10
246.8547099125636919
 20
72.5986140873416019
 30
0.0
 11
246.8537346374575918
 21
72.5947024722555767
 31
0.0
  0
LINE
  5
1FE68
  8
0
 10
246.4845528172390914
 20
74.577471343048515
 30
0.0
 11
246.4595817067610994
 21
74.5618676613664775
 31
0.0
  0
LINE
  5
1FE69
  8
0
 10
246.4893777083885027
 20
74.5916787652898847
 30
0.0
 11
246.5293138940673998
 21
74.6166037376954989
 31
0.0
  0
LINE
  5
1FE6A
  8
0
 10
246.3993684270608071
 20
74.6521403210133485
 30
0.0
 11
246.4228023772676011
 21
74.6664963392201173
 31
0.0
  0
LINE
  5
1FE6B
  8
0
 10
246.4377246410840883
 20
74.6543389339925625
 30
0.0
 11
246.4601605374045903
 21
74.6784243933733478
 31
0.0
  0
LINE
  5
1FE6C
  8
0
 10
246.421773893339406
 20
74.6393834420468067
 30
0.0
 11
246.4079249717715925
 21
74.6245322918838099
 31
0.0
  0
LINE
  5
1FE6D
  8
0
 10
246.3482614068184944
 20
74.7152522349830122
 30
0.0
 11
246.3591388903533073
 21
74.7267177919104881
 31
0.0
  0
ARC
  5
1FE6E
  8
0
 10
246.3561000988489127
 20
74.7078403493264744
 30
0.0
 40
0.0107880091647284
 50
136.6030751747132115
 51
195.1524942240639859
  0
ARC
  5
1FE6F
  8
0
 10
246.3940046298407935
 20
74.7260435738477895
 30
0.0
 40
0.0526929708073733
 50
203.5140132554973889
 51
221.0595150480858138
  0
ARC
  5
1FE70
  8
0
 10
246.6331326421228027
 20
74.8965056420182691
 30
0.0
 40
0.346147140248042
 50
216.3306879025697924
 51
224.8579614932471884
  0
ARC
  5
1FE71
  8
0
 10
246.3937316718447903
 20
74.6614050543505243
 30
0.0
 40
0.0108447357354948
 50
236.611225034698208
 51
301.3167439434109269
  0
ARC
  5
1FE72
  8
0
 10
246.5431153687482038
 20
74.8203881597398492
 30
0.0
 40
0.2275273118415689
 50
215.1832792263946885
 51
222.494732910696797
  0
ARC
  5
1FE73
  8
0
 10
244.7546413406643921
 20
72.6481730452661907
 30
0.0
 40
2.588648734686104
 50
51.2099368730645779
 51
51.2382732792197402
  0
ARC
  5
1FE74
  8
0
 10
246.3717581473329119
 20
74.6645496809493068
 30
0.0
 40
0.0047811573803493
 50
16.2372618752647
 51
37.6941809271356476
  0
ARC
  5
1FE75
  8
0
 10
246.1727160185477885
 20
74.5192440872830844
 30
0.0
 40
0.2512169980914007
 50
36.1601120050269813
 51
42.6549653537256432
  0
ARC
  5
1FE76
  8
0
 10
246.3484296545711913
 20
74.6792829800148041
 30
0.0
 40
0.0136175176560398
 50
48.3874740288925977
 51
51.1107614241961912
  0
ARC
  5
1FE77
  8
0
 10
246.3568148094682897
 20
74.6915877197197062
 30
0.0
 40
0.0017132759757246
 50
273.5816214867249982
 51
275.4980601149504764
  0
ARC
  5
1FE78
  8
0
 10
246.358263676643702
 20
74.6900664293225418
 30
0.0
 40
0.001355032999736
 50
188.0023524993129911
 51
215.0457489441191115
  0
ARC
  5
1FE79
  8
0
 10
246.4662370507890046
 20
74.6053067287584639
 30
0.0
 40
0.000201328117545
 50
225.67063589563611
 51
11.7048217641118608
  0
ARC
  5
1FE7A
  8
0
 10
246.4467205277902053
 20
74.6290077171034625
 30
0.0
 40
0.0002127056461698
 50
59.2093363629573375
 51
192.0866545959108862
  0
ARC
  5
1FE7B
  8
0
 10
246.4455736863951927
 20
74.6262785675704379
 30
0.0
 40
0.0031710962831817
 50
51.4471046508433787
 51
66.6721967736448562
  0
ARC
  5
1FE7C
  8
0
 10
246.3773987205919127
 20
74.5528498240102522
 30
0.0
 40
0.1033601896516577
 50
30.5247636472029704
 51
47.2572947001293784
  0
ARC
  5
1FE7D
  8
0
 10
246.5319135617955908
 20
74.6792766778154942
 30
0.0
 40
0.0991200443019192
 50
210.5042093526010945
 51
228.393197394010798
  0
ARC
  5
1FE7E
  8
0
 10
246.446550471728699
 20
74.6464743188791147
 30
0.0
 40
0.0118214828784833
 50
138.2960669444491941
 51
211.937552119483513
  0
ARC
  5
1FE7F
  8
0
 10
246.6387685838809034
 20
74.7662944188739118
 30
0.0
 40
0.2383268007015241
 50
211.937552119483513
 51
225.7668192520708033
  0
ARC
  5
1FE80
  8
0
 10
246.490187458624888
 20
74.6136820231964748
 30
0.0
 40
0.0253317441940126
 50
225.7668192520708033
 51
243.6537603265705911
  0
ARC
  5
1FE81
  8
0
 10
246.483561823477487
 20
74.6003032626364302
 30
0.0
 40
0.0104022339800426
 50
243.6537603265417999
 51
303.9935522847603124
  0
ARC
  5
1FE82
  8
0
 10
246.4157304228093039
 20
74.6172716961395679
 30
0.0
 40
0.0106602681233143
 50
137.0711677221700882
 51
219.4289426812023009
  0
ARC
  5
1FE83
  8
0
 10
265.1242390161227718
 20
90.0004473721801048
 30
0.0
 40
24.2315270500124811
 50
219.4289426812023009
 51
219.5710572981292046
  0
ARC
  5
1FE84
  8
0
 10
246.453943854812195
 20
74.5709150662451634
 30
0.0
 40
0.0106602490420025
 50
219.571057298133212
 51
301.9289219560781135
  0
ARC
  5
1FE85
  8
0
 10
246.580764245533004
 20
74.8372612596943441
 30
0.0
 40
0.2538376701666257
 50
225.8851723720007101
 51
231.2189100387261078
  0
ARC
  5
1FE86
  8
0
 10
245.9792982819207907
 20
74.1279277835040489
 30
0.0
 40
0.6762925087470874
 50
40.1197999100847014
 51
49.1359357017267513
  0
ARC
  5
1FE87
  8
0
 10
246.4751870848814121
 20
74.67418111862807
 30
0.0
 40
0.0400405492446033
 50
192.6119115518206968
 51
206.7369076834208101
  0
ARC
  5
1FE88
  8
0
 10
246.4478557059082959
 20
74.6688661013002388
 30
0.0
 40
0.0122330766389615
 50
140.4601893442294056
 51
196.2720118847612127
  0
ARC
  5
1FE89
  8
0
 10
246.4480729218093984
 20
74.6649104085065431
 30
0.0
 40
0.0152004325530588
 50
86.7484871967658506
 51
129.4144955840307034
  0
ARC
  5
1FE8A
  8
0
 10
246.4475672413313987
 20
74.6321066937301509
 30
0.0
 40
0.0479991708910077
 50
70.3866793808444413
 51
88.3670166885644335
  0
ARC
  5
1FE8B
  8
0
 10
246.4201272737240913
 20
74.5644078493706104
 30
0.0
 40
0.1210211916156669
 50
20.2160753898543817
 51
68.9077972294906402
  0
ARC
  5
1FE8C
  8
0
 10
246.5107907458495902
 20
74.5955083446935419
 30
0.0
 40
0.0252869680022534
 50
329.2082714271687109
 51
25.0826156204379487
  0
ARC
  5
1FE8D
  8
0
 10
246.5241944257140858
 20
74.5936674166840987
 30
0.0
 40
0.0138743685194886
 50
247.2760590094750057
 51
306.8392385697641771
  0
ARC
  5
1FE8E
  8
0
 10
246.5485555410510017
 20
74.6614690967993226
 30
0.0
 40
0.085904184394576
 50
230.9023982786023055
 51
249.75869967937561
  0
ARC
  5
1FE8F
  8
0
 10
246.4255565953527025
 20
74.7750239837624235
 30
0.0
 40
0.0970997760997298
 50
211.2551693654889107
 51
217.6588071253677015
  0
ARC
  5
1FE90
  8
0
 10
246.3542614967186921
 20
74.731749981446228
 30
0.0
 40
0.0136993544045622
 50
191.5404802595544993
 51
211.2470427170156881
  0
ARC
  5
1FE91
  8
0
 10
246.3442260688449039
 20
74.7297008658563016
 30
0.0
 40
0.0034568602107274
 50
145.4203571484167128
 51
191.5404802595595868
  0
ARC
  5
1FE92
  8
0
 10
246.3437991025581084
 20
74.7283225726847604
 30
0.0
 40
0.0041242834315691
 50
83.4123061720592744
 51
125.9142793564402041
  0
ARC
  5
1FE93
  8
0
 10
246.3353745116579034
 20
74.6869880321078767
 30
0.0
 40
0.0462947028154723
 50
57.6810142711334208
 51
78.9189214382424638
  0
ARC
  5
1FE94
  8
0
 10
246.2556238631622989
 20
74.553485202341804
 30
0.0
 40
0.201792416977821
 50
27.4303709458280807
 51
58.8108291987928311
  0
ARC
  5
1FE95
  8
0
 10
246.4318862229152103
 20
74.6401027531577768
 30
0.0
 40
0.0043879237851265
 50
324.7766771232596739
 51
7.8821710236146973
  0
ARC
  5
1FE96
  8
0
 10
246.4333537473212061
 20
74.6408343786357591
 30
0.0
 40
0.0038891099447568
 50
246.6030516531776868
 51
302.9798738972755814
  0
ARC
  5
1FE97
  8
0
 10
246.4834366665936898
 20
74.7333859574573864
 30
0.0
 40
0.1091082280453352
 50
224.9341353740533975
 51
241.7594120506039133
  0
LINE
  5
1FE98
  8
0
 10
246.6341946971064942
 20
74.4278585124538665
 30
0.0
 11
246.6092235866285876
 21
74.4122548307718432
 31
0.0
  0
LINE
  5
1FE99
  8
0
 10
246.6390195882555076
 20
74.4420659346952505
 30
0.0
 11
246.6789557739348879
 21
74.4669909071008647
 31
0.0
  0
LINE
  5
1FE9A
  8
0
 10
246.5490103069278121
 20
74.5025274904186858
 30
0.0
 11
246.5724442571350039
 21
74.516883508625483
 31
0.0
  0
LINE
  5
1FE9B
  8
0
 10
246.5873665209514911
 20
74.5047261033978998
 30
0.0
 11
246.6098024172719931
 21
74.5288115627787136
 31
0.0
  0
LINE
  5
1FE9C
  8
0
 10
246.5714157732068088
 20
74.4897706114521725
 30
0.0
 11
246.5575668516389953
 21
74.4749194612891472
 31
0.0
  0
LINE
  5
1FE9D
  8
0
 10
246.4979032866854993
 20
74.5656394043883495
 30
0.0
 11
246.5087807702207101
 21
74.5771049613158254
 31
0.0
  0
ARC
  5
1FE9E
  8
0
 10
246.5057419787162871
 20
74.558227518731826
 30
0.0
 40
0.0107880091647284
 50
136.6030751747132115
 51
195.1524942240639859
  0
ARC
  5
1FE9F
  8
0
 10
246.5436465097081964
 20
74.5764307432531552
 30
0.0
 40
0.0526929708073733
 50
203.5140132554973889
 51
221.0595150480858138
  0
ARC
  5
1FEA0
  8
0
 10
246.7827745219902056
 20
74.7468928114236348
 30
0.0
 40
0.346147140248042
 50
216.3306879025697924
 51
224.8579614932471884
  0
ARC
  5
1FEA1
  8
0
 10
246.5433735517121931
 20
74.5117922237558616
 30
0.0
 40
0.0108447357354948
 50
236.611225034698208
 51
301.3167439434109269
  0
ARC
  5
1FEA2
  8
0
 10
246.6927572486156919
 20
74.6707753291451866
 30
0.0
 40
0.2275273118415689
 50
215.1832792263946885
 51
222.494732910696797
  0
ARC
  5
1FEA3
  8
0
 10
244.9042832205319087
 20
72.4985602146715564
 30
0.0
 40
2.588648734686104
 50
51.2099368730645779
 51
51.2382732792197402
  0
ARC
  5
1FEA4
  8
0
 10
246.5214000272004
 20
74.5149368503546441
 30
0.0
 40
0.0047811573803493
 50
16.2372618752647
 51
37.6941809271356476
  0
ARC
  5
1FEA5
  8
0
 10
246.322357898415305
 20
74.3696312566884501
 30
0.0
 40
0.2512169980914007
 50
36.1601120050269813
 51
42.6549653537256432
  0
ARC
  5
1FEA6
  8
0
 10
246.4980715344387079
 20
74.5296701494201841
 30
0.0
 40
0.0136175176560398
 50
48.3874740288925977
 51
51.1107614241961912
  0
ARC
  5
1FEA7
  8
0
 10
246.5064566893356925
 20
74.541974889125072
 30
0.0
 40
0.0017132759757246
 50
273.5816214867249982
 51
275.4980601149504764
  0
ARC
  5
1FEA8
  8
0
 10
246.5079055565107069
 20
74.5404535987278933
 30
0.0
 40
0.001355032999736
 50
188.0023524993129911
 51
215.0457489441191115
  0
ARC
  5
1FEA9
  8
0
 10
246.6158789306564927
 20
74.4556938981638154
 30
0.0
 40
0.000201328117545
 50
225.67063589563611
 51
11.7048217641118608
  0
ARC
  5
1FEAA
  8
0
 10
246.5963624076576082
 20
74.4793948865087998
 30
0.0
 40
0.0002127056461698
 50
59.2093363629573375
 51
192.0866545959108862
  0
ARC
  5
1FEAB
  8
0
 10
246.5952155662625955
 20
74.4766657369758036
 30
0.0
 40
0.0031710962831817
 50
51.4471046508433787
 51
66.6721967736448562
  0
ARC
  5
1FEAC
  8
0
 10
246.5270406004592871
 20
74.4032369934156037
 30
0.0
 40
0.1033601896516577
 50
30.5247636472029704
 51
47.2572947001293784
  0
ARC
  5
1FEAD
  8
0
 10
246.6815554416629936
 20
74.5296638472208599
 30
0.0
 40
0.0991200443019192
 50
210.5042093526010945
 51
228.393197394010798
  0
ARC
  5
1FEAE
  8
0
 10
246.5961923515957039
 20
74.4968614882844804
 30
0.0
 40
0.0118214828784833
 50
138.2960669444491941
 51
211.937552119483513
  0
ARC
  5
1FEAF
  8
0
 10
246.7884104637477947
 20
74.6166815882792491
 30
0.0
 40
0.2383268007015241
 50
211.937552119483513
 51
225.7668192520708033
  0
ARC
  5
1FEB0
  8
0
 10
246.6398293384922908
 20
74.4640691926018405
 30
0.0
 40
0.0253317441940126
 50
225.7668192520708033
 51
243.6537603265705911
  0
ARC
  5
1FEB1
  8
0
 10
246.6332037033448898
 20
74.4506904320417959
 30
0.0
 40
0.0104022339800426
 50
243.6537603265417999
 51
303.9935522847603124
  0
ARC
  5
1FEB2
  8
0
 10
246.5653723026763089
 20
74.4676588655449336
 30
0.0
 40
0.0106602681233143
 50
137.0711677221700882
 51
219.4289426812023009
  0
ARC
  5
1FEB3
  8
0
 10
265.273880895990203
 20
89.8508345415854563
 30
0.0
 40
24.2315270500124811
 50
219.4289426812023009
 51
219.5710572981292046
  0
ARC
  5
1FEB4
  8
0
 10
246.6035857346797115
 20
74.4213022356505007
 30
0.0
 40
0.0106602490420025
 50
219.571057298133212
 51
301.9289219560781135
  0
ARC
  5
1FEB5
  8
0
 10
246.7304061254004068
 20
74.6876484290996814
 30
0.0
 40
0.2538376701666257
 50
225.8851723720007101
 51
231.2189100387261078
  0
ARC
  5
1FEB6
  8
0
 10
246.1289401617883073
 20
73.9783149529093862
 30
0.0
 40
0.6762925087470874
 50
39.9289149868003435
 51
49.1359357017267513
  0
ARC
  5
1FEB7
  8
0
 10
246.6248289647483034
 20
74.5245682880334073
 30
0.0
 40
0.0400405492446033
 50
192.6119115518206968
 51
206.7369076834208101
  0
ARC
  5
1FEB8
  8
0
 10
246.5974975857758125
 20
74.5192532707056046
 30
0.0
 40
0.0122330766389615
 50
140.4601893442294056
 51
196.2720118847612127
  0
ARC
  5
1FEB9
  8
0
 10
246.5977148016768865
 20
74.5152975779119231
 30
0.0
 40
0.0152004325530588
 50
86.7484871967658506
 51
129.4144955840307034
  0
ARC
  5
1FEBA
  8
0
 10
246.5972091211988015
 20
74.4824938631355167
 30
0.0
 40
0.0479991708910077
 50
70.3866793808444413
 51
88.3670166885644335
  0
ARC
  5
1FEBB
  8
0
 10
246.5697691535910963
 20
74.4147950187759761
 30
0.0
 40
0.1210211916156669
 50
20.2160753898543817
 51
68.9077972294906402
  0
ARC
  5
1FEBC
  8
0
 10
246.660432625716993
 20
74.4458955140988934
 30
0.0
 40
0.0252869680022534
 50
329.2082714271687109
 51
25.0826156204379487
  0
ARC
  5
1FEBD
  8
0
 10
246.6738363055814887
 20
74.4440545860894645
 30
0.0
 40
0.0138743685194886
 50
247.2760590094750057
 51
306.8392385697641771
  0
ARC
  5
1FEBE
  8
0
 10
246.6981974209180066
 20
74.5118562662046884
 30
0.0
 40
0.085904184394576
 50
230.9023982786023055
 51
249.75869967937561
  0
ARC
  5
1FEBF
  8
0
 10
246.5751984752197075
 20
74.6254111531677893
 30
0.0
 40
0.0970997760997298
 50
211.2551693654889107
 51
217.6588071253677015
  0
ARC
  5
1FEC0
  8
0
 10
246.5039033765856971
 20
74.5821371508515938
 30
0.0
 40
0.0136993544045622
 50
191.5404802595544993
 51
211.2470427170156881
  0
ARC
  5
1FEC1
  8
0
 10
246.4938679487117952
 20
74.5800880352616531
 30
0.0
 40
0.0034568602107274
 50
145.4203571484167128
 51
191.5404802595595868
  0
ARC
  5
1FEC2
  8
0
 10
246.4934409824249997
 20
74.5787097420901262
 30
0.0
 40
0.0041242834315691
 50
83.4123061720592744
 51
125.9142793564402041
  0
ARC
  5
1FEC3
  8
0
 10
246.4850163915249084
 20
74.5373752015132141
 30
0.0
 40
0.0462947028154723
 50
57.6810142711334208
 51
78.9189214382424638
  0
ARC
  5
1FEC4
  8
0
 10
246.405265743029787
 20
74.4038723717471839
 30
0.0
 40
0.201792416977821
 50
27.4303709458280807
 51
58.8108291987928311
  0
ARC
  5
1FEC5
  8
0
 10
246.5815281027826131
 20
74.4904899225631425
 30
0.0
 40
0.0043879237851265
 50
324.7766771232596739
 51
7.8821710236146973
  0
ARC
  5
1FEC6
  8
0
 10
246.5829956271882111
 20
74.4912215480410964
 30
0.0
 40
0.0038891099447568
 50
246.6030516531776868
 51
302.9798738972755814
  0
ARC
  5
1FEC7
  8
0
 10
246.6330785464606947
 20
74.5837731268627522
 30
0.0
 40
0.1091082280453352
 50
224.9341353740533975
 51
241.7594120506039133
  0
LINE
  5
1FEC8
  8
0
 10
246.7852330748729059
 20
74.2764325485775316
 30
0.0
 11
246.7602619643953972
 21
74.2608288668955083
 31
0.0
  0
LINE
  5
1FEC9
  8
0
 10
246.7900579660222888
 20
74.2906399708189156
 30
0.0
 11
246.8299941517016123
 21
74.3155649432245298
 31
0.0
  0
LINE
  5
1FECA
  8
0
 10
246.7000486846945932
 20
74.3511015265423509
 30
0.0
 11
246.7234826349018135
 21
74.3654575447491482
 31
0.0
  0
LINE
  5
1FECB
  8
0
 10
246.7384048987177891
 20
74.3533001395215649
 30
0.0
 11
246.7608407950384048
 21
74.3773855989023787
 31
0.0
  0
LINE
  5
1FECC
  8
0
 10
246.7224541509731921
 20
74.3383446475758376
 30
0.0
 11
246.7086052294052934
 21
74.3234934974128123
 31
0.0
  0
LINE
  5
1FECD
  8
0
 10
246.6489416644521953
 20
74.4142134405120146
 30
0.0
 11
246.6598191479874913
 21
74.425678997439519
 31
0.0
  0
ARC
  5
1FECE
  8
0
 10
246.6567803564830967
 20
74.4068015548554911
 30
0.0
 40
0.0107880091647284
 50
136.6030751747132115
 51
195.1524942240639859
  0
ARC
  5
1FECF
  8
0
 10
246.694684887475006
 20
74.4250047793768204
 30
0.0
 40
0.0526929708073733
 50
203.5140132554973889
 51
221.0595150480858138
  0
ARC
  5
1FED0
  8
0
 10
246.9338128997565036
 20
74.5954668475472999
 30
0.0
 40
0.346147140248042
 50
216.3306879025697924
 51
224.8579614932471884
  0
ARC
  5
1FED1
  8
0
 10
246.6944119294784912
 20
74.3603662598795268
 30
0.0
 40
0.0108447357354948
 50
236.611225034698208
 51
301.3167439434109269
  0
ARC
  5
1FED2
  8
0
 10
246.8437956263819899
 20
74.5193493652688517
 30
0.0
 40
0.2275273118415689
 50
215.1832792263946885
 51
222.494732910696797
  0
ARC
  5
1FED3
  8
0
 10
245.0553215982986899
 20
72.3471342507952215
 30
0.0
 40
2.588648734686104
 50
51.2099368730645779
 51
51.2382732792197402
  0
ARC
  5
1FED4
  8
0
 10
246.672438404966698
 20
74.3635108864783092
 30
0.0
 40
0.0047811573803493
 50
16.2372618752647
 51
37.6941809271356476
  0
ARC
  5
1FED5
  8
0
 10
246.4733962761820862
 20
74.2182052928121152
 30
0.0
 40
0.2512169980914007
 50
36.1601120050269813
 51
42.6549653537256432
  0
ARC
  5
1FED6
  8
0
 10
246.6491099122050059
 20
74.378244185543835
 30
0.0
 40
0.0136175176560398
 50
48.3874740288925977
 51
51.1107614241961912
  0
ARC
  5
1FED7
  8
0
 10
246.6574950671025022
 20
74.3905489252487371
 30
0.0
 40
0.0017132759757246
 50
273.5816214867249982
 51
275.4980601149504764
  0
ARC
  5
1FED8
  8
0
 10
246.6589439342774028
 20
74.3890276348515727
 30
0.0
 40
0.001355032999736
 50
188.0023524993129911
 51
215.0457489441191115
  0
ARC
  5
1FED9
  8
0
 10
246.7669173084233023
 20
74.3042679342874806
 30
0.0
 40
0.000201328117545
 50
225.67063589563611
 51
11.7048217641118608
  0
ARC
  5
1FEDA
  8
0
 10
246.7474007854243894
 20
74.3279689226324649
 30
0.0
 40
0.0002127056461698
 50
59.2093363629573375
 51
192.0866545959108862
  0
ARC
  5
1FEDB
  8
0
 10
246.7462539440294051
 20
74.3252397730994687
 30
0.0
 40
0.0031710962831817
 50
51.4471046508433787
 51
66.6721967736448562
  0
ARC
  5
1FEDC
  8
0
 10
246.6780789782260968
 20
74.251811029539283
 30
0.0
 40
0.1033601896516577
 50
30.5247636472029704
 51
47.2572947001293784
  0
ARC
  5
1FEDD
  8
0
 10
246.8325938194298033
 20
74.378237883344525
 30
0.0
 40
0.0991200443019192
 50
210.5042093526010945
 51
228.393197394010798
  0
ARC
  5
1FEDE
  8
0
 10
246.7472307293623999
 20
74.3454355244081455
 30
0.0
 40
0.0118214828784833
 50
138.2960669444491941
 51
211.937552119483513
  0
ARC
  5
1FEDF
  8
0
 10
246.9394488415146043
 20
74.4652556244029142
 30
0.0
 40
0.2383268007015241
 50
211.937552119483513
 51
225.7668192520708033
  0
ARC
  5
1FEE0
  8
0
 10
246.7908677162591005
 20
74.3126432287255057
 30
0.0
 40
0.0253317441940126
 50
225.7668192520708033
 51
243.6537603265705911
  0
ARC
  5
1FEE1
  8
0
 10
246.7842420811116995
 20
74.299264468165461
 30
0.0
 40
0.0104022339800426
 50
243.6537603265417999
 51
303.9935522847603124
  0
ARC
  5
1FEE2
  8
0
 10
246.7164106804430048
 20
74.3162329016685987
 30
0.0
 40
0.0106602681233143
 50
137.0711677221700882
 51
219.4289426812023009
  0
ARC
  5
1FEE3
  8
0
 10
265.4249192737569842
 20
89.6994085777091357
 30
0.0
 40
24.2315270500124811
 50
219.4289426812023009
 51
219.5710572981292046
  0
ARC
  5
1FEE4
  8
0
 10
246.7546241124460096
 20
74.2698762717741943
 30
0.0
 40
0.0106602490420025
 50
219.571057298133212
 51
301.9289219560781135
  0
ARC
  5
1FEE5
  8
0
 10
246.8814445031667049
 20
74.5362224652233749
 30
0.0
 40
0.2538376701666257
 50
225.8851723720007101
 51
231.2189100387261078
  0
ARC
  5
1FEE6
  8
0
 10
246.2799785395550884
 20
73.8268889890330513
 30
0.0
 40
0.6762925087470874
 50
40.0149438848989121
 51
49.1359357017267513
  0
ARC
  5
1FEE7
  8
0
 10
246.775867342515113
 20
74.3731423241570724
 30
0.0
 40
0.0400405492446033
 50
192.6119115518206968
 51
206.7369076834208101
  0
ARC
  5
1FEE8
  8
0
 10
246.7485359635425084
 20
74.3678273068292697
 30
0.0
 40
0.0122330766389615
 50
140.4601893442294056
 51
196.2720118847612127
  0
ARC
  5
1FEE9
  8
0
 10
246.7487531794436109
 20
74.363871614035574
 30
0.0
 40
0.0152004325530588
 50
86.7484871967658506
 51
129.4144955840307034
  0
ARC
  5
1FEEA
  8
0
 10
246.7482474989652133
 20
74.3310678992591818
 30
0.0
 40
0.0479991708910077
 50
70.3866793808444413
 51
88.3670166885644335
  0
ARC
  5
1FEEB
  8
0
 10
246.7208075313579059
 20
74.2633690548996412
 30
0.0
 40
0.1210211916156669
 50
20.2160753898543817
 51
68.9077972294906402
  0
ARC
  5
1FEEC
  8
0
 10
246.8114710034838026
 20
74.2944695502225727
 30
0.0
 40
0.0252869680022534
 50
329.2082714271687109
 51
25.0826156204379487
  0
ARC
  5
1FEED
  8
0
 10
246.8248746833482983
 20
74.2926286222131296
 30
0.0
 40
0.0138743685194886
 50
247.2760590094750057
 51
306.8392385697641771
  0
ARC
  5
1FEEE
  8
0
 10
246.8492357986847878
 20
74.3604303023283535
 30
0.0
 40
0.085904184394576
 50
230.9023982786023055
 51
249.75869967937561
  0
ARC
  5
1FEEF
  8
0
 10
246.7262368529864034
 20
74.4739851892914544
 30
0.0
 40
0.0970997760997298
 50
211.2551693654889107
 51
217.6588071253677015
  0
ARC
  5
1FEF0
  8
0
 10
246.6549417543525067
 20
74.4307111869752589
 30
0.0
 40
0.0136993544045622
 50
191.5404802595544993
 51
211.2470427170156881
  0
ARC
  5
1FEF1
  8
0
 10
246.6449063264786048
 20
74.4286620713853324
 30
0.0
 40
0.0034568602107274
 50
145.4203571484167128
 51
191.5404802595595868
  0
ARC
  5
1FEF2
  8
0
 10
246.6444793601918093
 20
74.4272837782137913
 30
0.0
 40
0.0041242834315691
 50
83.4123061720592744
 51
125.9142793564402041
  0
ARC
  5
1FEF3
  8
0
 10
246.6360547692916043
 20
74.385949237636865
 30
0.0
 40
0.0462947028154723
 50
57.6810142711334208
 51
78.9189214382424638
  0
ARC
  5
1FEF4
  8
0
 10
246.5563041207965966
 20
74.2524464078708348
 30
0.0
 40
0.201792416977821
 50
27.4303709458280807
 51
58.8108291987928311
  0
ARC
  5
1FEF5
  8
0
 10
246.7325664805493943
 20
74.3390639586868076
 30
0.0
 40
0.0043879237851265
 50
324.7766771232596739
 51
7.8821710236146973
  0
ARC
  5
1FEF6
  8
0
 10
246.7340340049549923
 20
74.3397955841647899
 30
0.0
 40
0.0038891099447568
 50
246.6030516531776868
 51
302.9798738972755814
  0
ARC
  5
1FEF7
  8
0
 10
246.7841169242273907
 20
74.4323471629864173
 30
0.0
 40
0.1091082280453352
 50
224.9341353740533975
 51
241.7594120506039133
  0
LINE
  5
1FEF8
  8
0
 10
246.9358202128410937
 20
74.1261316917731108
 30
0.0
 11
246.9108491023631018
 21
74.1105280100910448
 31
0.0
  0
LINE
  5
1FEF9
  8
0
 10
246.9406451039903914
 20
74.1403391140144663
 30
0.0
 11
246.9805812896698001
 21
74.1652640864201089
 31
0.0
  0
LINE
  5
1FEFA
  8
0
 10
246.8506358226628095
 20
74.2008006697379301
 30
0.0
 11
246.8740697728700013
 21
74.2151566879447273
 31
0.0
  0
LINE
  5
1FEFB
  8
0
 10
246.8889920366860053
 20
74.2029992827171441
 30
0.0
 11
246.9114279330065074
 21
74.2270847420979436
 31
0.0
  0
LINE
  5
1FEFC
  8
0
 10
246.8730412889412946
 20
74.1880437907713883
 30
0.0
 11
246.8591923673735096
 21
74.1731926406083915
 31
0.0
  0
LINE
  5
1FEFD
  8
0
 10
246.7995288024204115
 20
74.2639125837075937
 30
0.0
 11
246.8104062859557075
 21
74.2753781406350697
 31
0.0
  0
ARC
  5
1FEFE
  8
0
 10
246.8073674944508014
 20
74.2565006980510702
 30
0.0
 40
0.0107880091647284
 50
136.6030751747132115
 51
195.1524942240639859
  0
ARC
  5
1FEFF
  8
0
 10
246.8452720254427106
 20
74.2747039225723711
 30
0.0
 40
0.0526929708073733
 50
203.5140132554973889
 51
221.0595150480858138
  0
ARC
  5
1FF00
  8
0
 10
247.0844000377246914
 20
74.4451659907428507
 30
0.0
 40
0.346147140248042
 50
216.3306879025697924
 51
224.8579614932471884
  0
ARC
  5
1FF01
  8
0
 10
246.8449990674467074
 20
74.2100654030751059
 30
0.0
 40
0.0108447357354948
 50
236.611225034698208
 51
301.3167439434109269
  0
ARC
  5
1FF02
  8
0
 10
246.9943827643500924
 20
74.3690485084644308
 30
0.0
 40
0.2275273118415689
 50
215.1832792263946885
 51
222.494732910696797
  0
ARC
  5
1FF03
  8
0
 10
245.2059087362663092
 20
72.1968333939907723
 30
0.0
 40
2.588648734686104
 50
51.2099368730645779
 51
51.2382732792197402
  0
ARC
  5
1FF04
  8
0
 10
246.8230255429348006
 20
74.2132100296738741
 30
0.0
 40
0.0047811573803493
 50
16.2372618752647
 51
37.6941809271356476
  0
ARC
  5
1FF05
  8
0
 10
246.6239834141501888
 20
74.0679044360076944
 30
0.0
 40
0.2512169980914007
 50
36.1601120050269813
 51
42.6549653537256432
  0
ARC
  5
1FF06
  8
0
 10
246.7996970501731084
 20
74.2279433287394284
 30
0.0
 40
0.0136175176560398
 50
48.3874740288925977
 51
51.1107614241961912
  0
ARC
  5
1FF07
  8
0
 10
246.8080822050706047
 20
74.2402480684442736
 30
0.0
 40
0.0017132759757246
 50
273.5816214867249982
 51
275.4980601149504764
  0
ARC
  5
1FF08
  8
0
 10
246.8095310722455906
 20
74.2387267780471518
 30
0.0
 40
0.001355032999736
 50
188.0023524993129911
 51
215.0457489441191115
  0
ARC
  5
1FF09
  8
0
 10
246.9175044463908932
 20
74.1539670774830597
 30
0.0
 40
0.000201328117545
 50
225.67063589563611
 51
11.7048217641118608
  0
ARC
  5
1FF0A
  8
0
 10
246.897987923392094
 20
74.1776680658280441
 30
0.0
 40
0.0002127056461698
 50
59.2093363629573375
 51
192.0866545959108862
  0
ARC
  5
1FF0B
  8
0
 10
246.8968410819975929
 20
74.1749389162950337
 30
0.0
 40
0.0031710962831817
 50
51.4471046508433787
 51
66.6721967736448562
  0
ARC
  5
1FF0C
  8
0
 10
246.8286661161938014
 20
74.1015101727348622
 30
0.0
 40
0.1033601896516577
 50
30.5247636472029704
 51
47.2572947001293784
  0
ARC
  5
1FF0D
  8
0
 10
246.9831809573979911
 20
74.2279370265400757
 30
0.0
 40
0.0991200443019192
 50
210.5042093526010945
 51
228.393197394010798
  0
ARC
  5
1FF0E
  8
0
 10
246.8978178673305877
 20
74.1951346676037247
 30
0.0
 40
0.0118214828784833
 50
138.2960669444491941
 51
211.937552119483513
  0
ARC
  5
1FF0F
  8
0
 10
247.0900359794827921
 20
74.3149547675984934
 30
0.0
 40
0.2383268007015241
 50
211.937552119483513
 51
225.7668192520708033
  0
ARC
  5
1FF10
  8
0
 10
246.9414548542268051
 20
74.1623423719210564
 30
0.0
 40
0.0253317441940126
 50
225.7668192520708033
 51
243.6537603265705911
  0
ARC
  5
1FF11
  8
0
 10
246.934829219079802
 20
74.1489636113610118
 30
0.0
 40
0.0104022339800426
 50
243.6537603265417999
 51
303.9935522847603124
  0
ARC
  5
1FF12
  8
0
 10
246.8669978184111926
 20
74.1659320448641637
 30
0.0
 40
0.0106602681233143
 50
137.0711677221700882
 51
219.4289426812023009
  0
ARC
  5
1FF13
  8
0
 10
265.5755064117248025
 20
89.5491077209047148
 30
0.0
 40
24.2315270500124811
 50
219.4289426812023009
 51
219.5710572981292046
  0
ARC
  5
1FF14
  8
0
 10
246.9052112504141974
 20
74.119575414969745
 30
0.0
 40
0.0106602490420025
 50
219.571057298133212
 51
301.9289219560781135
  0
ARC
  5
1FF15
  8
0
 10
247.0320316411348927
 20
74.3859216084189256
 30
0.0
 40
0.2538376701666257
 50
225.8851723720007101
 51
231.2189100387261078
  0
ARC
  5
1FF16
  8
0
 10
246.4305656775227078
 20
73.6765881322286305
 30
0.0
 40
0.6762925087470874
 50
40.0486209893276026
 51
49.1359357017267513
  0
ARC
  5
1FF17
  8
0
 10
246.9264544804833008
 20
74.2228414673526515
 30
0.0
 40
0.0400405492446033
 50
192.6119115518206968
 51
206.7369076834208101
  0
ARC
  5
1FF18
  8
0
 10
246.899123101510213
 20
74.2175264500248346
 30
0.0
 40
0.0122330766389615
 50
140.4601893442294056
 51
196.2720118847612127
  0
ARC
  5
1FF19
  8
0
 10
246.8993403174112871
 20
74.2135707572311389
 30
0.0
 40
0.0152004325530588
 50
86.7484871967658506
 51
129.4144955840307034
  0
ARC
  5
1FF1A
  8
0
 10
246.898834636933401
 20
74.1807670424547609
 30
0.0
 40
0.0479991708910077
 50
70.3866793808444413
 51
88.3670166885644335
  0
ARC
  5
1FF1B
  8
0
 10
246.8713946693260937
 20
74.1130681980952204
 30
0.0
 40
0.1210211916156669
 50
20.2160753898543817
 51
68.9077972294906402
  0
ARC
  5
1FF1C
  8
0
 10
246.9620581414519904
 20
74.1441686934181519
 30
0.0
 40
0.0252869680022534
 50
329.2082714271687109
 51
25.0826156204379487
  0
ARC
  5
1FF1D
  8
0
 10
246.9754618213160029
 20
74.1423277654086803
 30
0.0
 40
0.0138743685194886
 50
247.2760590094750057
 51
306.8392385697641771
  0
ARC
  5
1FF1E
  8
0
 10
246.9998229366528903
 20
74.2101294455239326
 30
0.0
 40
0.085904184394576
 50
230.9023982786023055
 51
249.75869967937561
  0
ARC
  5
1FF1F
  8
0
 10
246.8768239909545912
 20
74.3236843324870335
 30
0.0
 40
0.0970997760997298
 50
211.2551693654889107
 51
217.6588071253677015
  0
ARC
  5
1FF20
  8
0
 10
246.8055288923206092
 20
74.2804103301708381
 30
0.0
 40
0.0136993544045622
 50
191.5404802595544993
 51
211.2470427170156881
  0
ARC
  5
1FF21
  8
0
 10
246.7954934644467926
 20
74.2783612145809116
 30
0.0
 40
0.0034568602107274
 50
145.4203571484167128
 51
191.5404802595595868
  0
ARC
  5
1FF22
  8
0
 10
246.7950664981599971
 20
74.2769829214093704
 30
0.0
 40
0.0041242834315691
 50
83.4123061720592744
 51
125.9142793564402041
  0
ARC
  5
1FF23
  8
0
 10
246.7866419072597921
 20
74.2356483808324583
 30
0.0
 40
0.0462947028154723
 50
57.6810142711334208
 51
78.9189214382424638
  0
ARC
  5
1FF24
  8
0
 10
246.7068912587643013
 20
74.1021455510664282
 30
0.0
 40
0.201792416977821
 50
27.4303709458280807
 51
58.8108291987928311
  0
ARC
  5
1FF25
  8
0
 10
246.8831536185170989
 20
74.1887631018823583
 30
0.0
 40
0.0043879237851265
 50
324.7766771232596739
 51
7.8821710236146973
  0
ARC
  5
1FF26
  8
0
 10
246.8846211429232085
 20
74.1894947273603407
 30
0.0
 40
0.0038891099447568
 50
246.6030516531776868
 51
302.9798738972755814
  0
ARC
  5
1FF27
  8
0
 10
246.9347040621956069
 20
74.2820463061819964
 30
0.0
 40
0.1091082280453352
 50
224.9341353740533975
 51
241.7594120506039133
  0
LINE
  5
1FF28
  8
0
 10
247.0858161681985905
 20
73.9755718627401961
 30
0.0
 11
247.0608450577205986
 21
73.9599681810581444
 31
0.0
  0
LINE
  5
1FF29
  8
0
 10
247.0906410593474902
 20
73.9897792849815517
 30
0.0
 11
247.1305772450268989
 21
74.0147042573871659
 31
0.0
  0
LINE
  5
1FF2A
  8
0
 10
247.0006317780199083
 20
74.0502408407050154
 30
0.0
 11
247.0240657282269865
 21
74.0645968589118127
 31
0.0
  0
LINE
  5
1FF2B
  8
0
 10
247.0389879920435874
 20
74.0524394536842294
 30
0.0
 11
247.0614238883636062
 21
74.0765249130650432
 31
0.0
  0
LINE
  5
1FF2C
  8
0
 10
247.0230372442989051
 20
74.0374839617384737
 30
0.0
 11
247.0091883227310063
 21
74.0226328115754768
 31
0.0
  0
LINE
  5
1FF2D
  8
0
 10
246.9495247577775103
 20
74.1133527546746791
 30
0.0
 11
246.9604022413128064
 21
74.1248183116021551
 31
0.0
  0
ARC
  5
1FF2E
  8
0
 10
246.9573634498082981
 20
74.1059408690181556
 30
0.0
 40
0.0107880091647284
 50
136.6030751747132115
 51
195.1524942240639859
  0
ARC
  5
1FF2F
  8
0
 10
246.9952679808002074
 20
74.1241440935394564
 30
0.0
 40
0.0526929708073733
 50
203.5140132554973889
 51
221.0595150480858138
  0
ARC
  5
1FF30
  8
0
 10
247.2343959930821882
 20
74.294606161709936
 30
0.0
 40
0.346147140248042
 50
216.3306879025697924
 51
224.8579614932471884
  0
ARC
  5
1FF31
  8
0
 10
246.9949950228042894
 20
74.0595055740421913
 30
0.0
 40
0.0108447357354948
 50
236.611225034698208
 51
301.3167439434109269
  0
ARC
  5
1FF32
  8
0
 10
247.1443787197077029
 20
74.2184886794315162
 30
0.0
 40
0.2275273118415689
 50
215.1832792263946885
 51
222.494732910696797
  0
ARC
  5
1FF33
  8
0
 10
245.3559046916238913
 20
72.0462735649578576
 30
0.0
 40
2.588648734686104
 50
51.2099368730645779
 51
51.2382732792197402
  0
ARC
  5
1FF34
  8
0
 10
246.973021498292411
 20
74.0626502006409737
 30
0.0
 40
0.0047811573803493
 50
16.2372618752647
 51
37.6941809271356476
  0
ARC
  5
1FF35
  8
0
 10
246.7739793695072876
 20
73.9173446069747513
 30
0.0
 40
0.2512169980914007
 50
36.1601120050269813
 51
42.6549653537256432
  0
ARC
  5
1FF36
  8
0
 10
246.9496930055306905
 20
74.0773834997065137
 30
0.0
 40
0.0136175176560398
 50
48.3874740288925977
 51
51.1107614241961912
  0
ARC
  5
1FF37
  8
0
 10
246.9580781604277036
 20
74.0896882394113732
 30
0.0
 40
0.0017132759757246
 50
273.5816214867249982
 51
275.4980601149504764
  0
ARC
  5
1FF38
  8
0
 10
246.9595270276026895
 20
74.0881669490142372
 30
0.0
 40
0.001355032999736
 50
188.0023524993129911
 51
215.0457489441191115
  0
ARC
  5
1FF39
  8
0
 10
247.0675004017485037
 20
74.0034072484501451
 30
0.0
 40
0.000201328117545
 50
225.67063589563611
 51
11.7048217641118608
  0
ARC
  5
1FF3A
  8
0
 10
247.0479838787495908
 20
74.0271082367951152
 30
0.0
 40
0.0002127056461698
 50
59.2093363629573375
 51
192.0866545959108862
  0
ARC
  5
1FF3B
  8
0
 10
247.0468370373546918
 20
74.0243790872621048
 30
0.0
 40
0.0031710962831817
 50
51.4471046508433787
 51
66.6721967736448562
  0
ARC
  5
1FF3C
  8
0
 10
246.9786620715512981
 20
73.9509503437019475
 30
0.0
 40
0.1033601896516577
 50
30.5247636472029704
 51
47.2572947001293784
  0
ARC
  5
1FF3D
  8
0
 10
247.1331769127550899
 20
74.0773771975071611
 30
0.0
 40
0.0991200443019192
 50
210.5042093526010945
 51
228.393197394010798
  0
ARC
  5
1FF3E
  8
0
 10
247.0478138226876865
 20
74.04457483857081
 30
0.0
 40
0.0118214828784833
 50
138.2960669444491941
 51
211.937552119483513
  0
ARC
  5
1FF3F
  8
0
 10
247.2400319348398909
 20
74.1643949385655645
 30
0.0
 40
0.2383268007015241
 50
211.937552119483513
 51
225.7668192520708033
  0
ARC
  5
1FF40
  8
0
 10
247.0914508095843871
 20
74.0117825428881417
 30
0.0
 40
0.0253317441940126
 50
225.7668192520708033
 51
243.6537603265705911
  0
ARC
  5
1FF41
  8
0
 10
247.0848251744369009
 20
73.9984037823281255
 30
0.0
 40
0.0104022339800426
 50
243.6537603265417999
 51
303.9935522847603124
  0
ARC
  5
1FF42
  8
0
 10
247.0169937737682915
 20
74.0153722158312348
 30
0.0
 40
0.0106602681233143
 50
137.0711677221700882
 51
219.4289426812023009
  0
ARC
  5
1FF43
  8
0
 10
265.7255023670822993
 20
89.398547891871786
 30
0.0
 40
24.2315270500124811
 50
219.4289426812023009
 51
219.5710572981292046
  0
ARC
  5
1FF44
  8
0
 10
247.0552072057716941
 20
73.9690155859368303
 30
0.0
 40
0.0106602490420025
 50
219.571057298133212
 51
301.9289219560781135
  0
ARC
  5
1FF45
  8
0
 10
247.1820275964923894
 20
74.235361779386011
 30
0.0
 40
0.2538376701666257
 50
225.8851723720007101
 51
231.2189100387261078
  0
ARC
  5
1FF46
  8
0
 10
246.5805616328802898
 20
73.5260283031957158
 30
0.0
 40
0.6762925087470874
 50
40.0224123235809017
 51
49.1359357017267513
  0
ARC
  5
1FF47
  8
0
 10
247.0764504358403997
 20
74.0722816383197369
 30
0.0
 40
0.0400405492446033
 50
192.6119115518206968
 51
206.7369076834208101
  0
ARC
  5
1FF48
  8
0
 10
247.0491190568677951
 20
74.0669666209919342
 30
0.0
 40
0.0122330766389615
 50
140.4601893442294056
 51
196.2720118847612127
  0
ARC
  5
1FF49
  8
0
 10
247.0493362727688975
 20
74.0630109281982243
 30
0.0
 40
0.0152004325530588
 50
86.7484871967658506
 51
129.4144955840307034
  0
ARC
  5
1FF4A
  8
0
 10
247.0488305922903862
 20
74.0302072134218179
 30
0.0
 40
0.0479991708910077
 50
70.3866793808444413
 51
88.3670166885644335
  0
ARC
  5
1FF4B
  8
0
 10
247.0213906246831925
 20
73.9625083690622773
 30
0.0
 40
0.1210211916156669
 50
20.2160753898543817
 51
68.9077972294906402
  0
ARC
  5
1FF4C
  8
0
 10
247.1120540968090893
 20
73.9936088643852372
 30
0.0
 40
0.0252869680022534
 50
329.2082714271687109
 51
25.0826156204379487
  0
ARC
  5
1FF4D
  8
0
 10
247.1254577766736134
 20
73.9917679363757657
 30
0.0
 40
0.0138743685194886
 50
247.2760590094750057
 51
306.8392385697641771
  0
ARC
  5
1FF4E
  8
0
 10
247.1498188920099892
 20
74.059569616491018
 30
0.0
 40
0.085904184394576
 50
230.9023982786023055
 51
249.75869967937561
  0
ARC
  5
1FF4F
  8
0
 10
247.02681994631169
 20
74.1731245034541189
 30
0.0
 40
0.0970997760997298
 50
211.2551693654889107
 51
217.6588071253677015
  0
ARC
  5
1FF50
  8
0
 10
246.9555248476777081
 20
74.1298505011379234
 30
0.0
 40
0.0136993544045622
 50
191.5404802595544993
 51
211.2470427170156881
  0
ARC
  5
1FF51
  8
0
 10
246.9454894198038062
 20
74.1278013855479685
 30
0.0
 40
0.0034568602107274
 50
145.4203571484167128
 51
191.5404802595595868
  0
ARC
  5
1FF52
  8
0
 10
246.9450624535170959
 20
74.1264230923764558
 30
0.0
 40
0.0041242834315691
 50
83.4123061720592744
 51
125.9142793564402041
  0
ARC
  5
1FF53
  8
0
 10
246.936637862616891
 20
74.0850885517995437
 30
0.0
 40
0.0462947028154723
 50
57.6810142711334208
 51
78.9189214382424638
  0
ARC
  5
1FF54
  8
0
 10
246.856887214121798
 20
73.9515857220334851
 30
0.0
 40
0.201792416977821
 50
27.4303709458280807
 51
58.8108291987928311
  0
ARC
  5
1FF55
  8
0
 10
247.0331495738747094
 20
74.0382032728494437
 30
0.0
 40
0.0043879237851265
 50
324.7766771232596739
 51
7.8821710236146973
  0
ARC
  5
1FF56
  8
0
 10
247.0346170982803073
 20
74.038934898327426
 30
0.0
 40
0.0038891099447568
 50
246.6030516531776868
 51
302.9798738972755814
  0
ARC
  5
1FF57
  8
0
 10
247.0847000175527057
 20
74.1314864771490534
 30
0.0
 40
0.1091082280453352
 50
224.9341353740533975
 51
241.7594120506039133
  0
LINE
  5
1FF58
  8
0
 10
247.2361365586984903
 20
73.82497680559743
 30
0.0
 11
247.211165448220612
 21
73.8093731239153641
 31
0.0
  0
LINE
  5
1FF59
  8
0
 10
247.2409614498479016
 20
73.8391842278387855
 30
0.0
 11
247.2808976355267987
 21
73.8641092002443997
 31
0.0
  0
LINE
  5
1FF5A
  8
0
 10
247.1509521685202913
 20
73.8996457835622493
 30
0.0
 11
247.1743861187269999
 21
73.9140018017690466
 31
0.0
  0
LINE
  5
1FF5B
  8
0
 10
247.1893083825434871
 20
73.9018443965414633
 30
0.0
 11
247.2117442788639892
 21
73.9259298559222771
 31
0.0
  0
LINE
  5
1FF5C
  8
0
 10
247.1733576347988048
 20
73.8868889045957076
 30
0.0
 11
247.1595087132309914
 21
73.8720377544327107
 31
0.0
  0
LINE
  5
1FF5D
  8
0
 10
247.099845148277808
 20
73.962757697531913
 30
0.0
 11
247.1107226318127061
 21
73.974223254459389
 31
0.0
  0
ARC
  5
1FF5E
  8
0
 10
247.1076838403083116
 20
73.9553458118753895
 30
0.0
 40
0.0107880091647284
 50
136.6030751747132115
 51
195.1524942240639859
  0
ARC
  5
1FF5F
  8
0
 10
247.1455883713001924
 20
73.9735490363966903
 30
0.0
 40
0.0526929708073733
 50
203.5140132554973889
 51
221.0595150480858138
  0
ARC
  5
1FF60
  8
0
 10
247.3847163835822016
 20
74.1440111045671699
 30
0.0
 40
0.346147140248042
 50
216.3306879025697924
 51
224.8579614932471884
  0
ARC
  5
1FF61
  8
0
 10
247.1453154133041892
 20
73.9089105168994251
 30
0.0
 40
0.0108447357354948
 50
236.611225034698208
 51
301.3167439434109269
  0
ARC
  5
1FF62
  8
0
 10
247.2946991102076026
 20
74.0678936222887501
 30
0.0
 40
0.2275273118415689
 50
215.1832792263946885
 51
222.494732910696797
  0
ARC
  5
1FF63
  8
0
 10
245.5062250821239047
 20
71.8956785078150915
 30
0.0
 40
2.588648734686104
 50
51.2099368730645779
 51
51.2382732792197402
  0
ARC
  5
1FF64
  8
0
 10
247.1233418887923108
 20
73.9120551434981934
 30
0.0
 40
0.0047811573803493
 50
16.2372618752647
 51
37.6941809271356476
  0
ARC
  5
1FF65
  8
0
 10
246.9242997600073011
 20
73.7667495498320136
 30
0.0
 40
0.2512169980914007
 50
36.1601120050269813
 51
42.6549653537256432
  0
ARC
  5
1FF66
  8
0
 10
247.1000133960305902
 20
73.9267884425637476
 30
0.0
 40
0.0136175176560398
 50
48.3874740288925977
 51
51.1107614241961912
  0
ARC
  5
1FF67
  8
0
 10
247.1083985509276033
 20
73.9390931822686071
 30
0.0
 40
0.0017132759757246
 50
273.5816214867249982
 51
275.4980601149504764
  0
ARC
  5
1FF68
  8
0
 10
247.1098474181031008
 20
73.9375718918714711
 30
0.0
 40
0.001355032999736
 50
188.0023524993129911
 51
215.0457489441191115
  0
ARC
  5
1FF69
  8
0
 10
247.2178207922484034
 20
73.852812191307379
 30
0.0
 40
0.000201328117545
 50
225.67063589563611
 51
11.7048217641118608
  0
ARC
  5
1FF6A
  8
0
 10
247.1983042692496042
 20
73.8765131796523633
 30
0.0
 40
0.0002127056461698
 50
59.2093363629573375
 51
192.0866545959108862
  0
ARC
  5
1FF6B
  8
0
 10
247.1971574278549895
 20
73.8737840301193529
 30
0.0
 40
0.0031710962831817
 50
51.4471046508433787
 51
66.6721967736448562
  0
ARC
  5
1FF6C
  8
0
 10
247.1289824620511979
 20
73.8003552865591814
 30
0.0
 40
0.1033601896516577
 50
30.5247636472029704
 51
47.2572947001293784
  0
ARC
  5
1FF6D
  8
0
 10
247.2834973032549897
 20
73.926782140364395
 30
0.0
 40
0.0991200443019192
 50
210.5042093526010945
 51
228.393197394010798
  0
ARC
  5
1FF6E
  8
0
 10
247.1981342131880979
 20
73.8939797814280439
 30
0.0
 40
0.0118214828784833
 50
138.2960669444491941
 51
211.937552119483513
  0
ARC
  5
1FF6F
  8
0
 10
247.3903523253403023
 20
74.0137998814228126
 30
0.0
 40
0.2383268007015241
 50
211.937552119483513
 51
225.7668192520708033
  0
ARC
  5
1FF70
  8
0
 10
247.2417712000842869
 20
73.861187485745404
 30
0.0
 40
0.0253317441940126
 50
225.7668192520708033
 51
243.6537603265705911
  0
ARC
  5
1FF71
  8
0
 10
247.2351455649368859
 20
73.847808725185331
 30
0.0
 40
0.0104022339800426
 50
243.6537603265417999
 51
303.9935522847603124
  0
ARC
  5
1FF72
  8
0
 10
247.1673141642687028
 20
73.8647771586884687
 30
0.0
 40
0.0106602681233143
 50
137.0711677221700882
 51
219.4289426812023009
  0
ARC
  5
1FF73
  8
0
 10
265.8758227575822275
 20
89.2479528347290056
 30
0.0
 40
24.2315270500124811
 50
219.4289426812023009
 51
219.5710572981292046
  0
ARC
  5
1FF74
  8
0
 10
247.2055275962715939
 20
73.8184205287940642
 30
0.0
 40
0.0106602490420025
 50
219.571057298133212
 51
301.9289219560781135
  0
ARC
  5
1FF75
  8
0
 10
247.3323479869922892
 20
74.0847667222432449
 30
0.0
 40
0.2538376701666257
 50
225.8851723720007101
 51
231.2189100387261078
  0
ARC
  5
1FF76
  8
0
 10
246.7308820233803033
 20
73.3754332460529497
 30
0.0
 40
0.6762925087470874
 50
40.0320649908887134
 51
49.1359357017267513
  0
ARC
  5
1FF77
  8
0
 10
247.2267708263406973
 20
73.9216865811769708
 30
0.0
 40
0.0400405492446033
 50
192.6119115518206968
 51
206.7369076834208101
  0
ARC
  5
1FF78
  8
0
 10
247.1994394473676948
 20
73.9163715638491539
 30
0.0
 40
0.0122330766389615
 50
140.4601893442294056
 51
196.2720118847612127
  0
ARC
  5
1FF79
  8
0
 10
247.1996566632687973
 20
73.9124158710554582
 30
0.0
 40
0.0152004325530588
 50
86.7484871967658506
 51
129.4144955840307034
  0
ARC
  5
1FF7A
  8
0
 10
247.1991509827907976
 20
73.8796121562790802
 30
0.0
 40
0.0479991708910077
 50
70.3866793808444413
 51
88.3670166885644335
  0
ARC
  5
1FF7B
  8
0
 10
247.1717110151836039
 20
73.8119133119195112
 30
0.0
 40
0.1210211916156669
 50
20.2160753898543817
 51
68.9077972294906402
  0
ARC
  5
1FF7C
  8
0
 10
247.262374487308989
 20
73.8430138072424711
 30
0.0
 40
0.0252869680022534
 50
329.2082714271687109
 51
25.0826156204379487
  0
ARC
  5
1FF7D
  8
0
 10
247.2757781671735131
 20
73.8411728792329995
 30
0.0
 40
0.0138743685194886
 50
247.2760590094750057
 51
306.8392385697641771
  0
ARC
  5
1FF7E
  8
0
 10
247.3001392825104006
 20
73.9089745593482235
 30
0.0
 40
0.085904184394576
 50
230.9023982786023055
 51
249.75869967937561
  0
ARC
  5
1FF7F
  8
0
 10
247.1771403368121014
 20
74.0225294463113528
 30
0.0
 40
0.0970997760997298
 50
211.2551693654889107
 51
217.6588071253677015
  0
ARC
  5
1FF80
  8
0
 10
247.105845238178091
 20
73.9792554439951147
 30
0.0
 40
0.0136993544045622
 50
191.5404802595544993
 51
211.2470427170156881
  0
ARC
  5
1FF81
  8
0
 10
247.0958098103043028
 20
73.9772063284052024
 30
0.0
 40
0.0034568602107274
 50
145.4203571484167128
 51
191.5404802595595868
  0
ARC
  5
1FF82
  8
0
 10
247.0953828440173936
 20
73.9758280352336897
 30
0.0
 40
0.0041242834315691
 50
83.4123061720592744
 51
125.9142793564402041
  0
ARC
  5
1FF83
  8
0
 10
247.0869582531173023
 20
73.9344934946567776
 30
0.0
 40
0.0462947028154723
 50
57.6810142711334208
 51
78.9189214382424638
  0
ARC
  5
1FF84
  8
0
 10
247.0072076046218115
 20
73.800990664890719
 30
0.0
 40
0.201792416977821
 50
27.4303709458280807
 51
58.8108291987928311
  0
ARC
  5
1FF85
  8
0
 10
247.1834699643746092
 20
73.8876082157066634
 30
0.0
 40
0.0043879237851265
 50
324.7766771232596739
 51
7.8821710236146973
  0
ARC
  5
1FF86
  8
0
 10
247.1849374887806903
 20
73.8883398411846599
 30
0.0
 40
0.0038891099447568
 50
246.6030516531776868
 51
302.9798738972755814
  0
ARC
  5
1FF87
  8
0
 10
247.2350204080530887
 20
73.9808914200062731
 30
0.0
 40
0.1091082280453352
 50
224.9341353740533975
 51
241.7594120506039133
  0
LINE
  5
1FF88
  8
0
 10
247.3857394866682
 20
73.6735244375497302
 30
0.0
 11
247.3607683761902081
 21
73.6579207558677069
 31
0.0
  0
LINE
  5
1FF89
  8
0
 10
247.3905643778176113
 20
73.6877318597910858
 30
0.0
 11
247.4305005634965084
 21
73.7126568321967284
 31
0.0
  0
LINE
  5
1FF8A
  8
0
 10
247.300555096490001
 20
73.7481934155145495
 30
0.0
 11
247.3239890466967097
 21
73.7625494337213468
 31
0.0
  0
LINE
  5
1FF8B
  8
0
 10
247.3389113105131116
 20
73.7503920284937635
 30
0.0
 11
247.3613472068336989
 21
73.7744774878745631
 31
0.0
  0
LINE
  5
1FF8C
  8
0
 10
247.3229605627684862
 20
73.7354365365480078
 30
0.0
 11
247.3091116412005874
 21
73.7205853863850109
 31
0.0
  0
LINE
  5
1FF8D
  8
0
 10
247.2494480762474893
 20
73.8113053294842132
 30
0.0
 11
247.2603255597823875
 21
73.8227708864116892
 31
0.0
  0
ARC
  5
1FF8E
  8
0
 10
247.2572867682779929
 20
73.8038934438276897
 30
0.0
 40
0.0107880091647284
 50
136.6030751747132115
 51
195.1524942240639859
  0
ARC
  5
1FF8F
  8
0
 10
247.2951912992699022
 20
73.8220966683489905
 30
0.0
 40
0.0526929708073733
 50
203.5140132554973889
 51
221.0595150480858138
  0
ARC
  5
1FF90
  8
0
 10
247.5343193115519114
 20
73.9925587365194701
 30
0.0
 40
0.346147140248042
 50
216.3306879025697924
 51
224.8579614932471884
  0
ARC
  5
1FF91
  8
0
 10
247.2949183412738989
 20
73.7574581488517254
 30
0.0
 40
0.0108447357354948
 50
236.611225034698208
 51
301.3167439434109269
  0
ARC
  5
1FF92
  8
0
 10
247.4443020381773124
 20
73.9164412542410503
 30
0.0
 40
0.2275273118415689
 50
215.1832792263946885
 51
222.494732910696797
  0
ARC
  5
1FF93
  8
0
 10
245.6558280100935008
 20
71.7442261397673917
 30
0.0
 40
2.588648734686104
 50
51.2099368730645779
 51
51.2382732792197402
  0
ARC
  5
1FF94
  8
0
 10
247.2729448167619921
 20
73.7606027754504936
 30
0.0
 40
0.0047811573803493
 50
16.2372618752647
 51
37.6941809271356476
  0
ARC
  5
1FF95
  8
0
 10
247.0739026879768971
 20
73.6152971817843138
 30
0.0
 40
0.2512169980914007
 50
36.1601120050269813
 51
42.6549653537256432
  0
ARC
  5
1FF96
  8
0
 10
247.2496163240003
 20
73.7753360745160478
 30
0.0
 40
0.0136175176560398
 50
48.3874740288925977
 51
51.1107614241961912
  0
ARC
  5
1FF97
  8
0
 10
247.2580014788973131
 20
73.787640814220893
 30
0.0
 40
0.0017132759757246
 50
273.5816214867249982
 51
275.4980601149504764
  0
ARC
  5
1FF98
  8
0
 10
247.2594503460728106
 20
73.7861195238237713
 30
0.0
 40
0.001355032999736
 50
188.0023524993129911
 51
215.0457489441191115
  0
ARC
  5
1FF99
  8
0
 10
247.3674237202181132
 20
73.7013598232596792
 30
0.0
 40
0.000201328117545
 50
225.67063589563611
 51
11.7048217641118608
  0
ARC
  5
1FF9A
  8
0
 10
247.3479071972192003
 20
73.7250608116046635
 30
0.0
 40
0.0002127056461698
 50
59.2093363629573375
 51
192.0866545959108862
  0
ARC
  5
1FF9B
  8
0
 10
247.3467603558246992
 20
73.7223316620716531
 30
0.0
 40
0.0031710962831817
 50
51.4471046508433787
 51
66.6721967736448562
  0
ARC
  5
1FF9C
  8
0
 10
247.2785853900209077
 20
73.6489029185114816
 30
0.0
 40
0.1033601896516577
 50
30.5247636472029704
 51
47.2572947001293784
  0
ARC
  5
1FF9D
  8
0
 10
247.4331002312246994
 20
73.7753297723166952
 30
0.0
 40
0.0991200443019192
 50
210.5042093526010945
 51
228.393197394010798
  0
ARC
  5
1FF9E
  8
0
 10
247.3477371411576939
 20
73.7425274133803441
 30
0.0
 40
0.0118214828784833
 50
138.2960669444491941
 51
211.937552119483513
  0
ARC
  5
1FF9F
  8
0
 10
247.539955253310012
 20
73.8623475133751128
 30
0.0
 40
0.2383268007015241
 50
211.937552119483513
 51
225.7668192520708033
  0
ARC
  5
1FFA0
  8
0
 10
247.3913741280539966
 20
73.7097351176976758
 30
0.0
 40
0.0253317441940126
 50
225.7668192520708033
 51
243.6537603265705911
  0
ARC
  5
1FFA1
  8
0
 10
247.3847484929065104
 20
73.6963563571376596
 30
0.0
 40
0.0104022339800426
 50
243.6537603265417999
 51
303.9935522847603124
  0
ARC
  5
1FFA2
  8
0
 10
247.3169170922384126
 20
73.7133247906407831
 30
0.0
 40
0.0106602681233143
 50
137.0711677221700882
 51
219.4289426812023009
  0
ARC
  5
1FFA3
  8
0
 10
266.0254256855519088
 20
89.0965004666813343
 30
0.0
 40
24.2315270500124811
 50
219.4289426812023009
 51
219.5710572981292046
  0
ARC
  5
1FFA4
  8
0
 10
247.3551305242413036
 20
73.6669681607463644
 30
0.0
 40
0.0106602490420025
 50
219.571057298133212
 51
301.9289219560781135
  0
ARC
  5
1FFA5
  8
0
 10
247.4819509149619989
 20
73.9333143541955451
 30
0.0
 40
0.2538376701666257
 50
225.8851723720007101
 51
231.2189100387261078
  0
ARC
  5
1FFA6
  8
0
 10
246.8804849513498993
 20
73.2239808780052499
 30
0.0
 40
0.6762925087470874
 50
40.0540547604285209
 51
49.1359357017267513
  0
ARC
  5
1FFA7
  8
0
 10
247.3763737543104071
 20
73.770234213129271
 30
0.0
 40
0.0400405492446033
 50
192.6119115518206968
 51
206.7369076834208101
  0
ARC
  5
1FFA8
  8
0
 10
247.3490423753374046
 20
73.7649191958014541
 30
0.0
 40
0.0122330766389615
 50
140.4601893442294056
 51
196.2720118847612127
  0
ARC
  5
1FFA9
  8
0
 10
247.349259591238507
 20
73.7609635030077584
 30
0.0
 40
0.0152004325530588
 50
86.7484871967658506
 51
129.4144955840307034
  0
ARC
  5
1FFAA
  8
0
 10
247.3487539107605073
 20
73.7281597882313804
 30
0.0
 40
0.0479991708910077
 50
70.3866793808444413
 51
88.3670166885644335
  0
ARC
  5
1FFAB
  8
0
 10
247.3213139431531999
 20
73.6604609438718398
 30
0.0
 40
0.1210211916156669
 50
20.2160753898543817
 51
68.9077972294906402
  0
ARC
  5
1FFAC
  8
0
 10
247.4119774152786988
 20
73.6915614391947713
 30
0.0
 40
0.0252869680022534
 50
329.2082714271687109
 51
25.0826156204379487
  0
ARC
  5
1FFAD
  8
0
 10
247.4253810951431944
 20
73.6897205111852998
 30
0.0
 40
0.0138743685194886
 50
247.2760590094750057
 51
306.8392385697641771
  0
ARC
  5
1FFAE
  8
0
 10
247.4497422104801103
 20
73.7575221913005521
 30
0.0
 40
0.085904184394576
 50
230.9023982786023055
 51
249.75869967937561
  0
ARC
  5
1FFAF
  8
0
 10
247.3267432647816975
 20
73.871077078263653
 30
0.0
 40
0.0970997760997298
 50
211.2551693654889107
 51
217.6588071253677015
  0
ARC
  5
1FFB0
  8
0
 10
247.2554481661478007
 20
73.8278030759474575
 30
0.0
 40
0.0136993544045622
 50
191.5404802595544993
 51
211.2470427170156881
  0
ARC
  5
1FFB1
  8
0
 10
247.2454127382738989
 20
73.825753960357531
 30
0.0
 40
0.0034568602107274
 50
145.4203571484167128
 51
191.5404802595595868
  0
ARC
  5
1FFB2
  8
0
 10
247.2449857719871034
 20
73.8243756671859899
 30
0.0
 40
0.0041242834315691
 50
83.4123061720592744
 51
125.9142793564402041
  0
ARC
  5
1FFB3
  8
0
 10
247.2365611810868984
 20
73.7830411266090778
 30
0.0
 40
0.0462947028154723
 50
57.6810142711334208
 51
78.9189214382424638
  0
ARC
  5
1FFB4
  8
0
 10
247.1568105325914075
 20
73.6495382968430476
 30
0.0
 40
0.201792416977821
 50
27.4303709458280807
 51
58.8108291987928311
  0
ARC
  5
1FFB5
  8
0
 10
247.3330728923442905
 20
73.7361558476589636
 30
0.0
 40
0.0043879237851265
 50
324.7766771232596739
 51
7.8821710236146973
  0
ARC
  5
1FFB6
  8
0
 10
247.3345404167504
 20
73.7368874731369601
 30
0.0
 40
0.0038891099447568
 50
246.6030516531776868
 51
302.9798738972755814
  0
ARC
  5
1FFB7
  8
0
 10
247.3846233360227984
 20
73.8294390519586159
 30
0.0
 40
0.1091082280453352
 50
224.9341353740533975
 51
241.7594120506039133
  0
LINE
  5
1FFB8
  8
0
 10
247.5365665022395945
 20
73.5246899226479229
 30
0.0
 11
247.5115953917616025
 21
73.5090862409658854
 31
0.0
  0
LINE
  5
1FFB9
  8
0
 10
247.5413913933884942
 20
73.5388973448893069
 30
0.0
 11
247.5813275790679029
 21
73.563822317294921
 31
0.0
  0
LINE
  5
1FFBA
  8
0
 10
247.4513821120609123
 20
73.5993589006127422
 30
0.0
 11
247.4748160622679904
 21
73.6137149188195252
 31
0.0
  0
LINE
  5
1FFBB
  8
0
 10
247.4897383260845913
 20
73.6015575135919562
 30
0.0
 11
247.5121742224046102
 21
73.6256429729727699
 31
0.0
  0
LINE
  5
1FFBC
  8
0
 10
247.473787578339909
 20
73.5866020216462289
 30
0.0
 11
247.4599386567720103
 21
73.5717508714832036
 31
0.0
  0
LINE
  5
1FFBD
  8
0
 10
247.4002750918184859
 20
73.6624708145824059
 30
0.0
 11
247.4111525753538103
 21
73.6739363715098818
 31
0.0
  0
ARC
  5
1FFBE
  8
0
 10
247.4081137838493021
 20
73.6550589289258824
 30
0.0
 40
0.0107880091647284
 50
136.6030751747132115
 51
195.1524942240639859
  0
ARC
  5
1FFBF
  8
0
 10
247.4460183148412113
 20
73.6732621534472116
 30
0.0
 40
0.0526929708073733
 50
203.5140132554973889
 51
221.0595150480858138
  0
ARC
  5
1FFC0
  8
0
 10
247.6851463271231921
 20
73.8437242216176912
 30
0.0
 40
0.346147140248042
 50
216.3306879025697924
 51
224.8579614932471884
  0
ARC
  5
1FFC1
  8
0
 10
247.4457453568452934
 20
73.6086236339499465
 30
0.0
 40
0.0108447357354948
 50
236.611225034698208
 51
301.3167439434109269
  0
ARC
  5
1FFC2
  8
0
 10
247.5951290537487068
 20
73.7676067393392429
 30
0.0
 40
0.2275273118415689
 50
215.1832792263946885
 51
222.494732910696797
  0
ARC
  5
1FFC3
  8
0
 10
245.8066550256648952
 20
71.5953916248656128
 30
0.0
 40
2.588648734686104
 50
51.2099368730645779
 51
51.2382732792197402
  0
ARC
  5
1FFC4
  8
0
 10
247.4237718323333866
 20
73.6117682605487005
 30
0.0
 40
0.0047811573803493
 50
16.2372618752647
 51
37.6941809271356476
  0
ARC
  5
1FFC5
  8
0
 10
247.2247297035482916
 20
73.4664626668825065
 30
0.0
 40
0.2512169980914007
 50
36.1601120050269813
 51
42.6549653537256432
  0
ARC
  5
1FFC6
  8
0
 10
247.4004433395716944
 20
73.6265015596142405
 30
0.0
 40
0.0136175176560398
 50
48.3874740288925977
 51
51.1107614241961912
  0
ARC
  5
1FFC7
  8
0
 10
247.4088284944687075
 20
73.6388062993191141
 30
0.0
 40
0.0017132759757246
 50
273.5816214867249982
 51
275.4980601149504764
  0
ARC
  5
1FFC8
  8
0
 10
247.4102773616436934
 20
73.6372850089219639
 30
0.0
 40
0.001355032999736
 50
188.0023524993129911
 51
215.0457489441191115
  0
ARC
  5
1FFC9
  8
0
 10
247.5182507357895076
 20
73.5525253083578718
 30
0.0
 40
0.000201328117545
 50
225.67063589563611
 51
11.7048217641118608
  0
ARC
  5
1FFCA
  8
0
 10
247.4987342127905947
 20
73.5762262967028846
 30
0.0
 40
0.0002127056461698
 50
59.2093363629573375
 51
192.0866545959108862
  0
ARC
  5
1FFCB
  8
0
 10
247.4975873713956958
 20
73.57349714716986
 30
0.0
 40
0.0031710962831817
 50
51.4471046508433787
 51
66.6721967736448562
  0
ARC
  5
1FFCC
  8
0
 10
247.4294124055923021
 20
73.5000684036096743
 30
0.0
 40
0.1033601896516577
 50
30.5247636472029704
 51
47.2572947001293784
  0
ARC
  5
1FFCD
  8
0
 10
247.5839272467960939
 20
73.6264952574149163
 30
0.0
 40
0.0991200443019192
 50
210.5042093526010945
 51
228.393197394010798
  0
ARC
  5
1FFCE
  8
0
 10
247.4985641567286905
 20
73.5936928984785368
 30
0.0
 40
0.0118214828784833
 50
138.2960669444491941
 51
211.937552119483513
  0
ARC
  5
1FFCF
  8
0
 10
247.6907822688808949
 20
73.7135129984733055
 30
0.0
 40
0.2383268007015241
 50
211.937552119483513
 51
225.7668192520708033
  0
ARC
  5
1FFD0
  8
0
 10
247.5422011436253911
 20
73.5609006027958969
 30
0.0
 40
0.0253317441940126
 50
225.7668192520708033
 51
243.6537603265705911
  0
ARC
  5
1FFD1
  8
0
 10
247.5355755084779901
 20
73.5475218422358523
 30
0.0
 40
0.0104022339800426
 50
243.6537603265417999
 51
303.9935522847603124
  0
ARC
  5
1FFD2
  8
0
 10
247.4677441078092954
 20
73.56449027573899
 30
0.0
 40
0.0106602681233143
 50
137.0711677221700882
 51
219.4289426812023009
  0
ARC
  5
1FFD3
  8
0
 10
266.1762527011233033
 20
88.9476659517795269
 30
0.0
 40
24.2315270500124811
 50
219.4289426812023009
 51
219.5710572981292046
  0
ARC
  5
1FFD4
  8
0
 10
247.5059575398126981
 20
73.5181336458445429
 30
0.0
 40
0.0106602490420025
 50
219.571057298133212
 51
301.9289219560781135
  0
ARC
  5
1FFD5
  8
0
 10
247.6327779305333934
 20
73.7844798392937662
 30
0.0
 40
0.2538376701666257
 50
225.8851723720007101
 51
231.2189100387261078
  0
ARC
  5
1FFD6
  8
0
 10
247.0313119669212938
 20
73.0751463631034426
 30
0.0
 40
0.6762925087470874
 50
39.9455765364623403
 51
49.1359357017267513
  0
ARC
  5
1FFD7
  8
0
 10
247.5272007698814036
 20
73.6213996982274637
 30
0.0
 40
0.0400405492446033
 50
192.6119115518206968
 51
206.7369076834208101
  0
ARC
  5
1FFD8
  8
0
 10
247.499869390908799
 20
73.616084680899661
 30
0.0
 40
0.0122330766389615
 50
140.4601893442294056
 51
196.2720118847612127
  0
ARC
  5
1FFD9
  8
0
 10
247.5000866068099015
 20
73.6121289881059795
 30
0.0
 40
0.0152004325530588
 50
86.7484871967658506
 51
129.4144955840307034
  0
ARC
  5
1FFDA
  8
0
 10
247.4995809263313902
 20
73.5793252733295731
 30
0.0
 40
0.0479991708910077
 50
70.3866793808444413
 51
88.3670166885644335
  0
ARC
  5
1FFDB
  8
0
 10
247.4721409587241965
 20
73.5116264289700325
 30
0.0
 40
0.1210211916156669
 50
20.2160753898543817
 51
68.9077972294906402
  0
ARC
  5
1FFDC
  8
0
 10
247.5628044308500932
 20
73.542726924292964
 30
0.0
 40
0.0252869680022534
 50
329.2082714271687109
 51
25.0826156204379487
  0
ARC
  5
1FFDD
  8
0
 10
247.5762081107145889
 20
73.5408859962835209
 30
0.0
 40
0.0138743685194886
 50
247.2760590094750057
 51
306.8392385697641771
  0
ARC
  5
1FFDE
  8
0
 10
247.6005692260509932
 20
73.6086876763987448
 30
0.0
 40
0.085904184394576
 50
230.9023982786023055
 51
249.75869967937561
  0
ARC
  5
1FFDF
  8
0
 10
247.477570280352694
 20
73.7222425633618457
 30
0.0
 40
0.0970997760997298
 50
211.2551693654889107
 51
217.6588071253677015
  0
ARC
  5
1FFE0
  8
0
 10
247.406275181718712
 20
73.6789685610456502
 30
0.0
 40
0.0136993544045622
 50
191.5404802595544993
 51
211.2470427170156881
  0
ARC
  5
1FFE1
  8
0
 10
247.3962397538448954
 20
73.6769194454557237
 30
0.0
 40
0.0034568602107274
 50
145.4203571484167128
 51
191.5404802595595868
  0
ARC
  5
1FFE2
  8
0
 10
247.3958127875580999
 20
73.6755411522841825
 30
0.0
 40
0.0041242834315691
 50
83.4123061720592744
 51
125.9142793564402041
  0
ARC
  5
1FFE3
  8
0
 10
247.3873881966578949
 20
73.6342066117072704
 30
0.0
 40
0.0462947028154723
 50
57.6810142711334208
 51
78.9189214382424638
  0
ARC
  5
1FFE4
  8
0
 10
247.307637548162802
 20
73.5007037819412403
 30
0.0
 40
0.201792416977821
 50
27.4303709458280807
 51
58.8108291987928311
  0
ARC
  5
1FFE5
  8
0
 10
247.4838999079157134
 20
73.5873213327571989
 30
0.0
 40
0.0043879237851265
 50
324.7766771232596739
 51
7.8821710236146973
  0
ARC
  5
1FFE6
  8
0
 10
247.4853674323213113
 20
73.5880529582351528
 30
0.0
 40
0.0038891099447568
 50
246.6030516531776868
 51
302.9798738972755814
  0
ARC
  5
1FFE7
  8
0
 10
247.5354503515937097
 20
73.6806045370567944
 30
0.0
 40
0.1091082280453352
 50
224.9341353740533975
 51
241.7594120506039133
  0
LINE
  5
1FFE8
  8
0
 10
247.6875260085913055
 20
73.3734938517647208
 30
0.0
 11
247.6625548981133136
 21
73.3578901700826975
 31
0.0
  0
LINE
  5
1FFE9
  8
0
 10
247.6923508997406884
 20
73.3877012740061048
 30
0.0
 11
247.7322870854200119
 21
73.412626246411719
 31
0.0
  0
LINE
  5
1FFEA
  8
0
 10
247.6023416184129928
 20
73.4481628297295401
 30
0.0
 11
247.6257755686202131
 21
73.4625188479363374
 31
0.0
  0
LINE
  5
1FFEB
  8
0
 10
247.6406978324361887
 20
73.4503614427087541
 30
0.0
 11
247.6631337287568044
 21
73.4744469020895536
 31
0.0
  0
LINE
  5
1FFEC
  8
0
 10
247.6247470846915064
 20
73.4354059507630268
 30
0.0
 11
247.6108981631236929
 21
73.4205548006000015
 31
0.0
  0
LINE
  5
1FFED
  8
0
 10
247.5512345981705948
 20
73.5112747436992038
 30
0.0
 11
247.5621120817058909
 21
73.522740300626694
 31
0.0
  0
ARC
  5
1FFEE
  8
0
 10
247.5590732902014963
 20
73.5038628580426803
 30
0.0
 40
0.0107880091647284
 50
136.6030751747132115
 51
195.1524942240639859
  0
ARC
  5
1FFEF
  8
0
 10
247.5969778211930077
 20
73.5220660825640095
 30
0.0
 40
0.0526929708073733
 50
203.5140132554973889
 51
221.0595150480858138
  0
ARC
  5
1FFF0
  8
0
 10
247.8361058334749032
 20
73.6925281507344891
 30
0.0
 40
0.346147140248042
 50
216.3306879025697924
 51
224.8579614932471884
  0
ARC
  5
1FFF1
  8
0
 10
247.5967048631968908
 20
73.4574275630667444
 30
0.0
 40
0.0108447357354948
 50
236.611225034698208
 51
301.3167439434109269
  0
ARC
  5
1FFF2
  8
0
 10
247.7460885601003895
 20
73.6164106684560409
 30
0.0
 40
0.2275273118415689
 50
215.1832792263946885
 51
222.494732910696797
  0
ARC
  5
1FFF3
  8
0
 10
245.9576145320166063
 20
71.4441955539824107
 30
0.0
 40
2.588648734686104
 50
51.2099368730645779
 51
51.2382732792197402
  0
ARC
  5
1FFF4
  8
0
 10
247.5747313386850976
 20
73.4605721896654842
 30
0.0
 40
0.0047811573803493
 50
16.2372618752647
 51
37.6941809271356476
  0
ARC
  5
1FFF5
  8
0
 10
247.3756892099004858
 20
73.3152665959993044
 30
0.0
 40
0.2512169980914007
 50
36.1601120050269813
 51
42.6549653537256432
  0
ARC
  5
1FFF6
  8
0
 10
247.5514028459234055
 20
73.4753054887310384
 30
0.0
 40
0.0136175176560398
 50
48.3874740288925977
 51
51.1107614241961912
  0
ARC
  5
1FFF7
  8
0
 10
247.5597880008209017
 20
73.4876102284359263
 30
0.0
 40
0.0017132759757246
 50
273.5816214867249982
 51
275.4980601149504764
  0
ARC
  5
1FFF8
  8
0
 10
247.5612368679958024
 20
73.4860889380387619
 30
0.0
 40
0.001355032999736
 50
188.0023524993129911
 51
215.0457489441191115
  0
ARC
  5
1FFF9
  8
0
 10
247.6692102421411903
 20
73.4013292374746698
 30
0.0
 40
0.000201328117545
 50
225.67063589563611
 51
11.7048217641118608
  0
ARC
  5
1FFFA
  8
0
 10
247.649693719142789
 20
73.4250302258196825
 30
0.0
 40
0.0002127056461698
 50
59.2093363629573375
 51
192.0866545959108862
  0
ARC
  5
1FFFB
  8
0
 10
247.6485468777478047
 20
73.4223010762866437
 30
0.0
 40
0.0031710962831817
 50
51.4471046508433787
 51
66.6721967736448562
  0
ARC
  5
1FFFC
  8
0
 10
247.5803719119440132
 20
73.3488723327264722
 30
0.0
 40
0.1033601896516577
 50
30.5247636472029704
 51
47.2572947001293784
  0
ARC
  5
1FFFD
  8
0
 10
247.7348867531482028
 20
73.4752991865317142
 30
0.0
 40
0.0991200443019192
 50
210.5042093526010945
 51
228.393197394010798
  0
ARC
  5
1FFFE
  8
0
 10
247.6495236630807995
 20
73.4424968275953347
 30
0.0
 40
0.0118214828784833
 50
138.2960669444491941
 51
211.937552119483513
  0
ARC
  5
1FFFF
  8
0
 10
247.8417417752330039
 20
73.5623169275901034
 30
0.0
 40
0.2383268007015241
 50
211.937552119483513
 51
225.7668192520708033
  0
ARC
  5
20000
  8
0
 10
247.6931606499775
 20
73.4097045319126948
 30
0.0
 40
0.0253317441940126
 50
225.7668192520708033
 51
243.6537603265705911
  0
ARC
  5
20001
  8
0
 10
247.686535014830099
 20
73.3963257713526502
 30
0.0
 40
0.0104022339800426
 50
243.6537603265417999
 51
303.9935522847603124
  0
ARC
  5
20002
  8
0
 10
247.6187036141614044
 20
73.4132942048557737
 30
0.0
 40
0.0106602681233143
 50
137.0711677221700882
 51
219.4289426812023009
  0
ARC
  5
20003
  8
0
 10
266.3272122074749859
 20
88.7964698808963249
 30
0.0
 40
24.2315270500124811
 50
219.4289426812023009
 51
219.5710572981292046
  0
ARC
  5
20004
  8
0
 10
247.6569170461644092
 20
73.3669375749613835
 30
0.0
 40
0.0106602490420025
 50
219.571057298133212
 51
301.9289219560781135
  0
ARC
  5
20005
  8
0
 10
247.7837374368851044
 20
73.6332837684105641
 30
0.0
 40
0.2538376701666257
 50
225.8851723720007101
 51
231.2189100387261078
  0
ARC
  5
20006
  8
0
 10
247.182271473273488
 20
72.9239502922202405
 30
0.0
 40
0.6762925087470874
 50
40.0703269479346034
 51
49.1359357017267513
  0
ARC
  5
20007
  8
0
 10
247.6781602762335126
 20
73.4702036273442616
 30
0.0
 40
0.0400405492446033
 50
192.6119115518206968
 51
206.7369076834208101
  0
ARC
  5
20008
  8
0
 10
247.650828897260908
 20
73.4648886100164447
 30
0.0
 40
0.0122330766389615
 50
140.4601893442294056
 51
196.2720118847612127
  0
ARC
  5
20009
  8
0
 10
247.6510461131616125
 20
73.4609329172227774
 30
0.0
 40
0.0152004325530588
 50
86.7484871967658506
 51
129.4144955840307034
  0
ARC
  5
2000A
  8
0
 10
247.6505404326836128
 20
73.428129202446371
 30
0.0
 40
0.0479991708910077
 50
70.3866793808444413
 51
88.3670166885644335
  0
ARC
  5
2000B
  8
0
 10
247.6231004650763055
 20
73.3604303580868304
 30
0.0
 40
0.1210211916156669
 50
20.2160753898543817
 51
68.9077972294906402
  0
ARC
  5
2000C
  8
0
 10
247.7137639372022022
 20
73.3915308534097619
 30
0.0
 40
0.0252869680022534
 50
329.2082714271687109
 51
25.0826156204379487
  0
ARC
  5
2000D
  8
0
 10
247.7271676170663
 20
73.3896899254003046
 30
0.0
 40
0.0138743685194886
 50
247.2760590094750057
 51
306.8392385697641771
  0
ARC
  5
2000E
  8
0
 10
247.7515287324031874
 20
73.4574916055155427
 30
0.0
 40
0.085904184394576
 50
230.9023982786023055
 51
249.75869967937561
  0
ARC
  5
2000F
  8
0
 10
247.628529786704803
 20
73.5710464924786436
 30
0.0
 40
0.0970997760997298
 50
211.2551693654889107
 51
217.6588071253677015
  0
ARC
  5
20010
  8
0
 10
247.5572346880709063
 20
73.5277724901624481
 30
0.0
 40
0.0136993544045622
 50
191.5404802595544993
 51
211.2470427170156881
  0
ARC
  5
20011
  8
0
 10
247.5471992601970044
 20
73.5257233745725216
 30
0.0
 40
0.0034568602107274
 50
145.4203571484167128
 51
191.5404802595595868
  0
ARC
  5
20012
  8
0
 10
247.5467722939102089
 20
73.5243450814009805
 30
0.0
 40
0.0041242834315691
 50
83.4123061720592744
 51
125.9142793564402041
  0
ARC
  5
20013
  8
0
 10
247.5383477030100039
 20
73.4830105408240684
 30
0.0
 40
0.0462947028154723
 50
57.6810142711334208
 51
78.9189214382424638
  0
ARC
  5
20014
  8
0
 10
247.4585970545149962
 20
73.3495077110580382
 30
0.0
 40
0.201792416977821
 50
27.4303709458280807
 51
58.8108291987928311
  0
ARC
  5
20015
  8
0
 10
247.634859414267396
 20
73.4361252618739968
 30
0.0
 40
0.0043879237851265
 50
324.7766771232596739
 51
7.8821710236146973
  0
ARC
  5
20016
  8
0
 10
247.6363269386733919
 20
73.4368568873519791
 30
0.0
 40
0.0038891099447568
 50
246.6030516531776868
 51
302.9798738972755814
  0
ARC
  5
20017
  8
0
 10
247.6864098579457902
 20
73.5294084661736065
 30
0.0
 40
0.1091082280453352
 50
224.9341353740533975
 51
241.7594120506039133
  0
LINE
  5
20018
  8
0
 10
247.8375594120871028
 20
73.223460448349357
 30
0.0
 11
247.8125883016091962
 21
73.2078567666673337
 31
0.0
  0
LINE
  5
20019
  8
0
 10
247.8423843032365141
 20
73.2376678705907409
 30
0.0
 11
247.8823204889158944
 21
73.2625928429963551
 31
0.0
  0
LINE
  5
2001A
  8
0
 10
247.7523750219089038
 20
73.2981294263141763
 30
0.0
 11
247.7758089721156125
 21
73.3124854445209735
 31
0.0
  0
LINE
  5
2001B
  8
0
 10
247.7907312359320997
 20
73.3003280392933902
 30
0.0
 11
247.8131671322526017
 21
73.324413498674204
 31
0.0
  0
LINE
  5
2001C
  8
0
 10
247.774780488187389
 20
73.2853725473476629
 30
0.0
 11
247.7609315666196039
 21
73.2705213971846376
 31
0.0
  0
LINE
  5
2001D
  8
0
 10
247.7012680016665058
 20
73.3612413402838683
 30
0.0
 11
247.7121454852018019
 21
73.3727068972113443
 31
0.0
  0
ARC
  5
2001E
  8
0
 10
247.7091066936968957
 20
73.3538294546273164
 30
0.0
 40
0.0107880091647284
 50
136.6030751747132115
 51
195.1524942240639859
  0
ARC
  5
2001F
  8
0
 10
247.747011224688805
 20
73.3720326791486457
 30
0.0
 40
0.0526929708073733
 50
203.5140132554973889
 51
221.0595150480858138
  0
ARC
  5
20020
  8
0
 10
247.9861392369708142
 20
73.5424947473191253
 30
0.0
 40
0.346147140248042
 50
216.3306879025697924
 51
224.8579614932471884
  0
ARC
  5
20021
  8
0
 10
247.7467382666928017
 20
73.3073941596513805
 30
0.0
 40
0.0108447357354948
 50
236.611225034698208
 51
301.3167439434109269
  0
ARC
  5
20022
  8
0
 10
247.8961219635961868
 20
73.4663772650407054
 30
0.0
 40
0.2275273118415689
 50
215.1832792263946885
 51
222.494732910696797
  0
ARC
  5
20023
  8
0
 10
246.1076479355124889
 20
71.2941621505670469
 30
0.0
 40
2.588648734686104
 50
51.2099368730645779
 51
51.2382732792197402
  0
ARC
  5
20024
  8
0
 10
247.7247647421810086
 20
73.310538786250163
 30
0.0
 40
0.0047811573803493
 50
16.2372618752647
 51
37.6941809271356476
  0
ARC
  5
20025
  8
0
 10
247.5257226133963115
 20
73.1652331925839405
 30
0.0
 40
0.2512169980914007
 50
36.1601120050269813
 51
42.6549653537256432
  0
ARC
  5
20026
  8
0
 10
247.7014362494192028
 20
73.3252720853156745
 30
0.0
 40
0.0136175176560398
 50
48.3874740288925977
 51
51.1107614241961912
  0
ARC
  5
20027
  8
0
 10
247.709821404316699
 20
73.3375768250205624
 30
0.0
 40
0.0017132759757246
 50
273.5816214867249982
 51
275.4980601149504764
  0
ARC
  5
20028
  8
0
 10
247.7112702714917134
 20
73.336055534623398
 30
0.0
 40
0.001355032999736
 50
188.0023524993129911
 51
215.0457489441191115
  0
ARC
  5
20029
  8
0
 10
247.8192436456369876
 20
73.2512958340593059
 30
0.0
 40
0.000201328117545
 50
225.67063589563611
 51
11.7048217641118608
  0
ARC
  5
2002A
  8
0
 10
247.7997271226381883
 20
73.2749968224043187
 30
0.0
 40
0.0002127056461698
 50
59.2093363629573375
 51
192.0866545959108862
  0
ARC
  5
2002B
  8
0
 10
247.7985802812436873
 20
73.2722676728712941
 30
0.0
 40
0.0031710962831817
 50
51.4471046508433787
 51
66.6721967736448562
  0
ARC
  5
2002C
  8
0
 10
247.7304053154398957
 20
73.1988389293111084
 30
0.0
 40
0.1033601896516577
 50
30.5247636472029704
 51
47.2572947001293784
  0
ARC
  5
2002D
  8
0
 10
247.8849201566436022
 20
73.3252657831163503
 30
0.0
 40
0.0991200443019192
 50
210.5042093526010945
 51
228.393197394010798
  0
ARC
  5
2002E
  8
0
 10
247.7995570665767104
 20
73.2924634241799708
 30
0.0
 40
0.0118214828784833
 50
138.2960669444491941
 51
211.937552119483513
  0
ARC
  5
2002F
  8
0
 10
247.9917751787288864
 20
73.412283524174768
 30
0.0
 40
0.2383268007015241
 50
211.937552119483513
 51
225.7668192520708033
  0
ARC
  5
20030
  8
0
 10
247.8431940534728994
 20
73.259671128497331
 30
0.0
 40
0.0253317441940126
 50
225.7668192520708033
 51
243.6537603265705911
  0
ARC
  5
20031
  8
0
 10
247.8365684183258963
 20
73.2462923679372864
 30
0.0
 40
0.0104022339800426
 50
243.6537603265417999
 51
303.9935522847603124
  0
ARC
  5
20032
  8
0
 10
247.768737017657287
 20
73.2632608014404241
 30
0.0
 40
0.0106602681233143
 50
137.0711677221700882
 51
219.4289426812023009
  0
ARC
  5
20033
  8
0
 10
266.4772456109707832
 20
88.646436477480961
 30
0.0
 40
24.2315270500124811
 50
219.4289426812023009
 51
219.5710572981292046
  0
ARC
  5
20034
  8
0
 10
247.8069504496602917
 20
73.2169041715460196
 30
0.0
 40
0.0106602490420025
 50
219.571057298133212
 51
301.9289219560781135
  0
ARC
  5
20035
  8
0
 10
247.9337708403809017
 20
73.4832503649952002
 30
0.0
 40
0.2538376701666257
 50
225.8851723720007101
 51
231.2189100387261078
  0
ARC
  5
20036
  8
0
 10
247.3323048767688874
 20
72.7739168888048766
 30
0.0
 40
0.6762925087470874
 50
40.035316232535493
 51
49.1359357017267513
  0
ARC
  5
20037
  8
0
 10
247.8281936797293952
 20
73.3201702239288835
 30
0.0
 40
0.0400405492446033
 50
192.6119115518206968
 51
206.7369076834208101
  0
ARC
  5
20038
  8
0
 10
247.8008623007563074
 20
73.314855206601095
 30
0.0
 40
0.0122330766389615
 50
140.4601893442294056
 51
196.2720118847612127
  0
ARC
  5
20039
  8
0
 10
247.8010795166574951
 20
73.3108995138074135
 30
0.0
 40
0.0152004325530588
 50
86.7484871967658506
 51
129.4144955840307034
  0
ARC
  5
2003A
  8
0
 10
247.8005738361794101
 20
73.2780957990309929
 30
0.0
 40
0.0479991708910077
 50
70.3866793808444413
 51
88.3670166885644335
  0
ARC
  5
2003B
  8
0
 10
247.773133868572188
 20
73.2103969546714666
 30
0.0
 40
0.1210211916156669
 50
20.2160753898543817
 51
68.9077972294906402
  0
ARC
  5
2003C
  8
0
 10
247.8637973406981132
 20
73.241497449994398
 30
0.0
 40
0.0252869680022534
 50
329.2082714271687109
 51
25.0826156204379487
  0
ARC
  5
2003D
  8
0
 10
247.8772010205620973
 20
73.2396565219849549
 30
0.0
 40
0.0138743685194886
 50
247.2760590094750057
 51
306.8392385697641771
  0
ARC
  5
2003E
  8
0
 10
247.9015621358990131
 20
73.3074582021001788
 30
0.0
 40
0.085904184394576
 50
230.9023982786023055
 51
249.75869967937561
  0
ARC
  5
2003F
  8
0
 10
247.778563190200714
 20
73.4210130890632797
 30
0.0
 40
0.0970997760997298
 50
211.2551693654889107
 51
217.6588071253677015
  0
ARC
  5
20040
  8
0
 10
247.7072680915667036
 20
73.3777390867470842
 30
0.0
 40
0.0136993544045622
 50
191.5404802595544993
 51
211.2470427170156881
  0
ARC
  5
20041
  8
0
 10
247.6972326636928869
 20
73.3756899711571577
 30
0.0
 40
0.0034568602107274
 50
145.4203571484167128
 51
191.5404802595595868
  0
ARC
  5
20042
  8
0
 10
247.6968056974060914
 20
73.3743116779856166
 30
0.0
 40
0.0041242834315691
 50
83.4123061720592744
 51
125.9142793564402041
  0
ARC
  5
20043
  8
0
 10
247.6883811065058865
 20
73.3329771374087329
 30
0.0
 40
0.0462947028154723
 50
57.6810142711334208
 51
78.9189214382424638
  0
ARC
  5
20044
  8
0
 10
247.6086304580103956
 20
73.1994743076426744
 30
0.0
 40
0.201792416977821
 50
27.4303709458280807
 51
58.8108291987928311
  0
ARC
  5
20045
  8
0
 10
247.7848928177631933
 20
73.2860918584586329
 30
0.0
 40
0.0043879237851265
 50
324.7766771232596739
 51
7.8821710236146973
  0
ARC
  5
20046
  8
0
 10
247.7863603421693028
 20
73.2868234839366153
 30
0.0
 40
0.0038891099447568
 50
246.6030516531776868
 51
302.9798738972755814
  0
ARC
  5
20047
  8
0
 10
247.8364432614417012
 20
73.3793750627582426
 30
0.0
 40
0.1091082280453352
 50
224.9341353740533975
 51
241.7594120506039133
  0
LINE
  5
20048
  8
0
 10
247.9878773571649901
 20
73.0731425032844299
 30
0.0
 11
247.9629062466869982
 21
73.0575388216024066
 31
0.0
  0
LINE
  5
20049
  8
0
 10
247.9927022483138899
 20
73.0873499255258139
 30
0.0
 11
248.0326384339932986
 21
73.1122748979314281
 31
0.0
  0
LINE
  5
2004A
  8
0
 10
247.902692966986308
 20
73.1478114812492493
 30
0.0
 11
247.9261269171934998
 21
73.1621674994560465
 31
0.0
  0
LINE
  5
2004B
  8
0
 10
247.9410491810099018
 20
73.1500100942284632
 30
0.0
 11
247.963485077330489
 21
73.174095553609277
 31
0.0
  0
LINE
  5
2004C
  8
0
 10
247.9250984332653047
 20
73.1350546022827359
 30
0.0
 11
247.911249511697406
 21
73.1202034521197106
 31
0.0
  0
LINE
  5
2004D
  8
0
 10
247.85158594674391
 20
73.2109233952189129
 30
0.0
 11
247.862463430279206
 21
73.2223889521463747
 31
0.0
  0
ARC
  5
2004E
  8
0
 10
247.8594246387748115
 20
73.2035115095623894
 30
0.0
 40
0.0107880091647284
 50
136.6030751747132115
 51
195.1524942240639859
  0
ARC
  5
2004F
  8
0
 10
247.8973291697666923
 20
73.2217147340837187
 30
0.0
 40
0.0526929708073733
 50
203.5140132554973889
 51
221.0595150480858138
  0
ARC
  5
20050
  8
0
 10
248.1364571820487015
 20
73.3921768022541983
 30
0.0
 40
0.346147140248042
 50
216.3306879025697924
 51
224.8579614932471884
  0
ARC
  5
20051
  8
0
 10
247.8970562117706038
 20
73.1570762145864535
 30
0.0
 40
0.0108447357354948
 50
236.611225034698208
 51
301.3167439434109269
  0
ARC
  5
20052
  8
0
 10
248.0464399086741025
 20
73.31605931997575
 30
0.0
 40
0.2275273118415689
 50
215.1832792263946885
 51
222.494732910696797
  0
ARC
  5
20053
  8
0
 10
246.2579658805902909
 20
71.1438442055021198
 30
0.0
 40
2.588648734686104
 50
51.2099368730645779
 51
51.2382732792197402
  0
ARC
  5
20054
  8
0
 10
247.8750826872588107
 20
73.1602208411852075
 30
0.0
 40
0.0047811573803493
 50
16.2372618752647
 51
37.6941809271356476
  0
ARC
  5
20055
  8
0
 10
247.6760405584736873
 20
73.0149152475190135
 30
0.0
 40
0.2512169980914007
 50
36.1601120050269813
 51
42.6549653537256432
  0
ARC
  5
20056
  8
0
 10
247.8517541944970901
 20
73.1749541402507333
 30
0.0
 40
0.0136175176560398
 50
48.3874740288925977
 51
51.1107614241961912
  0
ARC
  5
20057
  8
0
 10
247.8601393493941032
 20
73.1872588799556354
 30
0.0
 40
0.0017132759757246
 50
273.5816214867249982
 51
275.4980601149504764
  0
ARC
  5
20058
  8
0
 10
247.8615882165690891
 20
73.185737589558471
 30
0.0
 40
0.001355032999736
 50
188.0023524993129911
 51
215.0457489441191115
  0
ARC
  5
20059
  8
0
 10
247.9695615907149033
 20
73.1009778889943789
 30
0.0
 40
0.000201328117545
 50
225.67063589563611
 51
11.7048217641118608
  0
ARC
  5
2005A
  8
0
 10
247.9500450677161041
 20
73.1246788773393916
 30
0.0
 40
0.0002127056461698
 50
59.2093363629573375
 51
192.0866545959108862
  0
ARC
  5
2005B
  8
0
 10
247.9488982263210914
 20
73.121949727806367
 30
0.0
 40
0.0031710962831817
 50
51.4471046508433787
 51
66.6721967736448562
  0
ARC
  5
2005C
  8
0
 10
247.8807232605176978
 20
73.0485209842461813
 30
0.0
 40
0.1033601896516577
 50
30.5247636472029704
 51
47.2572947001293784
  0
ARC
  5
2005D
  8
0
 10
248.0352381017214896
 20
73.1749478380514233
 30
0.0
 40
0.0991200443019192
 50
210.5042093526010945
 51
228.393197394010798
  0
ARC
  5
2005E
  8
0
 10
247.9498750116540862
 20
73.1421454791150438
 30
0.0
 40
0.0118214828784833
 50
138.2960669444491941
 51
211.937552119483513
  0
ARC
  5
2005F
  8
0
 10
248.1420931238062906
 20
73.2619655791098126
 30
0.0
 40
0.2383268007015241
 50
211.937552119483513
 51
225.7668192520708033
  0
ARC
  5
20060
  8
0
 10
247.9935119985507015
 20
73.109353183432404
 30
0.0
 40
0.0253317441940126
 50
225.7668192520708033
 51
243.6537603265705911
  0
ARC
  5
20061
  8
0
 10
247.9868863634033005
 20
73.0959744228723594
 30
0.0
 40
0.0104022339800426
 50
243.6537603265417999
 51
303.9935522847603124
  0
ARC
  5
20062
  8
0
 10
247.9190549627346911
 20
73.1129428563754971
 30
0.0
 40
0.0106602681233143
 50
137.0711677221700882
 51
219.4289426812023009
  0
ARC
  5
20063
  8
0
 10
266.627563556048699
 20
88.496118532416034
 30
0.0
 40
24.2315270500124811
 50
219.4289426812023009
 51
219.5710572981292046
  0
ARC
  5
20064
  8
0
 10
247.9572683947380938
 20
73.0665862264810926
 30
0.0
 40
0.0106602490420025
 50
219.571057298133212
 51
301.9289219560781135
  0
ARC
  5
20065
  8
0
 10
248.0840887854587891
 20
73.3329324199302732
 30
0.0
 40
0.2538376701666257
 50
225.8851723720007101
 51
231.2189100387261078
  0
ARC
  5
20066
  8
0
 10
247.4826228218466895
 20
72.6235989437399496
 30
0.0
 40
0.6762925087470874
 50
40.0365760578214207
 51
49.1359357017267513
  0
ARC
  5
20067
  8
0
 10
247.9785116248067993
 20
73.1698522788639707
 30
0.0
 40
0.0400405492446033
 50
192.6119115518206968
 51
206.7369076834208101
  0
ARC
  5
20068
  8
0
 10
247.9511802458341947
 20
73.164537261536168
 30
0.0
 40
0.0122330766389615
 50
140.4601893442294056
 51
196.2720118847612127
  0
ARC
  5
20069
  8
0
 10
247.9513974617352972
 20
73.1605815687424865
 30
0.0
 40
0.0152004325530588
 50
86.7484871967658506
 51
129.4144955840307034
  0
ARC
  5
2006A
  8
0
 10
247.9508917812572975
 20
73.1277778539660801
 30
0.0
 40
0.0479991708910077
 50
70.3866793808444413
 51
88.3670166885644335
  0
ARC
  5
2006B
  8
0
 10
247.9234518136495922
 20
73.0600790096065396
 30
0.0
 40
0.1210211916156669
 50
20.2160753898543817
 51
68.9077972294906402
  0
ARC
  5
2006C
  8
0
 10
248.0141152857754889
 20
73.091179504929471
 30
0.0
 40
0.0252869680022534
 50
329.2082714271687109
 51
25.0826156204379487
  0
ARC
  5
2006D
  8
0
 10
248.027518965640013
 20
73.0893385769200279
 30
0.0
 40
0.0138743685194886
 50
247.2760590094750057
 51
306.8392385697641771
  0
ARC
  5
2006E
  8
0
 10
248.0518800809763889
 20
73.1571402570352518
 30
0.0
 40
0.085904184394576
 50
230.9023982786023055
 51
249.75869967937561
  0
ARC
  5
2006F
  8
0
 10
247.9288811352780897
 20
73.2706951439983527
 30
0.0
 40
0.0970997760997298
 50
211.2551693654889107
 51
217.6588071253677015
  0
ARC
  5
20070
  8
0
 10
247.8575860366441077
 20
73.2274211416821572
 30
0.0
 40
0.0136993544045622
 50
191.5404802595544993
 51
211.2470427170156881
  0
ARC
  5
20071
  8
0
 10
247.8475506087702911
 20
73.2253720260922307
 30
0.0
 40
0.0034568602107274
 50
145.4203571484167128
 51
191.5404802595595868
  0
ARC
  5
20072
  8
0
 10
247.8471236424834956
 20
73.2239937329206896
 30
0.0
 40
0.0041242834315691
 50
83.4123061720592744
 51
125.9142793564402041
  0
ARC
  5
20073
  8
0
 10
247.8386990515832906
 20
73.1826591923438059
 30
0.0
 40
0.0462947028154723
 50
57.6810142711334208
 51
78.9189214382424638
  0
ARC
  5
20074
  8
0
 10
247.7589484030881977
 20
73.0491563625777331
 30
0.0
 40
0.201792416977821
 50
27.4303709458280807
 51
58.8108291987928311
  0
ARC
  5
20075
  8
0
 10
247.935210762841109
 20
73.1357739133937059
 30
0.0
 40
0.0043879237851265
 50
324.7766771232596739
 51
7.8821710236146973
  0
ARC
  5
20076
  8
0
 10
247.936678287246707
 20
73.1365055388716883
 30
0.0
 40
0.0038891099447568
 50
246.6030516531776868
 51
302.9798738972755814
  0
ARC
  5
20077
  8
0
 10
247.9867612065191054
 20
73.2290571176933156
 30
0.0
 40
0.1091082280453352
 50
224.9341353740533975
 51
241.7594120506039133
  0
LINE
  5
20078
  8
0
 10
248.1381850659732038
 20
72.9228347944894892
 30
0.0
 11
248.1132139554952971
 21
72.9072311128074375
 31
0.0
  0
LINE
  5
20079
  8
0
 10
248.1430099571225867
 20
72.9370422167308448
 30
0.0
 11
248.1829461428015122
 21
72.961967189136459
 31
0.0
  0
LINE
  5
2007A
  8
0
 10
248.0530006757944932
 20
72.9975037724542943
 30
0.0
 11
248.0764346260015998
 21
73.0118597906610773
 31
0.0
  0
LINE
  5
2007B
  8
0
 10
248.0913568898182007
 20
72.9997023854335225
 30
0.0
 11
248.1137927861387027
 21
73.0237878448142936
 31
0.0
  0
LINE
  5
2007C
  8
0
 10
248.0754061420734899
 20
72.9847468934877668
 30
0.0
 11
248.0615572205055912
 21
72.9698957433247415
 31
0.0
  0
LINE
  5
2007D
  8
0
 10
248.0018936555520952
 20
73.0606156864239722
 30
0.0
 11
248.0127711390873912
 21
73.072081243351434
 31
0.0
  0
ARC
  5
2007E
  8
0
 10
248.0097323475829967
 20
73.0532038007674487
 30
0.0
 40
0.0107880091647284
 50
136.6030751747132115
 51
195.1524942240639859
  0
ARC
  5
2007F
  8
0
 10
248.0476368785749059
 20
73.0714070252887495
 30
0.0
 40
0.0526929708073733
 50
203.5140132554973889
 51
221.0595150480858138
  0
ARC
  5
20080
  8
0
 10
248.2867648908568867
 20
73.2418690934592291
 30
0.0
 40
0.346147140248042
 50
216.3306879025697924
 51
224.8579614932471884
  0
ARC
  5
20081
  8
0
 10
248.0473639205789027
 20
73.0067685057914844
 30
0.0
 40
0.0108447357354948
 50
236.611225034698208
 51
301.3167439434109269
  0
ARC
  5
20082
  8
0
 10
248.1967476174822878
 20
73.1657516111807951
 30
0.0
 40
0.2275273118415689
 50
215.1832792263946885
 51
222.494732910696797
  0
ARC
  5
20083
  8
0
 10
246.4082735893985046
 20
70.9935364967071507
 30
0.0
 40
2.588648734686104
 50
51.2099368730645779
 51
51.2382732792197402
  0
ARC
  5
20084
  8
0
 10
248.0253903960669959
 20
73.0099131323902668
 30
0.0
 40
0.0047811573803493
 50
16.2372618752647
 51
37.6941809271356476
  0
ARC
  5
20085
  8
0
 10
247.8263482672819009
 20
72.8646075387240444
 30
0.0
 40
0.2512169980914007
 50
36.1601120050269813
 51
42.6549653537256432
  0
ARC
  5
20086
  8
0
 10
248.0020619033053038
 20
73.0246464314557784
 30
0.0
 40
0.0136175176560398
 50
48.3874740288925977
 51
51.1107614241961912
  0
ARC
  5
20087
  8
0
 10
248.0104470582022884
 20
73.0369511711606663
 30
0.0
 40
0.0017132759757246
 50
273.5816214867249982
 51
275.4980601149504764
  0
ARC
  5
20088
  8
0
 10
248.0118959253777859
 20
73.0354298807635018
 30
0.0
 40
0.001355032999736
 50
188.0023524993129911
 51
215.0457489441191115
  0
ARC
  5
20089
  8
0
 10
248.1198692995230886
 20
72.9506701801994382
 30
0.0
 40
0.000201328117545
 50
225.67063589563611
 51
11.7048217641118608
  0
ARC
  5
2008A
  8
0
 10
248.100352776524204
 20
72.9743711685444225
 30
0.0
 40
0.0002127056461698
 50
59.2093363629573375
 51
192.0866545959108862
  0
ARC
  5
2008B
  8
0
 10
248.0992059351293051
 20
72.9716420190113837
 30
0.0
 40
0.0031710962831817
 50
51.4471046508433787
 51
66.6721967736448562
  0
ARC
  5
2008C
  8
0
 10
248.0310309693259114
 20
72.8982132754512122
 30
0.0
 40
0.1033601896516577
 50
30.5247636472029704
 51
47.2572947001293784
  0
ARC
  5
2008D
  8
0
 10
248.1855458105297032
 20
73.0246401292564542
 30
0.0
 40
0.0991200443019192
 50
210.5042093526010945
 51
228.393197394010798
  0
ARC
  5
2008E
  8
0
 10
248.1001827204622998
 20
72.9918377703200747
 30
0.0
 40
0.0118214828784833
 50
138.2960669444491941
 51
211.937552119483513
  0
ARC
  5
2008F
  8
0
 10
248.2924008326145042
 20
73.1116578703148718
 30
0.0
 40
0.2383268007015241
 50
211.937552119483513
 51
225.7668192520708033
  0
ARC
  5
20090
  8
0
 10
248.1438197073590004
 20
72.9590454746374348
 30
0.0
 40
0.0253317441940126
 50
225.7668192520708033
 51
243.6537603265705911
  0
ARC
  5
20091
  8
0
 10
248.1371940722115141
 20
72.9456667140773902
 30
0.0
 40
0.0104022339800426
 50
243.6537603265417999
 51
303.9935522847603124
  0
ARC
  5
20092
  8
0
 10
248.0693626715433879
 20
72.9626351475805137
 30
0.0
 40
0.0106602681233143
 50
137.0711677221700882
 51
219.4289426812023009
  0
ARC
  5
20093
  8
0
 10
266.7778712648569126
 20
88.3458108236210649
 30
0.0
 40
24.2315270500124811
 50
219.4289426812023009
 51
219.5710572981292046
  0
ARC
  5
20094
  8
0
 10
248.1075761035463074
 20
72.9162785176861235
 30
0.0
 40
0.0106602490420025
 50
219.571057298133212
 51
301.9289219560781135
  0
ARC
  5
20095
  8
0
 10
248.2343964942670027
 20
73.1826247111353041
 30
0.0
 40
0.2538376701666257
 50
225.8851723720007101
 51
231.2189100387261078
  0
ARC
  5
20096
  8
0
 10
247.6329305306549031
 20
72.4732912349450089
 30
0.0
 40
0.6762925087470874
 50
40.0378678777758665
 51
49.1359357017267513
  0
ARC
  5
20097
  8
0
 10
248.128819333615013
 20
73.0195445700690016
 30
0.0
 40
0.0400405492446033
 50
192.6119115518206968
 51
206.7369076834208101
  0
ARC
  5
20098
  8
0
 10
248.1014879546424083
 20
73.0142295527411846
 30
0.0
 40
0.0122330766389615
 50
140.4601893442294056
 51
196.2720118847612127
  0
ARC
  5
20099
  8
0
 10
248.1017051705435108
 20
73.0102738599475174
 30
0.0
 40
0.0152004325530588
 50
86.7484871967658506
 51
129.4144955840307034
  0
ARC
  5
2009A
  8
0
 10
248.1011994900655111
 20
72.977470145171111
 30
0.0
 40
0.0479991708910077
 50
70.3866793808444413
 51
88.3670166885644335
  0
ARC
  5
2009B
  8
0
 10
248.0737595224582037
 20
72.9097713008115704
 30
0.0
 40
0.1210211916156669
 50
20.2160753898543817
 51
68.9077972294906402
  0
ARC
  5
2009C
  8
0
 10
248.1644229945837026
 20
72.9408717961345019
 30
0.0
 40
0.0252869680022534
 50
329.2082714271687109
 51
25.0826156204379487
  0
ARC
  5
2009D
  8
0
 10
248.1778266744481982
 20
72.9390308681250445
 30
0.0
 40
0.0138743685194886
 50
247.2760590094750057
 51
306.8392385697641771
  0
ARC
  5
2009E
  8
0
 10
248.2021877897846025
 20
73.0068325482402827
 30
0.0
 40
0.085904184394576
 50
230.9023982786023055
 51
249.75869967937561
  0
ARC
  5
2009F
  8
0
 10
248.0791888440863033
 20
73.1203874352033836
 30
0.0
 40
0.0970997760997298
 50
211.2551693654889107
 51
217.6588071253677015
  0
ARC
  5
200A0
  8
0
 10
248.0078937454522929
 20
73.0771134328871881
 30
0.0
 40
0.0136993544045622
 50
191.5404802595544993
 51
211.2470427170156881
  0
ARC
  5
200A1
  8
0
 10
247.9978583175789026
 20
73.0750643172972616
 30
0.0
 40
0.0034568602107274
 50
145.4203571484167128
 51
191.5404802595595868
  0
ARC
  5
200A2
  8
0
 10
247.9974313512921071
 20
73.0736860241257205
 30
0.0
 40
0.0041242834315691
 50
83.4123061720592744
 51
125.9142793564402041
  0
ARC
  5
200A3
  8
0
 10
247.9890067603915043
 20
73.0323514835488368
 30
0.0
 40
0.0462947028154723
 50
57.6810142711334208
 51
78.9189214382424638
  0
ARC
  5
200A4
  8
0
 10
247.9092561118964113
 20
72.8988486537827782
 30
0.0
 40
0.201792416977821
 50
27.4303709458280807
 51
58.8108291987928311
  0
ARC
  5
200A5
  8
0
 10
248.0855184716492943
 20
72.9854662045987368
 30
0.0
 40
0.0043879237851265
 50
324.7766771232596739
 51
7.8821710236146973
  0
ARC
  5
200A6
  8
0
 10
248.0869859960554038
 20
72.9861978300767191
 30
0.0
 40
0.0038891099447568
 50
246.6030516531776868
 51
302.9798738972755814
  0
ARC
  5
200A7
  8
0
 10
248.1370689153278022
 20
73.0787494088983465
 30
0.0
 40
0.1091082280453352
 50
224.9341353740533975
 51
241.7594120506039133
  0
LINE
  5
200A8
  8
0
 10
248.1521908678774082
 20
72.9103184739925894
 30
0.0
 11
248.1630683514123064
 21
72.9217840309200653
 31
0.0
  0
ARC
  5
200A9
  8
0
 10
248.1600295599077981
 20
72.9029065883360659
 30
0.0
 40
0.0107880091647284
 50
136.6030751747132115
 51
195.1524942240639859
  0
ARC
  5
200AA
  8
0
 10
248.1979340908997074
 20
72.9211098128573951
 30
0.0
 40
0.0526929708073733
 50
203.5140132554973889
 51
221.0595150480858138
  0
ARC
  5
200AB
  8
0
 10
248.4370621031816881
 20
73.0915718810278463
 30
0.0
 40
0.346147140248042
 50
216.3306879025697924
 51
224.8579614932471884
  0
ARC
  5
200AC
  8
0
 10
248.1976611329037894
 20
72.8564712933601015
 30
0.0
 40
0.0108447357354948
 50
236.611225034698208
 51
301.3167439434109269
  0
ARC
  5
200AD
  8
0
 10
248.3470448298072029
 20
73.0154543987494264
 30
0.0
 40
0.2275273118415689
 50
215.1832792263946885
 51
222.494732910696797
  0
ARC
  5
200AE
  8
0
 10
246.5585708017233912
 20
70.8432392842757537
 30
0.0
 40
2.588648734686104
 50
51.2099368730645779
 51
51.2382732792197402
  0
ARC
  5
200AF
  8
0
 10
248.175687608391911
 20
72.859615919958884
 30
0.0
 40
0.0047811573803493
 50
16.2372618752647
 51
37.6941809271356476
  0
ARC
  5
200B0
  8
0
 10
247.9766454796067876
 20
72.71431032629269
 30
0.0
 40
0.2512169980914007
 50
36.1601120050269813
 51
42.6549653537256432
  0
ARC
  5
200B1
  8
0
 10
248.1523591156301904
 20
72.874349219024424
 30
0.0
 40
0.0136175176560398
 50
48.3874740288925977
 51
51.1107614241961912
  0
ARC
  5
200B2
  8
0
 10
248.1607442705272035
 20
72.8866539587292834
 30
0.0
 40
0.0017132759757246
 50
273.5816214867249982
 51
275.4980601149504764
  0
ARC
  5
200B3
  8
0
 10
248.1621931377027011
 20
72.8851326683321474
 30
0.0
 40
0.001355032999736
 50
188.0023524993129911
 51
215.0457489441191115
  0
ARC
  5
200B4
  8
0
 10
248.2294860564115879
 20
72.9700902227720292
 30
0.0
 40
0.0970997760997298
 50
211.2551693654889107
 51
217.6588071253677015
  0
ARC
  5
200B5
  8
0
 10
248.1581909577776059
 20
72.9268162204558337
 30
0.0
 40
0.0136993544045622
 50
191.5404802595544993
 51
211.2470427170156881
  0
ARC
  5
200B6
  8
0
 10
248.1481555299037893
 20
72.9247671048659072
 30
0.0
 40
0.0034568602107274
 50
145.4203571484167128
 51
191.5404802595595868
  0
ARC
  5
200B7
  8
0
 10
248.1477285636169938
 20
72.923388811694366
 30
0.0
 40
0.0041242834315691
 50
83.4123061720592744
 51
125.9142793564402041
  0
ARC
  5
200B8
  8
0
 10
248.1393039727163057
 20
72.8820542711174539
 30
0.0
 40
0.0462947028154723
 50
57.6810142711334208
 51
78.9189214382424638
  0
ARC
  5
200B9
  8
0
 10
248.059553324221298
 20
72.7485514413514238
 30
0.0
 40
0.201792416977821
 50
27.4303709458280807
 51
58.8108291987928311
  0
LINE
  5
200BA
  8
0
 10
248.2032978881196073
 20
72.8472065600229257
 30
0.0
 11
248.2246415749011135
 21
72.8645947480831211
 31
0.0
  0
ARC
  5
200BB
  8
0
 10
247.7486100097254962
 20
72.2794559135008967
 30
0.0
 40
0.7346708092369675
 50
49.2889806677364888
 51
51.1879187984745414
  0
ARC
  5
200BC
  8
0
 10
248.2320843733469076
 20
72.8413281005470594
 30
0.0
 40
0.0065766628364136
 50
229.2889806677347053
 51
1.5955406148796349
  0
LINE
  5
200BD
  8
0
 10
249.3418005490175915
 20
70.7377613469555513
 30
0.0
 11
250.3225757856301925
 21
70.7377613469555513
 31
0.0
  0
LINE
  5
200BE
  8
0
 10
251.6519365092634928
 20
70.7377613469555513
 30
0.0
 11
251.9508087971917973
 21
70.7377613469555513
 31
0.0
  0
LINE
  5
200C0
  8
0
 10
245.9408732650703939
 20
73.1386059857653521
 30
0.0
 11
247.9207768147390993
 21
73.1386059857653521
 31
0.0
  0
LINE
  5
200C1
  8
0
 10
249.2510918951865051
 20
73.1386059857653521
 30
0.0
 11
253.9366318143127899
 21
73.1386059857653521
 31
0.0
  0
ENDSEC
  0
EOF
