  0
SECTION
  2
HEADER
  9
$ACADVER
  1
AC1009
  9
$INSBASE
 10
4932.4839376700647335
 20
-2.5640032793339311
 30
0.0
  9
$EXTMIN
 10
4923.5393573071778519
 20
-2.5645972283163578
 30
-0.0000000000112498
  9
$EXTMAX
 10
4933.7021546719688558
 20
4.753863588938529
 30
0.0000000000002956
  9
$LIMMIN
 10
0.0
 20
0.0
  9
$LIMMAX
 10
11.6929133858000007
 20
8.2677165353999982
  9
$ORTHOMODE
 70
     0
  9
$REGENMODE
 70
     1
  9
$FILLMODE
 70
     1
  9
$QTEXTMODE
 70
     0
  9
$MIRRTEXT
 70
     0
  9
$DRAGMODE
 70
     2
  9
$LTSCALE
 40
0.6431102362
  9
$OSMODE
 70
  1599
  9
$ATTMODE
 70
     1
  9
$TEXTSIZE
 40
0.2
  9
$TRACEWID
 40
0.05
  9
$TEXTSTYLE
  7
STANDARD
  9
$CLAYER
  8
0
  9
$CELTYPE
  6
BYLAYER
  9
$CECOLOR
 62
   256
  9
$DIMSCALE
 40
1.0
  9
$DIMASZ
 40
0.1875
  9
$DIMEXO
 40
0.0625
  9
$DIMDLI
 40
0.4443307087
  9
$DIMRND
 40
0.0
  9
$DIMDLE
 40
0.0
  9
$DIMEXE
 40
0.125
  9
$DIMTP
 40
0.01
  9
$DIMTM
 40
0.01
  9
$DIMTXT
 40
2.0
  9
$DIMCEN
 40
0.1052362205
  9
$DIMTSZ
 40
0.0
  9
$DIMTOL
 70
     1
  9
$DIMLIM
 70
     0
  9
$DIMTIH
 70
     1
  9
$DIMTOH
 70
     1
  9
$DIMSE1
 70
     0
  9
$DIMSE2
 70
     0
  9
$DIMTAD
 70
     0
  9
$DIMZIN
 70
     0
  9
$DIMBLK
  1

  9
$DIMASO
 70
     1
  9
$DIMSHO
 70
     1
  9
$DIMPOST
  1
\X
  9
$DIMAPOST
  1

  9
$DIMALT
 70
     1
  9
$DIMALTD
 70
     2
  9
$DIMALTF
 40
25.3999999999999986
  9
$DIMLFAC
 40
1.0
  9
$DIMTOFL
 70
     0
  9
$DIMTVP
 40
0.0
  9
$DIMTIX
 70
     0
  9
$DIMSOXD
 70
     0
  9
$DIMSAH
 70
     0
  9
$DIMBLK1
  1

  9
$DIMBLK2
  1

  9
$DIMSTYLE
  2
STANDARD
  9
$DIMCLRD
 70
     0
  9
$DIMCLRE
 70
     0
  9
$DIMCLRT
 70
     0
  9
$DIMTFAC
 40
1.0
  9
$DIMGAP
 40
0.09
  9
$LUNITS
 70
     2
  9
$LUPREC
 70
     4
  9
$SKETCHINC
 40
0.1
  9
$FILLETRAD
 40
0.0
  9
$AUNITS
 70
     0
  9
$AUPREC
 70
     0
  9
$MENU
  1
.
  9
$ELEVATION
 40
0.0
  9
$PELEVATION
 40
0.0
  9
$THICKNESS
 40
0.0
  9
$LIMCHECK
 70
     0
  9
$BLIPMODE
 70
     0
  9
$CHAMFERA
 40
0.0
  9
$CHAMFERB
 40
0.0
  9
$SKPOLY
 70
     0
  9
$TDCREATE
 40
2458060.468368056230247
  9
$TDUPDATE
 40
2460721.4710532408207655
  9
$TDINDWG
 40
1.1444399305999999
  9
$TDUSRTIMER
 40
1.1444399305999999
  9
$USRTIMER
 70
     1
  9
$ANGBASE
 50
0.0
  9
$ANGDIR
 70
     0
  9
$PDMODE
 70
     0
  9
$PDSIZE
 40
0.3125
  9
$PLINEWID
 40
0.0
  9
$COORDS
 70
     1
  9
$SPLFRAME
 70
     0
  9
$SPLINETYPE
 70
     6
  9
$SPLINESEGS
 70
     8
  9
$ATTDIA
 70
     1
  9
$ATTREQ
 70
     1
  9
$HANDLING
 70
     1
  9
$HANDSEED
  5
413F7
  9
$SURFTAB1
 70
     6
  9
$SURFTAB2
 70
     6
  9
$SURFTYPE
 70
     6
  9
$SURFU
 70
     6
  9
$SURFV
 70
     6
  9
$UCSNAME
  2

  9
$UCSORG
 10
0.0
 20
0.0
 30
0.0
  9
$UCSXDIR
 10
1.0
 20
0.0
 30
0.0
  9
$UCSYDIR
 10
0.0
 20
1.0
 30
0.0
  9
$PUCSNAME
  2

  9
$PUCSORG
 10
0.0
 20
0.0
 30
0.0
  9
$PUCSXDIR
 10
1.0
 20
0.0
 30
0.0
  9
$PUCSYDIR
 10
0.0
 20
1.0
 30
0.0
  9
$USERI1
 70
     0
  9
$USERI2
 70
     0
  9
$USERI3
 70
     0
  9
$USERI4
 70
     0
  9
$USERI5
 70
     0
  9
$USERR1
 40
0.0
  9
$USERR2
 40
0.0
  9
$USERR3
 40
0.0
  9
$USERR4
 40
0.0
  9
$USERR5
 40
0.0
  9
$WORLDVIEW
 70
     1
  9
$SHADEDGE
 70
     3
  9
$SHADEDIF
 70
    70
  9
$TILEMODE
 70
     1
  9
$MAXACTVP
 70
    64
  9
$PLIMCHECK
 70
     0
  9
$PEXTMIN
 10
1.0000000000000000E+20
 20
1.0000000000000000E+20
 30
1.0000000000000000E+20
  9
$PEXTMAX
 10
-1.0000000000000000E+20
 20
-1.0000000000000000E+20
 30
-1.0000000000000000E+20
  9
$PLIMMIN
 10
0.0
 20
0.0
  9
$PLIMMAX
 10
12.0
 20
9.0
  9
$UNITMODE
 70
     0
  9
$VISRETAIN
 70
     1
  9
$PLINEGEN
 70
     0
  9
$PSLTSCALE
 70
     1
  0
ENDSEC
  0
SECTION
  2
TABLES
  0
TABLE
  2
VPORT
 70
     1
  0
VPORT
  2
*ACTIVE
 70
     0
 10
0.0
 20
0.0
 11
1.0
 21
1.0
 12
1136.262845833324036
 22
-119.0860232527944049
 13
0.0
 23
0.0
 14
1.0
 24
1.0
 15
0.0
 25
0.0
 16
0.0
 26
0.0
 36
5.1040778033513332
 17
3792.35791015625
 27
120.1806564331053977
 37
0.0
 40
7.368875013470201
 41
2.1781609195402289
 42
50.0
 43
0.0
 44
0.0
 50
0.0
 51
0.0
 71
     0
 72
   100
 73
     1
 74
     1
 75
     0
 76
     0
 77
     0
 78
     0
  0
ENDTAB
  0
TABLE
  2
LTYPE
 70
     2
  0
LTYPE
  2
CONTINUOUS
 70
     0
  3
Solid line
 72
    65
 73
     0
 40
0.0
  0
LTYPE
  2
PHANTOM2
 70
     0
  3
___ _ _ ___ _ _ ___ _ _ ___ _ _
 72
    65
 73
     6
 40
1.25
 49
0.625
 49
-0.125
 49
0.125
 49
-0.125
 49
0.125
 49
-0.125
  0
ENDTAB
  0
TABLE
  2
LAYER
 70
     2
  0
LAYER
  2
0
 70
     0
 62
   255
  6
CONTINUOUS
  0
LAYER
  2
DEFPOINTS
 70
     0
 62
     7
  6
CONTINUOUS
  0
ENDTAB
  0
TABLE
  2
STYLE
 70
     1
  0
STYLE
  2
STANDARD
 70
     0
 40
0.0
 41
0.8
 50
0.0
 71
     0
 42
0.2
  3
txt
  4

  0
ENDTAB
  0
TABLE
  2
VIEW
 70
     0
  0
ENDTAB
  0
TABLE
  2
UCS
 70
     0
  0
ENDTAB
  0
TABLE
  2
APPID
 70
    11
  0
APPID
  2
ACAD
 70
     0
  0
APPID
  2
ACAD_MLEADERVER
 70
     0
  0
APPID
  2
ACAD_EXEMPT_FROM_CAD_STANDARDS
 70
     0
  0
APPID
  2
ACAD_NAV_VCDISPLAY
 70
     0
  0
APPID
  2
ACAECLAYERSTANDARD
 70
     0
  0
APPID
  2
ACCMTRANSPARENCY
 70
     0
  0
APPID
  2
ACAD_DSTYLE_DIMJAG
 70
     0
  0
APPID
  2
ACAD_DSTYLE_DIMTALN
 70
     0
  0
APPID
  2
ACDBATTR
 70
     0
  0
APPID
  2
GRADIENTCOLOR1ACI
 70
     0
  0
APPID
  2
GRADIENTCOLOR2ACI
 70
     0
  0
ENDTAB
  0
TABLE
  2
DIMSTYLE
 70
     1
  0
DIMSTYLE
  2
STANDARD
 70
     0
  3

  4

  5

  6

  7

 40
1.0
 41
0.1875
 42
0.0625
 43
0.38
 44
0.125
 45
0.0
 46
0.0
 47
0.01
 48
0.01
140
0.15625
141
0.09
142
0.0
143
25.3999999999999986
144
1.0
145
0.0
146
1.0
147
0.09
 71
     1
 72
     0
 73
     1
 74
     1
 75
     0
 76
     0
 77
     0
 78
     4
170
     0
171
     2
172
     0
173
     0
174
     0
175
     0
176
     0
177
     0
178
     0
  0
ENDTAB
  0
ENDSEC
  0
SECTION
  2
BLOCKS
  0
BLOCK
  8
0
  2
$MODEL_SPACE
 70
     0
 10
0.0
 20
0.0
 30
0.0
  3
$MODEL_SPACE
  1

  0
ENDBLK
  5
21
  8
0
  0
BLOCK
 67
     1
  8
0
  2
$PAPER_SPACE
 70
     0
 10
0.0
 20
0.0
 30
0.0
  3
$PAPER_SPACE
  1

  0
ENDBLK
  5
1D
 67
     1
  8
0
  0
ENDSEC
  0
SECTION
  2
ENTITIES
  0
LINE
  5
40D3D
  8
0
 10
4931.6798287570582033
 20
-1.147751539210053
 30
0.0
 11
4931.6241697677505726
 21
-1.092087007590639
 31
0.0
  0
LINE
  5
40D3E
  8
0
 10
4932.2644258880764028
 20
-0.4517671318166139
 30
0.0
 11
4932.3201222990574024
 21
-0.5074579972100582
 31
0.0
  0
LINE
  5
40D3F
  8
0
 10
4932.3201222990574024
 20
-0.5074579972100582
 30
0.0
 11
4931.6797968812188628
 21
-1.147719660198139
 31
0.0
  0
LINE
  5
40D40
  8
0
 10
4931.6797968812188628
 20
-1.147719660198139
 30
0.0
 11
4931.6710041952583197
 21
-1.1806852535600609
 31
0.0
  0
LINE
  5
40D41
  8
0
 10
4931.6710041952583197
 20
-1.1806852535600609
 30
0.0
 11
4931.8417669918571846
 21
-1.3514480485100691
 31
0.0
  0
LINE
  5
40D42
  8
0
 10
4931.8417669918571846
 20
-1.3514480485100691
 30
0.0
 11
4931.8747007045576538
 21
-1.3426234868100591
 31
0.0
  0
LINE
  5
40D43
  8
0
 10
4931.8747007045576538
 20
-1.3426234868100591
 30
0.0
 11
4931.9303784038529557
 21
-1.3983011877080891
 31
0.0
  0
LINE
  5
40D44
  8
0
 10
4931.9303784038529557
 20
-1.3983011877080891
 30
0.0
 11
4931.9860561031573525
 21
-1.398301187703741
 31
0.0
  0
LINE
  5
40D45
  8
0
 10
4931.9860561031573525
 20
-1.398301187703741
 30
0.0
 11
4932.5706717841576392
 21
-0.8136855051100484
 31
0.0
  0
LINE
  5
40D46
  8
0
 10
4932.5706717841576392
 20
-0.8136855051100484
 30
0.0
 11
4932.5706719459567466
 21
-0.7580076441100561
 31
0.0
  0
LINE
  5
40D47
  8
0
 10
4932.5706719459567466
 20
-0.7580076441100561
 30
0.0
 11
4932.5149942465577624
 21
-0.7023299447100487
 31
0.0
  0
LINE
  5
40D48
  8
0
 10
4932.5149942465577624
 20
-0.7023299447100487
 30
0.0
 11
4932.5238188083567366
 21
-0.6693962320100626
 31
0.0
  0
LINE
  5
40D49
  8
0
 10
4932.5238188083567366
 20
-0.6693962320100626
 30
0.0
 11
4932.3530560117560526
 21
-0.4986334354100608
 31
0.0
  0
LINE
  5
40D4A
  8
0
 10
4932.3530560117560526
 20
-0.4986334354100608
 30
0.0
 11
4932.3201222990574024
 21
-0.5074579972100582
 31
0.0
  0
LINE
  5
40D4B
  8
0
 10
4932.3530560117560526
 20
-0.4986334354100608
 30
0.0
 11
4932.3480320743583434
 21
-0.5036573729100599
 31
0.0
  0
ARC
  5
40D4C
  8
0
 10
4932.4264061368121475
 20
-0.6995249038317342
 30
0.0
 40
0.2109658345207821
 50
111.8082305195712962
 51
158.1917694316441043
  0
LINE
  5
40D4D
  8
0
 10
4932.2305386059560988
 20
-0.621150841210043
 30
0.0
 11
4932.1295235718571348
 21
-0.7221658753100586
 31
0.0
  0
ARC
  5
40D4E
  8
0
 10
4932.5788452383503682
 20
-1.4064744783115699
 30
0.0
 40
0.8186380299752244
 50
123.289173999670794
 51
146.7108260247260887
  0
LINE
  5
40D4F
  8
0
 10
4931.8945366351572375
 20
-0.9571528121100572
 30
0.0
 11
4931.7935216011073862
 21
-1.0581678461600501
 31
0.0
  0
ARC
  5
40D50
  8
0
 10
4931.8718956633374546
 20
-1.254035376739044
 30
0.0
 40
0.2109658341186704
 50
111.8082304971728007
 51
158.1917695028164985
  0
LINE
  5
40D51
  8
0
 10
4931.6760281327560733
 20
-1.1756613145100561
 30
0.0
 11
4931.6710041953074324
 21
-1.1806852536100549
 31
0.0
  0
LINE
  5
40D52
  8
0
 10
4931.8417669918571846
 20
-1.3514480485100691
 30
0.0
 11
4931.8467909292594413
 21
-1.3464241111115349
 31
0.0
  0
ARC
  5
40D53
  8
0
 10
4931.7684168676632908
 20
-1.1505565810394991
 30
0.0
 40
0.2109658333678116
 50
291.8082303832948128
 51
338.1917695845792764
  0
LINE
  5
40D54
  8
0
 10
4931.964284397658048
 20
-1.2289306427100579
 30
0.0
 11
4932.0652994317570119
 21
-1.127915608610043
 31
0.0
  0
ARC
  5
40D55
  8
0
 10
4931.6159185347642051
 20
-0.4435477749166852
 30
0.0
 40
0.8187200512853584
 50
303.2903638209285191
 51
326.7096361790632955
  0
LINE
  5
40D56
  8
0
 10
4932.3002863684578188
 20
-0.892928671910032
 30
0.0
 11
4932.4013014025576922
 21
-0.7919136378100449
 31
0.0
  0
ARC
  5
40D57
  8
0
 10
4932.3227393084789583
 20
-0.5958580753317664
 30
0.0
 40
0.2112102890596022
 50
291.836638487841185
 51
338.1633615121451157
  0
LINE
  5
40D58
  8
0
 10
4932.5187948709581178
 20
-0.6744201694100456
 30
0.0
 11
4932.5238188083567366
 21
-0.6693962320100626
 31
0.0
  0
LINE
  5
40D59
  8
0
 10
4932.5187948709581178
 20
-0.6744201694100456
 30
0.0
 11
4932.3480320743583434
 21
-0.5036573729100599
 31
0.0
  0
LINE
  5
40D5A
  8
0
 10
4932.2305386059560988
 20
-0.621150841210043
 30
0.0
 11
4932.4013014025576922
 21
-0.7919136378100449
 31
0.0
  0
LINE
  5
40D5B
  8
0
 10
4932.3002863684578188
 20
-0.8929286719100604
 30
0.0
 11
4932.1295235718571348
 21
-0.7221658753100586
 31
0.0
  0
LINE
  5
40D5C
  8
0
 10
4931.8945366351572375
 20
-0.9571528121100572
 30
0.0
 11
4932.0652994317069897
 21
-1.127915608660065
 31
0.0
  0
LINE
  5
40D5D
  8
0
 10
4931.964284397658048
 20
-1.2289306427100579
 30
0.0
 11
4931.7935216011073862
 21
-1.0581678461600501
 31
0.0
  0
LINE
  5
40D5E
  8
0
 10
4931.6760281327560733
 20
-1.1756613145100561
 30
0.0
 11
4931.8467909292248805
 21
-1.3464241110771169
 31
0.0
  0
LINE
  5
40D5F
  8
0
 10
4931.8747007045576538
 20
-1.3426234868100591
 30
0.0
 11
4932.5149942466068751
 21
-0.7023299447600424
 31
0.0
  0
LINE
  5
40D60
  8
0
 10
4932.5706719459567466
 20
-0.7580076441100561
 30
0.0
 11
4931.9303784038484082
 21
-1.398301187703741
 31
0.0
  0
LINE
  5
40D61
  8
0
 10
4932.0556532273576522
 20
-1.328704061910063
 30
0.0
 11
4932.0834920769648306
 21
-1.3565429116176559
 31
0.0
  0
LINE
  5
40D62
  8
0
 10
4931.9860561031573525
 20
-1.4539788854100419
 30
0.0
 11
4932.626349645256596
 21
-0.8136853434100475
 31
0.0
  0
ARC
  5
40D63
  8
0
 10
4932.4388120087760399
 20
-1.2257745872044881
 30
0.0
 40
0.452755905481034
 50
359.9999999992949142
 51
65.530199481176993
  0
LINE
  5
40D64
  8
0
 10
4932.5289136715000495
 20
-0.9111213171524399
 30
0.0
 11
4932.5010748217573564
 21
-0.883282467510047
 31
0.0
  0
LINE
  5
40D65
  8
0
 10
4932.8915679142573936
 20
-1.2257745872100581
 30
0.0
 11
4932.8915679142573936
 21
-1.5798419994285711
 31
0.0
  0
LINE
  5
40D66
  8
0
 10
4931.9860561031573525
 20
-1.5798419994284281
 30
0.0
 11
4931.9860561031573525
 21
-1.4539788854100419
 31
0.0
  0
LINE
  5
40D67
  8
0
 10
4931.9860561031573525
 20
-1.5798419994284281
 30
0.0
 11
4932.8915679142573936
 21
-1.5798419994284281
 31
0.0
  0
LINE
  5
40D68
  8
0
 10
4932.9860561031573525
 20
-1.9734520982339261
 30
0.0
 11
4931.8915679142583031
 21
-1.9734520982339261
 31
0.0
  0
ARC
  5
40D69
  8
0
 10
4931.8919491691685835
 20
-2.0137426060840919
 30
0.0
 40
0.0402923116503903
 50
90.5421536370410678
 51
178.6910332765804981
  0
LINE
  5
40D6A
  8
0
 10
4931.851667371935946
 20
-2.0128221769032022
 30
0.0
 11
4931.8516673718750098
 21
-2.091562334433926
 31
0.0
  0
LINE
  5
40D6B
  8
0
 10
4931.4343445372187489
 20
-2.1033733581339362
 30
0.0
 11
4931.4343445372187489
 21
-2.5640032793339311
 31
0.0
  0
LINE
  5
40D6C
  8
0
 10
4933.4422185530193019
 20
-2.5640032793339311
 30
0.0
 11
4933.4422185530193019
 21
-2.1033733580339291
 31
0.0
  0
ARC
  5
40D6D
  8
0
 10
4933.4304075294203358
 20
-2.1033733580339291
 30
0.0
 40
0.0118110235999964
 50
0.0000000000162844
 51
89.9999916614808626
  0
LINE
  5
40D6E
  8
0
 10
4933.4304075294203358
 20
-2.091562334533918
 30
0.0
 11
4931.4461661539289707
 21
-2.091562334533918
 31
0.0
  0
ARC
  5
40D6F
  8
0
 10
4931.4461571118199572
 20
-2.1033749057754241
 30
0.0
 40
0.0118125747022154
 50
89.9561421464767932
 51
179.9924933107743072
  0
ARC
  5
40D70
  8
0
 10
4932.9860561019004308
 20
-2.012822178291136
 30
0.0
 40
0.0393700800572248
 50
0.00000096367896
 51
89.999998170358495
  0
LINE
  5
40D71
  8
0
 10
4933.0254261820382453
 20
-2.0128221782097349
 30
0.0
 11
4933.0254261822010449
 21
-2.091562334433926
 31
0.0
  0
LINE
  5
40D72
  8
0
 10
4933.4225338079186258
 20
-2.0915623401846131
 30
0.0
 11
4933.4232938611903592
 21
3.2903273994624689
 31
0.0
  0
ARC
  5
40D73
  8
0
 10
4933.3913094799127066
 20
3.2901249775729151
 30
0.0
 40
0.0319850218123291
 50
0.3626071428596993
 51
89.1238592734111847
  0
ARC
  5
40D74
  8
0
 10
4926.3549105013953522
 20
3.5613770526928681
 30
0.0
 40
1.0364015278907399
 50
200.2178761684675123
 51
227.9638056585428956
  0
LINE
  5
40D75
  8
0
 10
4925.6609361158907632
 20
2.7916188573624789
 30
0.0
 11
4926.4836539849902692
 21
2.5864922541624789
 31
0.0
  0
LINE
  5
40D76
  8
0
 10
4926.4836539849902692
 20
2.5864922541624789
 30
0.0
 11
4926.4855818850001015
 21
2.5876506534340962
 31
0.0
  0
ARC
  5
40D77
  8
0
 10
4926.7978272306963845
 20
3.6666013760994209
 30
0.0
 40
1.1232222068330611
 50
253.8597811467620033
 51
260.585730438516805
  0
ARC
  5
40D78
  8
0
 10
4923.4454518729262418
 20
-8.2522520186829666
 30
0.0
 40
11.2581489220279405
 50
74.3334512208950429
 51
76.1455636403349558
  0
ARC
  5
40D79
  8
0
 10
4944.0346285330597311
 20
81.5485112451468979
 30
0.0
 40
80.874418800745687
 50
256.9847273127443259
 51
257.21762507250628
  0
LINE
  5
40D7A
  8
0
 10
4925.7960428402757316
 20
2.7579329676019171
 30
0.0
 11
4925.7904635267932463
 21
2.7355555630620212
 31
0.0
  0
ARC
  5
40D7B
  8
0
 10
4925.828664146398296
 20
2.7260310790384059
 30
0.0
 40
0.0393700791746369
 50
166.0000002403357939
 51
210.9999998344125061
  0
LINE
  5
40D7C
  8
0
 10
4925.7949174018449412
 20
2.7057539893487919
 30
0.0
 11
4925.8008579950601415
 21
2.6958671818837412
 31
0.0
  0
LINE
  5
40D7D
  8
0
 10
4925.8008579950601415
 20
2.6958671818837412
 30
0.0
 11
4926.4502627635911267
 21
2.5339537264644458
 31
0.0
  0
LINE
  5
40D7E
  8
0
 10
4926.4502627635911267
 20
2.5339537264644458
 30
0.0
 11
4926.4601511417913571
 21
2.5398925895624842
 31
0.0
  0
ARC
  5
40D7F
  8
0
 10
4926.4398959090549397
 20
2.5736231605295501
 30
0.0
 40
0.0393449599180296
 50
300.9848475593926764
 51
346.0151522853723236
  0
LINE
  5
40D80
  8
0
 10
4926.4780746713895496
 20
2.564114849562471
 30
0.0
 11
4926.4836539849902692
 21
2.5864922541624789
 31
0.0
  0
ARC
  5
40D81
  8
0
 10
4927.0859602398031711
 20
0.8642029546264531
 30
0.0
 40
1.7587191769633359
 50
92.1597456530335535
 51
105.5606402600630958
  0
ARC
  5
40D82
  8
0
 10
4928.7191707799001961
 20
-26.3365779473075001
 30
0.0
 40
28.9586823009498104
 50
87.0868348200160938
 51
89.3172155600158248
  0
ARC
  5
40D83
  8
0
 10
4930.0378217086599761
 20
-0.4238638693320383
 30
0.0
 40
3.012438041735185
 50
74.051664795576869
 51
87.0868348200160938
  0
ARC
  5
40D84
  8
0
 10
4930.658502230013255
 20
1.748096134769028
 30
0.0
 40
0.7535324286114238
 50
28.3600898885959296
 51
74.051664795576869
  0
ARC
  5
40D85
  8
0
 10
4930.3242446756075879
 20
1.6347706255071579
 30
0.0
 40
1.1030849467606569
 50
3.1170524442559548
 51
25.2913795921203999
  0
ARC
  5
40D86
  8
0
 10
4925.1658122898452348
 20
1.296077469221572
 30
0.0
 40
6.2725677345636761
 50
359.0227445047771084
 51
3.644085561889014
  0
LINE
  5
40D87
  8
0
 10
4931.4374676442903365
 20
1.189095696262469
 30
0.0
 11
4931.4374738945743957
 21
0.2427635114901134
 31
0.0
  0
LINE
  5
40D88
  8
0
 10
4931.4374706934759161
 20
0.7274298631091796
 30
0.0
 11
4930.9550726399584164
 21
0.7274298620350379
 31
0.0
  0
LINE
  5
40D89
  8
0
 10
4929.7284908280498712
 20
0.7274298593021383
 30
0.0
 11
4928.8710998139004005
 21
0.7274298573921528
 31
0.0
  0
ARC
  5
40D8A
  8
0
 10
4928.8710998139431467
 20
0.7077354986412133
 30
0.0
 40
0.0196943587509448
 50
90.0000001276178949
 51
202.6407751656670087
  0
ARC
  5
40D8B
  8
0
 10
4929.0842714820682886
 20
0.8082853672558343
 30
0.0
 40
0.2553711208165854
 50
205.0511947842198879
 51
251.6736939628461869
  0
ARC
  5
40D8C
  8
0
 10
4929.3706639827296385
 20
1.5907942080593349
 30
0.0
 40
1.0885483403072529
 50
250.3143154441671925
 51
266.7248533638468757
  0
ARC
  5
40D8D
  8
0
 10
4930.1423797918741911
 20
15.6857907083639407
 30
0.0
 40
15.2046520840596102
 50
266.8560109893790013
 51
269.3654828624219135
  0
LINE
  5
40D8E
  8
0
 10
4931.4367065355190789
 20
-2.0963010606339259
 30
0.0
 11
4931.437467670290971
 21
-0.9813595113788233
 31
0.0
  0
ARC
  5
40D8F
  8
0
 10
4926.2576495940238601
 20
3.1404649430022991
 30
0.0
 40
0.5919825579946921
 50
232.2621574475004138
 51
250.9409348670814097
  0
LINE
  5
40D90
  8
0
 10
4926.0643420120895826
 20
2.5809334177624659
 30
0.0
 11
4926.0759004928086142
 21
2.6272919521417322
 31
0.0
  0
LINE
  5
40D91
  8
0
 10
4926.0746642183030417
 20
2.6223335260673788
 30
0.0
 11
4926.0859784616231991
 21
2.615831488193165
 31
0.0
  0
LINE
  5
40D92
  8
0
 10
4926.0853581132041654
 20
2.6249339220309049
 30
0.0
 11
4926.0878596898901378
 21
2.6233766823475122
 31
0.0
  0
LINE
  5
40D93
  8
0
 10
4926.0878596898901378
 20
2.6233766823475122
 30
0.0
 11
4926.0859425591906984
 21
2.6156874912624768
 31
0.0
  0
LINE
  5
40D94
  8
0
 10
4926.0859425591906984
 20
2.6156874912624768
 30
0.0
 11
4926.0950915834328043
 21
2.6130649057581219
 31
0.0
  0
LINE
  5
40D95
  8
0
 10
4926.0950915834328043
 20
2.6130649057581219
 30
0.0
 11
4926.0963868916905994
 21
2.6129716796624929
 31
0.0
  0
LINE
  5
40D96
  8
0
 10
4926.0963868916905994
 20
2.6129716796624929
 30
0.0
 11
4926.0973383173895854
 21
2.61243639146248
 31
0.0
  0
LINE
  5
40D97
  8
0
 10
4926.0973383173895854
 20
2.61243639146248
 30
0.0
 11
4926.1067342341902986
 21
2.6098668622624781
 31
0.0
  0
LINE
  5
40D98
  8
0
 10
4926.1067342341902986
 20
2.6098668622624781
 30
0.0
 11
4926.1085326452903246
 21
2.617079895262477
 31
0.0
  0
LINE
  5
40D99
  8
0
 10
4926.1085326452903246
 20
2.617079895262477
 30
0.0
 11
4926.1176168585743653
 21
2.6168909799653051
 31
0.0
  0
LINE
  5
40D9A
  8
0
 10
4926.1069195887503156
 20
2.6106102788023828
 30
0.0
 11
4926.1246256054782862
 21
2.6111572661112481
 31
0.0
  0
LINE
  5
40D9B
  8
0
 10
4926.1246256054782862
 20
2.6111572661112481
 30
0.0
 11
4926.1400022953093867
 21
2.6023618336009942
 31
0.0
  0
LINE
  5
40D9C
  8
0
 10
4926.1255613217699647
 20
2.614910219198165
 30
0.0
 11
4926.1246256054910191
 21
2.611157266162464
 31
0.0
  0
LINE
  5
40D9D
  8
0
 10
4926.1335056339767107
 20
2.61292949607666
 30
0.0
 11
4926.1416153518903229
 21
2.608831450062481
 31
0.0
  0
LINE
  5
40D9E
  8
0
 10
4926.1416153518903229
 20
2.608831450062481
 30
0.0
 11
4926.139817069691162
 21
2.601618934062472
 31
0.0
  0
LINE
  5
40D9F
  8
0
 10
4926.139817069691162
 20
2.601618934062472
 30
0.0
 11
4926.1493193636979413
 21
2.5994760609321612
 31
0.0
  0
LINE
  5
40DA0
  8
0
 10
4926.1493193636979413
 20
2.5994760609321612
 30
0.0
 11
4926.1504107253367692
 21
2.5995020251721002
 31
0.0
  0
LINE
  5
40DA1
  8
0
 10
4926.1504107253367692
 20
2.5995020251721002
 30
0.0
 11
4926.1516011838157283
 21
2.5989763472483238
 31
0.0
  0
LINE
  5
40DA2
  8
0
 10
4926.1516011838157283
 20
2.5989763472483238
 30
0.0
 11
4926.1609077410448663
 21
2.5969975139444581
 31
0.0
  0
LINE
  5
40DA3
  8
0
 10
4926.1609077410448663
 20
2.5969975139444581
 30
0.0
 11
4926.1628246505906645
 21
2.604685818362483
 31
0.0
  0
LINE
  5
40DA4
  8
0
 10
4926.1628246505906645
 20
2.604685818362483
 30
0.0
 11
4926.1657650134156938
 21
2.604886395921155
 31
0.0
  0
LINE
  5
40DA5
  8
0
 10
4926.160943422463788
 20
2.5971406243028952
 30
0.0
 11
4926.1739858282262503
 21
2.5975698674974832
 31
0.0
  0
LINE
  5
40DA6
  8
0
 10
4926.159816801571651
 20
2.606369439440456
 30
0.0
 11
4926.1520194504873871
 21
2.6059542690041861
 31
0.0
  0
LINE
  5
40DA7
  8
0
 10
4926.1520194504873871
 20
2.6059542690041861
 30
0.0
 11
4926.1418618429752314
 21
2.6108460763997949
 31
0.0
  0
LINE
  5
40DA8
  8
0
 10
4926.1520194504873871
 20
2.6059542690041861
 30
0.0
 11
4926.1525732516820426
 21
2.6081754443373342
 31
0.0
  0
LINE
  5
40DA9
  8
0
 10
4926.0913062756262661
 20
2.6234508908339218
 30
0.0
 11
4926.0979956168603167
 21
2.619423923552588
 31
0.0
  0
LINE
  5
40DAA
  8
0
 10
4926.0979956168603167
 20
2.619423923552588
 30
0.0
 11
4926.109217405635718
 21
2.618985181478493
 31
0.0
  0
LINE
  5
40DAB
  8
0
 10
4926.0979956167620912
 20
2.6194239236102841
 30
0.0
 11
4926.0985493918242355
 21
2.6216449940676929
 31
0.0
  0
LINE
  5
40DAC
  8
0
 10
4926.0444722023912618
 20
2.631431003262477
 30
0.0
 11
4926.0411862006840238
 21
2.6182515703248859
 31
0.0
  0
LINE
  5
40DAD
  8
0
 10
4926.0399401854247117
 20
2.6132540761018528
 30
0.0
 11
4926.037661897498765
 21
2.604116362360215
 31
0.0
  0
LINE
  5
40DAE
  8
0
 10
4926.0368510026528384
 20
2.600864040782866
 30
0.0
 11
4926.0355096314760885
 21
2.5954840948673019
 31
0.0
  0
LINE
  5
40DAF
  8
0
 10
4926.0351097898001171
 20
2.5938804175040242
 30
0.0
 11
4926.0346667567910117
 21
2.5921035091624698
 31
0.0
  0
LINE
  5
40DB0
  8
0
 10
4926.0346667567910117
 20
2.5921035091624698
 30
0.0
 11
4926.018042516991045
 21
2.599364938862478
 31
0.0
  0
LINE
  5
40DB1
  8
0
 10
4926.018042516991045
 20
2.599364938862478
 30
0.0
 11
4926.0182706325913387
 21
2.6002798609624871
 31
0.0
  0
LINE
  5
40DB2
  8
0
 10
4926.0182706325913387
 20
2.6002798609624871
 30
0.0
 11
4926.0343338071188555
 21
2.5942377676494601
 31
0.0
  0
LINE
  5
40DB3
  8
0
 10
4926.0343338071188555
 20
2.5942377676494601
 30
0.0
 11
4926.0351097898910666
 21
2.5938804174624721
 31
0.0
  0
LINE
  5
40DB4
  8
0
 10
4926.0338866363481429
 20
2.5924442639770708
 30
0.0
 11
4926.0343338070561003
 21
2.5942377676717991
 31
0.0
  0
LINE
  5
40DB5
  8
0
 10
4926.0444722023912618
 20
2.631431003262477
 30
0.0
 11
4926.0437349614012419
 21
2.6319437378283932
 31
0.0
  0
LINE
  5
40DB6
  8
0
 10
4926.0437349614012419
 20
2.6319437378283932
 30
0.0
 11
4926.0269739158884477
 21
2.635186823549716
 31
0.0
  0
LINE
  5
40DB7
  8
0
 10
4926.0269739158884477
 20
2.635186823549716
 30
0.0
 11
4926.0252811378895785
 21
2.628397461762475
 31
0.0
  0
LINE
  5
40DB8
  8
0
 10
4926.0252811378895785
 20
2.628397461762475
 30
0.0
 11
4926.0403651286060267
 21
2.6184280771552291
 31
0.0
  0
LINE
  5
40DB9
  8
0
 10
4926.0403651286060267
 20
2.6184280771552291
 30
0.0
 11
4926.0411862006840238
 21
2.6182515703248859
 31
0.0
  0
LINE
  5
40DBA
  8
0
 10
4926.0399401854901953
 20
2.6132540760624892
 30
0.0
 11
4926.0391887906498596
 21
2.6137099570890849
 31
0.0
  0
LINE
  5
40DBB
  8
0
 10
4926.0391887906498596
 20
2.6137099570890849
 30
0.0
 11
4926.0226705299292007
 21
2.6179268852055051
 31
0.0
  0
LINE
  5
40DBC
  8
0
 10
4926.0226705299292007
 20
2.6179268852055051
 30
0.0
 11
4926.0214971768909891
 21
2.6132208230624911
 31
0.0
  0
LINE
  5
40DBD
  8
0
 10
4926.0214971768909891
 20
2.6132208230624911
 30
0.0
 11
4926.0368524000987236
 21
2.604339292598822
 31
0.0
  0
LINE
  5
40DBE
  8
0
 10
4926.0368524000987236
 20
2.604339292598822
 30
0.0
 11
4926.037661897498765
 21
2.604116362360215
 31
0.0
  0
LINE
  5
40DBF
  8
0
 10
4926.0368510026919466
 20
2.6008640407624881
 30
0.0
 11
4926.0360868443913205
 21
2.6012688163624911
 31
0.0
  0
LINE
  5
40DC0
  8
0
 10
4926.0360868443913205
 20
2.6012688163624911
 30
0.0
 11
4926.0197987090114111
 21
2.6064086403555251
 31
0.0
  0
LINE
  5
40DC1
  8
0
 10
4926.0197987090114111
 20
2.6064086403555251
 30
0.0
 11
4926.0191079912301575
 21
2.603638322979676
 31
0.0
  0
LINE
  5
40DC2
  8
0
 10
4926.0191079912301575
 20
2.603638322979676
 30
0.0
 11
4926.0347112906811162
 21
2.595751771656281
 31
0.0
  0
LINE
  5
40DC3
  8
0
 10
4926.0347112906811162
 20
2.595751771656281
 30
0.0
 11
4926.0355096314906405
 21
2.5954840948624698
 31
0.0
  0
LINE
  5
40DC4
  8
0
 10
4926.0347112906265465
 20
2.5957517716837648
 30
0.0
 11
4926.0360868443804065
 21
2.6012688163677211
 31
0.0
  0
LINE
  5
40DC5
  8
0
 10
4926.0368524000978141
 20
2.6043392925992199
 30
0.0
 11
4926.0391887704809051
 21
2.6137099622377908
 31
0.0
  0
LINE
  5
40DC6
  8
0
 10
4926.0403651286651439
 20
2.6184280771427799
 30
0.0
 11
4926.0437349614021514
 21
2.6319437378277959
 31
0.0
  0
LINE
  5
40DC7
  8
0
 10
4926.0259473772330239
 20
2.6052073760057648
 30
0.0
 11
4926.0268742336629657
 21
2.6089247939633391
 31
0.0
  0
LINE
  5
40DC8
  8
0
 10
4926.0268742336629657
 20
2.6089247939633391
 30
0.0
 11
4926.0116091466907164
 21
2.6181678414624652
 31
0.0
  0
LINE
  5
40DC9
  8
0
 10
4926.0116091466907164
 20
2.6181678414624652
 30
0.0
 11
4925.9954117974903056
 21
2.623671789262473
 31
0.0
  0
LINE
  5
40DCA
  8
0
 10
4925.9954117974903056
 20
2.623671789262473
 30
0.0
 11
4925.9944740004902997
 21
2.6199104907624782
 31
0.0
  0
LINE
  5
40DCB
  8
0
 10
4925.9944740004902997
 20
2.6199104907624782
 30
0.0
 11
4926.0097445574892845
 21
2.6106893824624668
 31
0.0
  0
LINE
  5
40DCC
  8
0
 10
4926.0097445574892845
 20
2.6106893824624668
 30
0.0
 11
4926.0259473771911871
 21
2.6052073759624781
 31
0.0
  0
LINE
  5
40DCD
  8
0
 10
4926.0116091466907164
 20
2.6181678414624652
 30
0.0
 11
4926.0097445581959619
 21
2.6106893822236108
 31
0.0
  0
LINE
  5
40DCE
  8
0
 10
4926.0290163429317545
 20
2.6175163251057678
 30
0.0
 11
4926.0304407703533798
 21
2.6232293912637061
 31
0.0
  0
LINE
  5
40DCF
  8
0
 10
4926.0304407703533798
 20
2.6232293912637061
 30
0.0
 11
4926.0154511155533328
 21
2.633577137528575
 31
0.0
  0
LINE
  5
40DD0
  8
0
 10
4926.0154511155533328
 20
2.633577137528575
 30
0.0
 11
4925.9991238181901281
 21
2.6381203327897111
 31
0.0
  0
LINE
  5
40DD1
  8
0
 10
4925.9991238181901281
 20
2.6381203327897111
 30
0.0
 11
4925.9975797740898997
 21
2.632367068362484
 31
0.0
  0
LINE
  5
40DD2
  8
0
 10
4925.9975797740898997
 20
2.632367068362484
 30
0.0
 11
4926.0125846352057124
 21
2.6220803151547472
 31
0.0
  0
LINE
  5
40DD3
  8
0
 10
4926.0125846352057124
 20
2.6220803151547472
 30
0.0
 11
4926.0290163428908272
 21
2.6175163250624811
 31
0.0
  0
LINE
  5
40DD4
  8
0
 10
4926.0154511155533328
 20
2.633577137528575
 30
0.0
 11
4926.0125846359132993
 21
2.6220803149158618
 31
0.0
  0
LINE
  5
40DD5
  8
0
 10
4926.0015846543328735
 20
2.6225675399057731
 30
0.0
 11
4926.0027669440896716
 21
2.627309444962477
 31
0.0
  0
LINE
  5
40DD6
  8
0
 10
4926.0027669440896716
 20
2.627309444962477
 30
0.0
 11
4925.9878575586835723
 21
2.6379791336253642
 31
0.0
  0
LINE
  5
40DD7
  8
0
 10
4925.9878575586835723
 20
2.6379791336253642
 30
0.0
 11
4925.9717568921905695
 21
2.6438708544624911
 31
0.0
  0
LINE
  5
40DD8
  8
0
 10
4925.9717568921905695
 20
2.6438708544624911
 30
0.0
 11
4925.9705563379902742
 21
2.6390556945624861
 31
0.0
  0
LINE
  5
40DD9
  8
0
 10
4925.9705563379902742
 20
2.6390556945624861
 30
0.0
 11
4925.9854748555917467
 21
2.6284226296219941
 31
0.0
  0
LINE
  5
40DDA
  8
0
 10
4925.9854748555917467
 20
2.6284226296219941
 30
0.0
 11
4926.0015846542910367
 21
2.6225675398624868
 31
0.0
  0
LINE
  5
40DDB
  8
0
 10
4925.9878575586835723
 20
2.6379791336253642
 30
0.0
 11
4925.9854748562984241
 21
2.6284226293831092
 31
0.0
  0
LINE
  5
40DDC
  8
0
 10
4926.0242293462906673
 20
2.5983167301624661
 30
0.0
 11
4926.0246863267166191
 21
2.6001495787944711
 31
0.0
  0
LINE
  5
40DDD
  8
0
 10
4926.0246863267166191
 20
2.6001495787944711
 30
0.0
 11
4926.0091703918888015
 21
2.6083865289987349
 31
0.0
  0
LINE
  5
40DDE
  8
0
 10
4926.0091703918888015
 20
2.6083865289987349
 30
0.0
 11
4925.9931983009910255
 21
2.614793939562488
 31
0.0
  0
LINE
  5
40DDF
  8
0
 10
4925.9931983009910255
 20
2.614793939562488
 30
0.0
 11
4925.9927360780411618
 21
2.612940064415866
 31
0.0
  0
LINE
  5
40DE0
  8
0
 10
4925.9927360780411618
 20
2.612940064415866
 30
0.0
 11
4926.0082512292910906
 21
2.6046999703624891
 31
0.0
  0
LINE
  5
40DE1
  8
0
 10
4926.0082512292910906
 20
2.6046999703624891
 30
0.0
 11
4926.0242293462906673
 21
2.5983167301624661
 31
0.0
  0
LINE
  5
40DE2
  8
0
 10
4926.0091703918888015
 20
2.6083865289987349
 30
0.0
 11
4926.0082512292910906
 21
2.6046999703624891
 31
0.0
  0
LINE
  5
40DE3
  8
0
 10
4925.9991777412551528
 20
2.612913938695598
 30
0.0
 11
4925.9998735205908815
 21
2.615704557462478
 31
0.0
  0
LINE
  5
40DE4
  8
0
 10
4925.9998735205908815
 20
2.615704557462478
 30
0.0
 11
4925.9846944652917955
 21
2.6252926586672198
 31
0.0
  0
LINE
  5
40DE5
  8
0
 10
4925.9846944652917955
 20
2.6252926586672198
 30
0.0
 11
4925.9688193371775924
 21
2.6320889646104741
 31
0.0
  0
LINE
  5
40DE6
  8
0
 10
4925.9688193371775924
 20
2.6320889646104741
 30
0.0
 11
4925.9681132263913241
 21
2.6292569090624762
 31
0.0
  0
LINE
  5
40DE7
  8
0
 10
4925.9681132263913241
 20
2.6292569090624762
 30
0.0
 11
4925.9832926755416338
 21
2.6196703872792422
 31
0.0
  0
LINE
  5
40DE8
  8
0
 10
4925.9832926755416338
 20
2.6196703872792422
 30
0.0
 11
4925.9991777411896692
 21
2.6129139386624871
 31
0.0
  0
LINE
  5
40DE9
  8
0
 10
4926.0075095609354321
 20
2.6463310425784949
 30
0.0
 11
4926.0053980056909495
 21
2.6378620566624842
 31
0.0
  0
LINE
  5
40DEA
  8
0
 10
4926.0053980056909495
 20
2.6378620566624842
 30
0.0
 11
4925.9890578719086989
 21
2.6427933266333659
 31
0.0
  0
LINE
  5
40DEB
  8
0
 10
4925.9890578719086989
 20
2.6427933266333659
 30
0.0
 11
4925.9778623422180317
 21
2.6517354063543759
 31
0.0
  0
LINE
  5
40DEC
  8
0
 10
4925.9747710024767002
 20
2.6525061575459432
 30
0.0
 11
4925.9794121402910605
 21
2.6487121517624672
 31
0.0
  0
LINE
  5
40DED
  8
0
 10
4925.9794121402910605
 20
2.6487121517624672
 30
0.0
 11
4925.9779555935811004
 21
2.6428702618258191
 31
0.0
  0
LINE
  5
40DEE
  8
0
 10
4925.9779555935811004
 20
2.6428702618258191
 30
0.0
 11
4925.9619455129113703
 21
2.649125303162819
 31
0.0
  0
LINE
  5
40DEF
  8
0
 10
4925.9619455129113703
 20
2.649125303162819
 30
0.0
 11
4925.9505853622185896
 21
2.658536265077529
 31
0.0
  0
LINE
  5
40DF0
  8
0
 10
4925.9480822707828338
 20
2.6591603507068982
 30
0.0
 11
4925.9524119869138303
 21
2.6554941595050958
 31
0.0
  0
LINE
  5
40DF1
  8
0
 10
4925.9524119869138303
 20
2.6554941595050958
 30
0.0
 11
4925.9511969790919466
 21
2.6506210294624699
 31
0.0
  0
LINE
  5
40DF2
  8
0
 10
4925.9511969790919466
 20
2.6506210294624699
 30
0.0
 11
4925.9355200926020188
 21
2.6582124390694868
 31
0.0
  0
LINE
  5
40DF3
  8
0
 10
4925.9355200926020188
 20
2.6582124390694868
 30
0.0
 11
4925.9287361760625572
 21
2.6639838339898878
 31
0.0
  0
LINE
  5
40DF4
  8
0
 10
4925.9260072437691633
 20
2.6646642276038359
 30
0.0
 11
4925.925126109194025
 21
2.6611301897765851
 31
0.0
  0
LINE
  5
40DF5
  8
0
 10
4925.925126109194025
 20
2.6611301897765851
 30
0.0
 11
4925.9136827913207526
 21
2.6677370333154751
 31
0.0
  0
LINE
  5
40DF6
  8
0
 10
4925.9060629405548752
 20
2.6696368597832101
 30
0.0
 11
4925.9187760075274127
 21
2.6615235490661311
 31
0.0
  0
LINE
  5
40DF7
  8
0
 10
4925.9091812450051293
 20
2.6676467992438262
 30
0.0
 11
4925.9237965141910536
 21
2.6557974756624811
 31
0.0
  0
LINE
  5
40DF8
  8
0
 10
4925.9237965141910536
 20
2.6557974756624811
 30
0.0
 11
4925.923315022976567
 21
2.6538663198386838
 31
0.0
  0
LINE
  5
40DF9
  8
0
 10
4925.923315022976567
 20
2.6538663198386838
 30
0.0
 11
4925.9082059697702789
 21
2.6637351841898029
 31
0.0
  0
LINE
  5
40DFA
  8
0
 10
4925.9082059697702789
 20
2.6637351841898029
 30
0.0
 11
4925.8985311683281907
 21
2.6715147259859999
 31
0.0
  0
LINE
  5
40DFB
  8
0
 10
4925.8978393578336181
 20
2.671687344408368
 30
0.0
 11
4925.8988588895908833
 21
2.6708518346624852
 31
0.0
  0
LINE
  5
40DFC
  8
0
 10
4925.8988588895908833
 20
2.6708518346624852
 30
0.0
 11
4925.8986141153909557
 21
2.6698700988624888
 31
0.0
  0
LINE
  5
40DFD
  8
0
 10
4925.8986141153909557
 20
2.6698700988624888
 30
0.0
 11
4925.8957574304185982
 21
2.6719807800992181
 31
0.0
  0
LINE
  5
40DFE
  8
0
 10
4925.9192830625834176
 20
2.6635572357326529
 30
0.0
 11
4925.9185529723690706
 21
2.6606290039442082
 31
0.0
  0
LINE
  5
40DFF
  8
0
 10
4925.9185529723690706
 20
2.6606290039442082
 30
0.0
 11
4925.933271621491258
 21
2.6491943139623539
 31
0.0
  0
LINE
  5
40E00
  8
0
 10
4925.933271621491258
 20
2.6491943139623539
 30
0.0
 11
4925.9487252528897443
 21
2.6407074770636561
 31
0.0
  0
LINE
  5
40E01
  8
0
 10
4925.9487252528897443
 20
2.6407074770636561
 30
0.0
 11
4925.9494395263864135
 21
2.6435722714411858
 31
0.0
  0
LINE
  5
40E02
  8
0
 10
4925.9494395263864135
 20
2.6435722714411858
 30
0.0
 11
4925.9347157411903027
 21
2.6549863618624689
 31
0.0
  0
LINE
  5
40E03
  8
0
 10
4925.9347157411903027
 20
2.6549863618624689
 30
0.0
 11
4925.9192830625834176
 21
2.6635572357326529
 31
0.0
  0
LINE
  5
40E04
  8
0
 10
4925.9174275866789685
 20
2.6561153285019681
 30
0.0
 11
4925.9176684462927369
 21
2.657081363471931
 31
0.0
  0
LINE
  5
40E05
  8
0
 10
4925.9176684462927369
 20
2.657081363471931
 30
0.0
 11
4925.9328755731621641
 21
2.647605851988359
 31
0.0
  0
LINE
  5
40E06
  8
0
 10
4925.9328755731621641
 20
2.647605851988359
 30
0.0
 11
4925.9478596640883552
 21
2.6372357899493721
 31
0.0
  0
LINE
  5
40E07
  8
0
 10
4925.9478596640883552
 20
2.6372357899493721
 30
0.0
 11
4925.9476239189989428
 21
2.6362902682949558
 31
0.0
  0
LINE
  5
40E08
  8
0
 10
4925.9476239189989428
 20
2.6362902682949558
 30
0.0
 11
4925.9427408421997825
 21
2.639190739601545
 31
0.0
  0
LINE
  5
40E09
  8
0
 10
4925.9174275866907919
 20
2.6561153284624899
 30
0.0
 11
4925.9202109357020163
 21
2.6540715828092938
 31
0.0
  0
LINE
  5
40E0A
  8
0
 10
4925.9451750551907026
 20
2.6523306375624851
 30
0.0
 11
4925.9442106542001056
 21
2.6484626364961201
 31
0.0
  0
LINE
  5
40E0B
  8
0
 10
4925.9442106542001056
 20
2.6484626364961201
 30
0.0
 11
4925.9590343291902172
 21
2.637449182362487
 31
0.0
  0
LINE
  5
40E0C
  8
0
 10
4925.9590343291902172
 20
2.637449182362487
 30
0.0
 11
4925.9748197383378283
 21
2.6302930333097971
 31
0.0
  0
LINE
  5
40E0D
  8
0
 10
4925.9748197383378283
 20
2.6302930333097971
 30
0.0
 11
4925.9757664720909816
 21
2.6340901749624801
 31
0.0
  0
LINE
  5
40E0E
  8
0
 10
4925.9757664720909816
 20
2.6340901749624801
 30
0.0
 11
4925.9609452552085713
 21
2.6451134881299221
 31
0.0
  0
LINE
  5
40E0F
  8
0
 10
4925.9609452552085713
 20
2.6451134881299221
 30
0.0
 11
4925.9451750551907026
 21
2.6523306375624851
 31
0.0
  0
LINE
  5
40E10
  8
0
 10
4925.9428993674900994
 20
2.6432033529504082
 30
0.0
 11
4925.9424244182509938
 21
2.6412984352282218
 31
0.0
  0
LINE
  5
40E11
  8
0
 10
4925.9424244182509938
 20
2.6412984352282218
 30
0.0
 11
4925.9575048129881907
 21
2.6313146278517499
 31
0.0
  0
LINE
  5
40E12
  8
0
 10
4925.9575048129881907
 20
2.6313146278517499
 30
0.0
 11
4925.9730655775902051
 21
2.623257479162489
 31
0.0
  0
LINE
  5
40E13
  8
0
 10
4925.9730655775902051
 20
2.623257479162489
 30
0.0
 11
4925.9735320790796322
 21
2.625128514119992
 31
0.0
  0
LINE
  5
40E14
  8
0
 10
4925.9735320790796322
 20
2.625128514119992
 30
0.0
 11
4925.9584461542090139
 21
2.6350901414324279
 31
0.0
  0
LINE
  5
40E15
  8
0
 10
4925.9584461542090139
 20
2.6350901414324279
 30
0.0
 11
4925.9428993674900994
 21
2.6432033529504082
 31
0.0
  0
LINE
  5
40E16
  8
0
 10
4926.0075095609354321
 20
2.6463310425784949
 30
0.0
 11
4926.0168587440057308
 21
2.639222826356316
 31
0.0
  0
LINE
  5
40E17
  8
0
 10
4926.0168587440057308
 20
2.639222826356316
 30
0.0
 11
4926.0335309413958385
 21
2.635623390448401
 31
0.0
  0
LINE
  5
40E18
  8
0
 10
4926.0335309413958385
 20
2.635623390448401
 30
0.0
 11
4926.0340549634411218
 21
2.637725128154599
 31
0.0
  0
LINE
  5
40E19
  8
0
 10
4925.9832926755416338
 20
2.6196703872792422
 30
0.0
 11
4925.9846944652917955
 21
2.6252926586672198
 31
0.0
  0
LINE
  5
40E1A
  8
0
 10
4925.9890578719086989
 20
2.6427933266333659
 30
0.0
 11
4925.9912026963256722
 21
2.6484093100046802
 31
0.0
  0
LINE
  5
40E1B
  8
0
 10
4926.0168587440057308
 20
2.639222826356316
 30
0.0
 11
4926.0175135936187871
 21
2.6418493207615792
 31
0.0
  0
LINE
  5
40E1C
  8
0
 10
4925.9619455129113703
 20
2.649125303162819
 30
0.0
 11
4925.9634897221985739
 21
2.655318873374497
 31
0.0
  0
LINE
  5
40E1D
  8
0
 10
4925.9590343291902172
 20
2.637449182362487
 30
0.0
 11
4925.9609452552085713
 21
2.6451134881299221
 31
0.0
  0
LINE
  5
40E1E
  8
0
 10
4925.9575048129881907
 20
2.6313146278517499
 30
0.0
 11
4925.9584461542090139
 21
2.6350901414324279
 31
0.0
  0
LINE
  5
40E1F
  8
0
 10
4925.9347157411903027
 20
2.6549863618624689
 30
0.0
 11
4925.933271621491258
 21
2.6491943139623539
 31
0.0
  0
LINE
  5
40E20
  8
0
 10
4925.9328755731621641
 20
2.647605851988359
 30
0.0
 11
4925.9319190800297292
 21
2.6461543309139719
 31
0.0
  0
LINE
  5
40E21
  8
0
 10
4925.9355200926020188
 20
2.6582124390694868
 30
0.0
 11
4925.9375671468942528
 21
2.6617820438722641
 31
0.0
  0
LINE
  5
40E22
  8
0
 10
4925.9091812450051293
 20
2.6676467992438262
 30
0.0
 11
4925.9082059697702789
 21
2.6637351841898029
 31
0.0
  0
ARC
  5
40E23
  8
0
 10
4926.2556673784283703
 20
3.1409595048088899
 30
0.0
 40
0.591982557994692
 50
261.05906521742628
 51
279.7383158635458926
  0
LINE
  5
40E24
  8
0
 10
4926.1636637038573099
 20
2.556170078745637
 30
0.0
 11
4926.1895092197319173
 21
2.6598307810287021
 31
0.0
  0
LINE
  5
40E25
  8
0
 10
4926.2049148848318509
 20
2.5914284897567792
 30
0.0
 11
4926.2016288831700876
 21
2.5782490568081609
 31
0.0
  0
LINE
  5
40E26
  8
0
 10
4926.2003828679289654
 20
2.5732515625809489
 30
0.0
 11
4926.1981045800312131
 21
2.564113848831667
 31
0.0
  0
LINE
  5
40E27
  8
0
 10
4926.1972936851952909
 20
2.5608615272516171
 30
0.0
 11
4926.1959523140376405
 21
2.5554815813315619
 31
0.0
  0
LINE
  5
40E28
  8
0
 10
4926.1955524723680355
 20
2.5538779039669199
 30
0.0
 11
4926.1951094393643871
 21
2.552100995623916
 31
0.0
  0
LINE
  5
40E29
  8
0
 10
4926.1951094393643871
 20
2.552100995623916
 30
0.0
 11
4926.2131968066296395
 21
2.5507078496858782
 31
0.0
  0
LINE
  5
40E2A
  8
0
 10
4926.2131968066296395
 20
2.5507078496858782
 30
0.0
 11
4926.2134249224163796
 21
2.5516227717392752
 31
0.0
  0
LINE
  5
40E2B
  8
0
 10
4926.2134249224163796
 20
2.5516227717392752
 30
0.0
 11
4926.1964053901401712
 21
2.5538291236167221
 31
0.0
  0
LINE
  5
40E2C
  8
0
 10
4926.1964053901401712
 20
2.5538291236167221
 30
0.0
 11
4926.1955524722679911
 21
2.5538779039726052
 31
0.0
  0
LINE
  5
40E2D
  8
0
 10
4926.1959582195258918
 20
2.5520356199051402
 30
0.0
 11
4926.1964053902047453
 21
2.5538291236068309
 31
0.0
  0
LINE
  5
40E2E
  8
0
 10
4926.2049148848318509
 20
2.5914284897567792
 30
0.0
 11
4926.2058065442861334
 21
2.591535093829449
 31
0.0
  0
LINE
  5
40E2F
  8
0
 10
4926.2058065442861334
 20
2.591535093829449
 30
0.0
 11
4926.2221282056052587
 21
2.5865297343533622
 31
0.0
  0
LINE
  5
40E30
  8
0
 10
4926.2221282056052587
 20
2.5865297343533622
 30
0.0
 11
4926.2204354275836522
 21
2.5797403725720609
 31
0.0
  0
LINE
  5
40E31
  8
0
 10
4926.2204354275836522
 20
2.5797403725720609
 30
0.0
 11
4926.2024367117219299
 21
2.578019433099072
 31
0.0
  0
LINE
  5
40E32
  8
0
 10
4926.2024367117219299
 20
2.578019433099072
 30
0.0
 11
4926.2016288831700876
 21
2.5782490568081609
 31
0.0
  0
LINE
  5
40E33
  8
0
 10
4926.2003828678507489
 20
2.5732515625766581
 30
0.0
 11
4926.201260333295977
 21
2.573301323122493
 31
0.0
  0
LINE
  5
40E34
  8
0
 10
4926.201260333295977
 20
2.573301323122493
 30
0.0
 11
4926.2178248196760251
 21
2.5692697960019331
 31
0.0
  0
LINE
  5
40E35
  8
0
 10
4926.2178248196760251
 20
2.5692697960019331
 30
0.0
 11
4926.2166514665750583
 21
2.564563733874436
 31
0.0
  0
LINE
  5
40E36
  8
0
 10
4926.2166514665750583
 20
2.564563733874436
 30
0.0
 11
4926.1989239832191743
 21
2.563930648541386
 31
0.0
  0
LINE
  5
40E37
  8
0
 10
4926.1989239832191743
 20
2.563930648541386
 30
0.0
 11
4926.1981045800312131
 21
2.564113848831695
 31
0.0
  0
LINE
  5
40E38
  8
0
 10
4926.1972936851516351
 20
2.5608615272517019
 30
0.0
 11
4926.1981584275172281
 21
2.5608601723033209
 31
0.0
  0
LINE
  5
40E39
  8
0
 10
4926.1981584275172281
 20
2.5608601723033209
 30
0.0
 11
4926.2149529986500056
 21
2.5577515511786681
 31
0.0
  0
LINE
  5
40E3A
  8
0
 10
4926.2149529986500056
 20
2.5577515511786681
 30
0.0
 11
4926.2142622810279136
 21
2.5549812337629438
 31
0.0
  0
LINE
  5
40E3B
  8
0
 10
4926.2142622810279136
 20
2.5549812337629438
 30
0.0
 11
4926.1967828737615491
 21
2.5553431276087362
 31
0.0
  0
LINE
  5
40E3C
  8
0
 10
4926.1967828737615491
 20
2.5553431276087362
 30
0.0
 11
4926.1959523140230885
 21
2.555481581334063
 31
0.0
  0
LINE
  5
40E3D
  8
0
 10
4926.1967828738233948
 20
2.5553431276074861
 30
0.0
 11
4926.1981584275281421
 21
2.5608601723032929
 31
0.0
  0
LINE
  5
40E3E
  8
0
 10
4926.1989239832200838
 20
2.5639306485414148
 30
0.0
 11
4926.2012603535213202
 21
2.5733013182001372
 31
0.0
  0
LINE
  5
40E3F
  8
0
 10
4926.2024367116646317
 20
2.578019433115244
 30
0.0
 11
4926.2058065442852239
 21
2.5915350938293069
 31
0.0
  0
LINE
  5
40E40
  8
0
 10
4926.2089600873887321
 20
2.5595775225832682
 30
0.0
 11
4926.2098869437477333
 21
2.5632949405587762
 31
0.0
  0
LINE
  5
40E41
  8
0
 10
4926.2098869437477333
 20
2.5632949405587762
 30
0.0
 11
4926.2277045634982642
 21
2.5642895428879759
 31
0.0
  0
LINE
  5
40E42
  8
0
 10
4926.2277045634982642
 20
2.5642895428879759
 30
0.0
 11
4926.2445899209651543
 21
2.561545045532184
 31
0.0
  0
LINE
  5
40E43
  8
0
 10
4926.2445899209651543
 20
2.561545045532184
 30
0.0
 11
4926.2436521238887508
 21
2.5577837470510332
 31
0.0
  0
LINE
  5
40E44
  8
0
 10
4926.2436521238887508
 20
2.5577837470510332
 30
0.0
 11
4926.2258399742222537
 21
2.556811083907192
 31
0.0
  0
LINE
  5
40E45
  8
0
 10
4926.2258399742222537
 20
2.556811083907192
 30
0.0
 11
4926.208960087406922
 21
2.5595775225252022
 31
0.0
  0
LINE
  5
40E46
  8
0
 10
4926.2277045634982642
 20
2.5642895428879759
 30
0.0
 11
4926.2258399734846535
 21
2.5568110840277281
 31
0.0
  0
LINE
  5
40E47
  8
0
 10
4926.2120290530647253
 20
2.57188647168958
 30
0.0
 11
4926.2134534803926726
 21
2.5775995378702841
 31
0.0
  0
LINE
  5
40E48
  8
0
 10
4926.2134534803926726
 20
2.5775995378702841
 30
0.0
 11
4926.231546532622815
 21
2.579698838888774
 31
0.0
  0
LINE
  5
40E49
  8
0
 10
4926.231546532622815
 20
2.579698838888774
 30
0.0
 11
4926.2480955815099151
 21
2.576045040424062
 31
0.0
  0
LINE
  5
40E4A
  8
0
 10
4926.2480955815099151
 20
2.576045040424062
 30
0.0
 11
4926.2467578974992648
 21
2.5702403246484522
 31
0.0
  0
LINE
  5
40E4B
  8
0
 10
4926.2467578974992648
 20
2.5702403246484522
 30
0.0
 11
4926.2286800533938731
 21
2.568202016236099
 31
0.0
  0
LINE
  5
40E4C
  8
0
 10
4926.2286800533938731
 20
2.568202016236099
 30
0.0
 11
4926.2120290530810962
 21
2.5718864716315148
 31
0.0
  0
LINE
  5
40E4D
  8
0
 10
4926.231546532622815
 20
2.579698838888774
 30
0.0
 11
4926.2286800526590014
 21
2.5682020163566359
 31
0.0
  0
LINE
  5
40E4E
  8
0
 10
4926.2386211982002351
 20
2.563468031960539
 30
0.0
 11
4926.2398034878751787
 21
2.5682099370379059
 31
0.0
  0
LINE
  5
40E4F
  8
0
 10
4926.2398034878751787
 20
2.5682099370379059
 30
0.0
 11
4926.2579768092391532
 21
2.5706311805189008
 31
0.0
  0
LINE
  5
40E50
  8
0
 10
4926.2579768092391532
 20
2.5706311805189008
 30
0.0
 11
4926.2749588493543342
 21
2.5682744562145521
 31
0.0
  0
LINE
  5
40E51
  8
0
 10
4926.2749588493543342
 20
2.5682744562145521
 30
0.0
 11
4926.2737582951604054
 21
2.5634592963133822
 31
0.0
  0
LINE
  5
40E52
  8
0
 10
4926.2737582951604054
 20
2.5634592963133822
 30
0.0
 11
4926.2555941043428902
 21
2.5610746769652191
 31
0.0
  0
LINE
  5
40E53
  8
0
 10
4926.2555941043428902
 20
2.5610746769652191
 30
0.0
 11
4926.238621198216606
 21
2.5634680319025018
 31
0.0
  0
LINE
  5
40E54
  8
0
 10
4926.2579768092391532
 20
2.5706311805189008
 30
0.0
 11
4926.2555941036080185
 21
2.561074677085784
 31
0.0
  0
LINE
  5
40E55
  8
0
 10
4926.2072420564118147
 20
2.5526868767487789
 30
0.0
 11
4926.2076990369541818
 21
2.5545197253519372
 31
0.0
  0
LINE
  5
40E56
  8
0
 10
4926.2076990369541818
 20
2.5545197253519372
 30
0.0
 11
4926.225265808146105
 21
2.554508230561324
 31
0.0
  0
LINE
  5
40E57
  8
0
 10
4926.225265808146105
 20
2.554508230561324
 30
0.0
 11
4926.2423764244113045
 21
2.5526671958454719
 31
0.0
  0
LINE
  5
40E58
  8
0
 10
4926.2423764244113045
 20
2.5526671958454719
 30
0.0
 11
4926.2419142013923192
 21
2.550813320716272
 31
0.0
  0
LINE
  5
40E59
  8
0
 10
4926.2419142013923192
 20
2.550813320716272
 30
0.0
 11
4926.2243466461113712
 21
2.5508216717848451
 31
0.0
  0
LINE
  5
40E5A
  8
0
 10
4926.2243466461113712
 20
2.5508216717848451
 30
0.0
 11
4926.2072420564118147
 21
2.5526868767487789
 31
0.0
  0
LINE
  5
40E5B
  8
0
 10
4926.225265808146105
 20
2.554508230561324
 30
0.0
 11
4926.2243466461113712
 21
2.5508216717848451
 31
0.0
  0
LINE
  5
40E5C
  8
0
 10
4926.2362142850761302
 20
2.55381443076213
 30
0.0
 11
4926.2369100645355502
 21
2.556605049497775
 31
0.0
  0
LINE
  5
40E5D
  8
0
 10
4926.2369100645355502
 20
2.556605049497775
 30
0.0
 11
4926.2548137157291421
 21
2.5579447055902298
 31
0.0
  0
LINE
  5
40E5E
  8
0
 10
4926.2548137157291421
 20
2.5579447055902298
 30
0.0
 11
4926.2720212942567741
 21
2.5564925663835392
 31
0.0
  0
LINE
  5
40E5F
  8
0
 10
4926.2720212942567741
 20
2.5564925663835392
 30
0.0
 11
4926.271315183536899
 21
2.5536605108186872
 31
0.0
  0
LINE
  5
40E60
  8
0
 10
4926.271315183536899
 20
2.5536605108186872
 30
0.0
 11
4926.2534119260872103
 21
2.5523224341756778
 31
0.0
  0
LINE
  5
40E61
  8
0
 10
4926.2534119260872103
 20
2.5523224341756778
 30
0.0
 11
4926.2362142851179669
 21
2.5538144307024448
 31
0.0
  0
LINE
  5
40E62
  8
0
 10
4926.2440796122218671
 20
2.5853605348298032
 30
0.0
 11
4926.2424345494591762
 21
2.5787625487418349
 31
0.0
  0
LINE
  5
40E63
  8
0
 10
4926.2424345494591762
 20
2.5787625487418349
 30
0.0
 11
4926.2591771222751049
 21
2.5754453735741119
 31
0.0
  0
LINE
  5
40E64
  8
0
 10
4926.2591771222751049
 20
2.5754453735741119
 30
0.0
 11
4926.2732608556189007
 21
2.5780848938412779
 31
0.0
  0
LINE
  5
40E65
  8
0
 10
4926.2763522046270737
 20
2.5773141403389981
 30
0.0
 11
4926.2704725178700755
 21
2.5761429892943251
 31
0.0
  0
LINE
  5
40E66
  8
0
 10
4926.2704725178700755
 20
2.5761429892943251
 30
0.0
 11
4926.2690159710909938
 21
2.5703010993747588
 31
0.0
  0
LINE
  5
40E67
  8
0
 10
4926.2690159710909938
 20
2.5703010993747588
 30
0.0
 11
4926.2860885973150289
 21
2.5683076954992279
 31
0.0
  0
LINE
  5
40E68
  8
0
 10
4926.2860885973150289
 20
2.5683076954992279
 30
0.0
 11
4926.3005380310250985
 21
2.5712839863980288
 31
0.0
  0
LINE
  5
40E69
  8
0
 10
4926.3030411219542657
 20
2.5706599008951079
 30
0.0
 11
4926.297496198085355
 21
2.569455342543804
 31
0.0
  0
LINE
  5
40E6A
  8
0
 10
4926.297496198085355
 20
2.569455342543804
 30
0.0
 11
4926.2962811903471447
 21
2.5645822124798339
 31
0.0
  0
LINE
  5
40E6B
  8
0
 10
4926.2962811903471447
 20
2.5645822124798339
 30
0.0
 11
4926.3136870104690388
 21
2.563925176944835
 31
0.0
  0
LINE
  5
40E6C
  8
0
 10
4926.3136870104690388
 20
2.563925176944835
 30
0.0
 11
4926.3223873635915879
 21
2.5658363809815929
 31
0.0
  0
LINE
  5
40E6D
  8
0
 10
4926.3251154019217211
 20
2.5651562102560912
 30
0.0
 11
4926.3242341540872076
 21
2.5616217182898562
 31
0.0
  0
LINE
  5
40E6E
  8
0
 10
4926.3242341540872076
 20
2.5616217182898562
 30
0.0
 11
4926.3374416049109641
 21
2.5620829680891708
 31
0.0
  0
LINE
  5
40E6F
  8
0
 10
4926.3450612895239829
 20
2.5601831830482951
 30
0.0
 11
4926.3413719963746189
 21
2.559889882648533
 31
0.0
  0
LINE
  5
40E70
  8
0
 10
4926.3413719963746189
 20
2.559889882648533
 30
0.0
 11
4926.3229045591742761
 21
2.5562890041532711
 31
0.0
  0
LINE
  5
40E71
  8
0
 10
4926.3229045591742761
 20
2.5562890041532711
 30
0.0
 11
4926.3224230679434186
 21
2.5543578483335661
 31
0.0
  0
LINE
  5
40E72
  8
0
 10
4926.3224230679434186
 20
2.5543578483335661
 30
0.0
 11
4926.3403967212680072
 21
2.5559782675625078
 31
0.0
  0
LINE
  5
40E73
  8
0
 10
4926.3403967212680072
 20
2.5559782675625078
 30
0.0
 11
4926.352592690772326
 21
2.55830540934015
 31
0.0
  0
LINE
  5
40E74
  8
0
 10
4926.3532842462182089
 20
2.5581329866272848
 30
0.0
 11
4926.3519907682293706
 21
2.5578737086441228
 31
0.0
  0
LINE
  5
40E75
  8
0
 10
4926.3519907682293706
 20
2.5578737086441228
 30
0.0
 11
4926.3517459939812397
 21
2.5568919728561208
 31
0.0
  0
LINE
  5
40E76
  8
0
 10
4926.3517459939812397
 20
2.5568919728561208
 30
0.0
 11
4926.3558272690734157
 21
2.557498945059236
 31
0.0
  0
LINE
  5
40E77
  8
0
 10
4926.3305326870859062
 20
2.561021528459932
 30
0.0
 11
4926.3298025969334049
 21
2.5580932966561392
 31
0.0
  0
LINE
  5
40E78
  8
0
 10
4926.3298025969334049
 20
2.5580932966561392
 30
0.0
 11
4926.3114385393500925
 21
2.5549070518396628
 31
0.0
  0
LINE
  5
40E79
  8
0
 10
4926.3114385393500925
 20
2.5549070518396628
 30
0.0
 11
4926.2938094641231146
 21
2.5546686600872159
 31
0.0
  0
LINE
  5
40E7A
  8
0
 10
4926.2938094641231146
 20
2.5546686600872159
 30
0.0
 11
4926.2945237375488432
 21
2.5575334544816002
 31
0.0
  0
LINE
  5
40E7B
  8
0
 10
4926.2945237375488432
 20
2.5575334544816002
 30
0.0
 11
4926.3128826591082543
 21
2.560699099725368
 31
0.0
  0
LINE
  5
40E7C
  8
0
 10
4926.3128826591082543
 20
2.560699099725368
 30
0.0
 11
4926.3305326870859062
 21
2.561021528459932
 31
0.0
  0
LINE
  5
40E7D
  8
0
 10
4926.3286772112624021
 20
2.5535796212090669
 30
0.0
 11
4926.328918070790678
 21
2.554545656200232
 31
0.0
  0
LINE
  5
40E7E
  8
0
 10
4926.328918070790678
 20
2.554545656200232
 30
0.0
 11
4926.311042491545777
 21
2.5533185897349
 31
0.0
  0
LINE
  5
40E7F
  8
0
 10
4926.311042491545777
 20
2.5533185897349
 30
0.0
 11
4926.2929438753026261
 21
2.5511969729768822
 31
0.0
  0
LINE
  5
40E80
  8
0
 10
4926.2929438753026261
 20
2.5511969729768822
 30
0.0
 11
4926.2927081303341765
 21
2.5502514512925951
 31
0.0
  0
LINE
  5
40E81
  8
0
 10
4926.2927081303341765
 20
2.5502514512925951
 30
0.0
 11
4926.298381320036242
 21
2.550519949763483
 31
0.0
  0
LINE
  5
40E82
  8
0
 10
4926.3286772112342078
 20
2.5535796211797361
 30
0.0
 11
4926.325260179459292
 21
2.5530818040797518
 31
0.0
  0
LINE
  5
40E83
  8
0
 10
4926.3024008459478864
 20
2.563264584821169
 30
0.0
 11
4926.3014364449809364
 21
2.5593965837483519
 31
0.0
  0
LINE
  5
40E84
  8
0
 10
4926.3014364449809364
 20
2.5593965837483519
 30
0.0
 11
4926.283177413311023
 21
2.55663157476961
 31
0.0
  0
LINE
  5
40E85
  8
0
 10
4926.283177413311023
 20
2.55663157476961
 30
0.0
 11
4926.2658801158213464
 21
2.5577238708655008
 31
0.0
  0
LINE
  5
40E86
  8
0
 10
4926.2658801158213464
 20
2.5577238708655008
 30
0.0
 11
4926.2668268495535813
 21
2.5615210125233001
 31
0.0
  0
LINE
  5
40E87
  8
0
 10
4926.2668268495535813
 20
2.5615210125233001
 30
0.0
 11
4926.2850883393793993
 21
2.5642958805246252
 31
0.0
  0
LINE
  5
40E88
  8
0
 10
4926.2850883393793993
 20
2.5642958805246252
 30
0.0
 11
4926.3024008459478864
 21
2.563264584821169
 31
0.0
  0
LINE
  5
40E89
  8
0
 10
4926.300125158368246
 20
2.554137300178851
 30
0.0
 11
4926.2996502089581554
 21
2.5522323824993829
 31
0.0
  0
LINE
  5
40E8A
  8
0
 10
4926.2996502089581554
 20
2.5522323824993829
 30
0.0
 11
4926.2816478970762546
 21
2.5504970202668602
 31
0.0
  0
LINE
  5
40E8B
  8
0
 10
4926.2816478970762546
 20
2.5504970202668602
 30
0.0
 11
4926.2641259552401607
 21
2.5506883166766978
 31
0.0
  0
LINE
  5
40E8C
  8
0
 10
4926.2641259552401607
 20
2.5506883166766978
 30
0.0
 11
4926.2645924565749738
 21
2.5525593516725422
 31
0.0
  0
LINE
  5
40E8D
  8
0
 10
4926.2645924565749738
 20
2.5525593516725422
 30
0.0
 11
4926.2825892383661994
 21
2.5542725338304839
 31
0.0
  0
LINE
  5
40E8E
  8
0
 10
4926.2825892383661994
 20
2.5542725338304839
 30
0.0
 11
4926.300125158368246
 21
2.554137300178851
 31
0.0
  0
LINE
  5
40E8F
  8
0
 10
4926.239723851400413
 20
2.5864465389982021
 30
0.0
 11
4926.2329541608160071
 21
2.5853445277811171
 31
0.0
  0
LINE
  5
40E90
  8
0
 10
4926.2329541608160071
 20
2.5853445277811171
 30
0.0
 11
4926.2165436514551402
 21
2.589993537050602
 31
0.0
  0
LINE
  5
40E91
  8
0
 10
4926.2165436514551402
 20
2.589993537050602
 30
0.0
 11
4926.2170676822506721
 21
2.5920953097053281
 31
0.0
  0
LINE
  5
40E92
  8
0
 10
4926.2534119260872103
 20
2.5523224341756778
 30
0.0
 11
4926.2548137157291421
 21
2.5579447055902298
 31
0.0
  0
LINE
  5
40E93
  8
0
 10
4926.2591771222751049
 20
2.5754453735741119
 30
0.0
 11
4926.2599199250089441
 21
2.581411133928369
 31
0.0
  0
LINE
  5
40E94
  8
0
 10
4926.2329541608160071
 20
2.5853445277811171
 30
0.0
 11
4926.2336090520730068
 21
2.5879711170982631
 31
0.0
  0
LINE
  5
40E95
  8
0
 10
4926.2860885973150289
 20
2.5683076954992279
 30
0.0
 11
4926.2876329234941295
 21
2.5745015644852032
 31
0.0
  0
LINE
  5
40E96
  8
0
 10
4926.283177413311023
 20
2.55663157476961
 30
0.0
 11
4926.2850883393793993
 21
2.5642958805246252
 31
0.0
  0
LINE
  5
40E97
  8
0
 10
4926.2816478970762546
 20
2.5504970202668602
 30
0.0
 11
4926.2825892383661994
 21
2.5542725338304839
 31
0.0
  0
LINE
  5
40E98
  8
0
 10
4926.3128826591082543
 20
2.560699099725368
 30
0.0
 11
4926.3114385393500925
 21
2.5549070518396628
 31
0.0
  0
LINE
  5
40E99
  8
0
 10
4926.311042491545777
 20
2.5533185897349
 30
0.0
 11
4926.3112055769897779
 21
2.5515879263709418
 31
0.0
  0
LINE
  5
40E9A
  8
0
 10
4926.3136870104690388
 20
2.563925176944835
 30
0.0
 11
4926.3135553827250988
 21
2.5680384229277839
 31
0.0
  0
LINE
  5
40E9B
  8
0
 10
4926.3413719963746189
 20
2.559889882648533
 30
0.0
 11
4926.3403967212680072
 21
2.5559782675625078
 31
0.0
  0
LINE
  5
40E9C
  8
0
 10
4928.8539767936363205
 20
0.697667140766086
 30
0.0
 11
4929.75825681185961
 21
0.6976671407661402
 31
0.0
  0
LINE
  5
40E9D
  8
0
 10
4930.9848151887754284
 20
0.6976671407656854
 30
0.0
 11
4931.4374708900522819
 21
0.6976671407662282
 31
0.0
  0
LINE
  5
40E9E
  8
0
 10
4928.5860145156157159
 20
3.0998817810719741
 30
0.0
 11
4933.42329389812312
 21
3.0998817810722841
 31
0.0
  0
LINE
  5
40E9F
  8
0
 10
4931.4343445372187489
 20
-2.5640032793339311
 30
0.0
 11
4933.4422185530193019
 21
-2.5640032793339311
 31
0.0
  0
LINE
  5
40EA0
  8
0
 10
4928.3646135312519618
 20
3.3221062599098889
 30
0.0
 11
4933.3917985611051336
 21
3.322106259909972
 31
0.0
  0
LINE
  5
40EA1
  8
0
 10
4931.8901036743709483
 20
3.7032971673660731
 30
0.0
 11
4932.4746483922681364
 21
3.7032971673660731
 31
0.0
  0
LINE
  5
40EA2
  8
0
 10
4931.8863761106476886
 20
3.631480082766088
 30
0.0
 11
4932.4783759559895771
 21
3.631480082766088
 31
0.0
  0
LINE
  5
40EA3
  8
0
 10
4931.8863761108195831
 20
3.4740256316660658
 30
0.0
 11
4932.478375955818592
 21
3.4740256316660658
 31
0.0
  0
LINE
  5
40EA4
  8
0
 10
4931.8713524113418316
 20
3.322106259909972
 30
0.0
 11
4931.8713524112190498
 21
3.4394734882167621
 31
0.0
  0
ARC
  5
40EA5
  8
0
 10
4931.9185965055839915
 20
3.4394734882660738
 30
0.0
 40
0.0472440943642507
 50
132.9999998096238016
 51
180.0000000597979977
  0
ARC
  5
40EA6
  8
0
 10
4931.8291310462091133
 20
3.5527528571439428
 30
0.0
 40
0.0973394753102176
 50
306.0220896756870275
 51
53.9779103764911525
  0
ARC
  5
40EA7
  8
0
 10
4931.9185965052593019
 20
3.6660322258660041
 30
0.0
 40
0.0472440940398353
 50
179.9999997573438861
 51
227.0000002425479124
  0
LINE
  5
40EA8
  8
0
 10
4931.8713524112190498
 20
3.666032226066064
 30
0.0
 11
4931.8713524112936284
 21
3.6836342876660662
 31
0.0
  0
ARC
  5
40EA9
  8
0
 10
4931.8910374507850065
 20
3.6836342875827048
 30
0.0
 40
0.0196850394911339
 50
92.7188975026678293
 51
179.9999997573422945
  0
ARC
  5
40EAA
  8
0
 10
4932.1823760333190876
 20
-2.4511833052823562
 30
0.0
 40
6.1614164783770526
 50
87.2811025946272423
 51
92.7188974053727293
  0
LINE
  5
40EAB
  8
0
 10
4932.493399655297253
 20
3.322106259909972
 30
0.0
 11
4932.4933996554191253
 21
3.4394734882167621
 31
0.0
  0
ARC
  5
40EAC
  8
0
 10
4932.4461555610560026
 20
3.4394734882660738
 30
0.0
 40
0.0472440943642507
 50
359.9999999402019171
 51
47.0000001903761913
  0
ARC
  5
40EAD
  8
0
 10
4932.5356210204299714
 20
3.5527528571439428
 30
0.0
 40
0.0973394753102176
 50
126.0220896235088048
 51
233.977910324313001
  0
ARC
  5
40EAE
  8
0
 10
4932.4461555613797827
 20
3.6660322258660041
 30
0.0
 40
0.0472440940398353
 50
312.9999997574519739
 51
0.0000002426560684
  0
LINE
  5
40EAF
  8
0
 10
4932.4933996554191253
 20
3.666032226066064
 30
0.0
 11
4932.4933996553445468
 21
3.6836342876660662
 31
0.0
  0
ARC
  5
40EB0
  8
0
 10
4932.4737146158540781
 20
3.6836342875827048
 30
0.0
 40
0.0196850394911339
 50
0.0000002426576969
 51
87.2811024973842393
  0
LINE
  5
40EB1
  8
0
 10
4924.163943289722738
 20
4.7406142849532911
 30
0.0
 11
4923.8989430293740952
 21
3.9492127009898419
 31
0.0
  0
LINE
  5
40EB2
  8
0
 10
4931.5999178900183324
 20
-1.1163413002777851
 30
0.0
 11
4932.2886777673957113
 21
-0.4275128375423139
 31
0.0
  0
LINE
  5
40EB3
  8
0
 10
4931.8771111618543728
 20
0.0109888287197704
 30
0.0
 11
4932.2885201292547208
 21
-0.3999015572088398
 31
0.0
  0
ARC
  5
40EB4
  8
0
 10
4931.5861924334549258
 20
-1.102225942598015
 30
0.0
 40
0.019688359004849
 50
225.0068554331504913
 51
314.1976445850914956
  0
ARC
  5
40EB5
  8
0
 10
4914.1063516740432533
 20
-33.2094625859539292
 30
0.0
 40
39.2813050972935969
 50
69.1467871744047216
 51
75.1145253179512622
  0
ARC
  5
40EB6
  8
0
 10
4927.8006035912649168
 20
2.745756231245617
 30
0.0
 40
0.8065066983628169
 50
46.0618167611730485
 51
69.0087334398169645
  0
ARC
  5
40EB7
  8
0
 10
4923.9254017746507088
 20
3.9390824889467169
 30
0.0
 40
0.0283317206967199
 50
159.0497462498381935
 51
254.3420227974725947
  0
ARC
  5
40EB8
  8
0
 10
4924.0067274060820637
 20
3.8984219103924951
 30
0.0
 40
0.0220965845473077
 50
206.1178612808178912
 51
234.3470522701657046
  0
ARC
  5
40EB9
  8
0
 10
4922.8341722597579064
 20
1.37974406289298
 30
0.0
 40
2.756530976696915
 50
61.3188098363207672
 51
65.1211411099551043
  0
LINE
  5
40EBA
  8
0
 10
4928.1723687904977851
 20
2.4297114426735451
 30
0.0
 11
4928.2175862143440099
 21
2.3843918624915501
 31
0.0
  0
ARC
  5
40EBB
  8
0
 10
4928.2092868547588296
 20
2.3759900850530422
 30
0.0
 40
0.0118097092959056
 50
315.0798818382141917
 51
45.351355549247792
  0
ARC
  5
40EBC
  8
0
 10
4904.7995817861483374
 20
25.9778306701883785
 30
0.0
 40
33.2542698862332031
 50
314.2376069259739211
 51
314.7659457984585742
  0
ARC
  5
40EBD
  8
0
 10
4927.9838281415441088
 20
2.1680450030450178
 30
0.0
 40
0.021527815591188
 50
225.2472098361022006
 51
314.5897966570200879
  0
LINE
  5
40EBE
  8
0
 10
4927.9686714978761302
 20
2.15275700131627
 30
0.0
 11
4927.4802720931702424
 21
2.6353242717020469
 31
0.0
  0
ARC
  5
40EBF
  8
0
 10
4927.6342239304858595
 20
1.884645681511069
 30
0.0
 40
0.7659611861553928
 50
45.3658192119437871
 51
67.699666503652665
  0
ARC
  5
40EC0
  8
0
 10
4927.9337303477523164
 20
2.6106728612426151
 30
0.0
 40
0.0194821042248662
 50
171.9236236434848877
 51
242.9705800815241901
  0
ARC
  5
40EC1
  8
0
 10
6709.8978129885590533
 20
1778.032097887233931
 30
0.0
 40
2514.6483044653477918
 50
224.8899275202786043
 51
224.9917888100254117
  0
ARC
  5
40EC2
  8
0
 10
4931.8470028881802136
 20
0.4695935347996523
 30
0.0
 40
0.4502458490909485
 50
223.0786418817860124
 51
270.8379471359913282
  0
LINE
  5
40EC3
  8
0
 10
4928.5377034741450188
 20
1.9180865860660059
 30
0.0
 11
4931.572272327130122
 21
-1.1161493803995239
 31
0.0
  0
ARC
  5
40EC4
  8
0
 10
4927.7576895152196812
 20
2.0275472703248689
 30
0.0
 40
0.6064703362071215
 50
45.9365635102045573
 51
75.0209408923358581
  0
ARC
  5
40EC5
  8
0
 10
4928.5590065712831347
 20
1.9393037239381621
 30
0.0
 40
0.0300664079529027
 50
186.4437855015395087
 51
224.8841705254737917
  0
ARC
  5
40EC6
  8
0
 10
4928.0540397768327239
 20
1.9168194510671079
 30
0.0
 40
0.4754745158031924
 50
2.303416014049092
 51
45.5030820692476112
  0
LINE
  5
40EC7
  8
0
 10
4928.3872860267192664
 20
2.2559697895832711
 30
0.0
 11
4928.1794619668808082
 21
2.463338811910968
 31
0.0
  0
ARC
  5
40EC8
  8
0
 10
4931.8562983478141177
 20
-0.0101332294527241
 30
0.0
 40
0.0296532387729632
 50
45.4225138054120521
 51
95.2452618762176115
  0
ARC
  5
40EC9
  8
0
 10
4924.1971061897484105
 20
4.7048013508505404
 30
0.0
 40
0.0488092633335915
 50
89.8435075867702011
 51
132.7997927956241142
  0
ARC
  5
40ECA
  8
0
 10
5001.2592224038489803
 20
235.182383225680411
 30
0.0
 40
243.8601734911383971
 50
251.5090432131121077
 51
252.4964000962498858
  0
ARC
  5
40ECB
  8
0
 10
4926.0588114735783165
 20
3.5994799609412622
 30
0.0
 40
0.4760028772711133
 50
247.820282969202708
 51
252.2814079810221983
  0
ARC
  5
40ECC
  8
0
 10
4925.9239142111082401
 20
3.2722992577282191
 30
0.0
 40
0.1221147049966907
 50
235.7430775220516921
 51
248.4773946930650936
  0
ARC
  5
40ECD
  8
0
 10
4925.8678421840668307
 20
3.1889600388778931
 30
0.0
 40
0.0216772400520607
 50
215.3744160183298106
 51
234.2434687333692978
  0
ARC
  5
40ECE
  8
0
 10
4925.8609715991988196
 20
3.1840896086815751
 30
0.0
 40
0.0132554846818997
 50
163.4617532584192077
 51
215.4012880964887984
  0
LINE
  5
40ECF
  8
0
 10
4925.8482644948189773
 20
3.1878628529660742
 30
0.0
 11
4925.8647098286819528
 21
3.24096158506465
 31
0.0
  0
ARC
  5
40ED0
  8
0
 10
4925.8560524270687893
 20
2.9703336477824629
 30
0.0
 40
0.2655356843020727
 50
71.8971241292285157
 51
82.1469815996436523
  0
ARC
  5
40ED1
  8
0
 10
4925.7949953182524041
 20
2.9328032190825248
 30
0.0
 40
0.3159438486253768
 50
72.0560814580018132
 51
77.2287188784772951
  0
ARC
  5
40ED2
  8
0
 10
4925.8525068129465581
 20
3.1901224690918988
 30
0.0
 40
0.0522831646512264
 50
76.3583020940704813
 51
93.3238685978808036
  0
ARC
  5
40ED3
  8
0
 10
4925.8500401804958528
 20
3.2350376787005031
 30
0.0
 40
0.0073018735138627
 50
94.4357967729598471
 51
122.692066588236699
  0
ARC
  5
40ED4
  8
0
 10
4925.8473809624765636
 20
3.2396757634469631
 30
0.0
 40
0.0019803277503879
 50
130.4459024225795076
 51
184.7070099861871029
  0
ARC
  5
40ED5
  8
0
 10
4925.8792849397250393
 20
3.2654454181823618
 30
0.0
 40
0.0426634566966164
 50
217.4328175278216122
 51
243.9450755853432042
  0
ARC
  5
40ED6
  8
0
 10
4925.8733798809644213
 20
3.023143988157182
 30
0.0
 40
0.1399908709702603
 50
71.7972400288573738
 51
79.3014424854011537
  0
ARC
  5
40ED7
  8
0
 10
4925.8952106478873247
 20
3.138694674523089
 30
0.0
 40
0.0223960432619965
 50
79.3020735569396464
 51
89.4236879443900534
  0
ARC
  5
40ED8
  8
0
 10
4925.8953797185458825
 20
3.155502770757574
 30
0.0
 40
0.0055870967181137
 50
89.4236879443900534
 51
102.1148567394964033
  0
ARC
  5
40ED9
  8
0
 10
4925.8943577280269892
 20
3.1602639069116041
 30
0.0
 40
0.0007175092511611
 50
102.1148567393364033
 51
156.4173940772620881
  0
ARC
  5
40EDA
  8
0
 10
4925.8942892420545832
 20
3.1604783340207181
 30
0.0
 40
0.0005935600035988
 50
172.9717334217475866
 51
217.1873841680425983
  0
ARC
  5
40EDB
  8
0
 10
4925.9006304897511654
 20
3.1665392113570432
 30
0.0
 40
0.0093618336440673
 50
223.2926148611144015
 51
244.0794099073372081
  0
ARC
  5
40EDC
  8
0
 10
4925.9512699026336122
 20
3.268491930658366
 30
0.0
 40
0.1231978308978852
 50
243.6240814621112065
 51
253.0647201913727997
  0
ARC
  5
40EDD
  8
0
 10
4925.7968514911990496
 20
2.7877928682950941
 30
0.0
 40
0.392543304724899
 50
71.926682811130874
 51
78.6664615902799937
  0
ARC
  5
40EDE
  8
0
 10
4925.8580665223971664
 20
3.0932136348072228
 30
0.0
 40
0.0810483213602212
 50
78.6664615902799937
 51
88.1271671570697066
  0
ARC
  5
40EDF
  8
0
 10
4925.8604547408913277
 20
3.1662506405982871
 30
0.0
 40
0.0079722801257748
 50
88.1271671571218462
 51
124.0826252417108009
  0
ARC
  5
40EE0
  8
0
 10
4925.8590318388141895
 20
3.1729348968051969
 30
0.0
 40
0.0030457541273204
 50
181.5309302865099994
 51
230.4964169202991968
  0
ARC
  5
40EE1
  8
0
 10
4925.8680850249384093
 20
3.180071908553709
 30
0.0
 40
0.0145189301584878
 50
220.8005277524158885
 51
233.4035769911056093
  0
ARC
  5
40EE2
  8
0
 10
4926.0546022640337469
 20
3.6008033275336349
 30
0.0
 40
0.4760028772711133
 50
252.8125168798009099
 51
257.2736418916422281
  0
ARC
  5
40EE3
  8
0
 10
4925.9786935275960786
 20
3.2324029930057021
 30
0.0
 40
0.1001834271799833
 50
253.202327913559202
 51
268.6864135801994848
  0
ARC
  5
40EE4
  8
0
 10
4925.9761505795404446
 20
3.1528238693222979
 30
0.0
 40
0.020579449414345
 50
270.6857553227550284
 51
289.024069940588106
  0
ARC
  5
40EE5
  8
0
 10
4925.9785343496732821
 20
3.146040686901423
 30
0.0
 40
0.0133897937241986
 50
288.8422506679546018
 51
340.35365955798909
  0
LINE
  5
40EE6
  8
0
 10
4925.9911446677197091
 20
3.1415388589660802
 30
0.0
 11
4926.0093798869602324
 21
3.1952020504694221
 31
0.0
  0
ARC
  5
40EE7
  8
0
 10
4925.8617983243148046
 20
2.9685271498211092
 30
0.0
 40
0.2655356843020727
 50
62.9469432611989888
 51
73.1968007315921767
  0
ARC
  5
40EE8
  8
0
 10
4925.8903945788197234
 20
2.9028098930026212
 30
0.0
 40
0.3159438486253768
 50
67.86520598236811
 51
73.0378434028299779
  0
ARC
  5
40EE9
  8
0
 10
4925.9904764309139864
 20
3.1467451125352519
 30
0.0
 40
0.0522831646512264
 50
51.7700562629617806
 51
68.7356227667827824
  0
ARC
  5
40EEA
  8
0
 10
4926.0182012520835997
 20
3.1821681928775778
 30
0.0
 40
0.0073018735138627
 50
22.4018582725771189
 51
50.6581280878507982
  0
ARC
  5
40EEB
  8
0
 10
4926.0230361177664236
 20
3.184450153532504
 30
0.0
 40
0.0019803277503879
 50
320.3869148746451856
 51
14.6480224382387796
  0
ARC
  5
40EEC
  8
0
 10
4926.0116181890971347
 20
3.2238401240112129
 30
0.0
 40
0.0426634566966164
 50
261.0079344972132844
 51
287.6611073330045087
  0
ARC
  5
40EED
  8
0
 10
4925.8768747165531749
 20
3.0220452190626141
 30
0.0
 40
0.1399908711282217
 50
65.7924823775698258
 51
73.296684846869951
  0
ARC
  5
40EEE
  8
0
 10
4925.9250933931261898
 20
3.1292996025196889
 30
0.0
 40
0.0223960432619965
 50
55.6702369164907935
 51
65.7918513039071939
  0
ARC
  5
40EEF
  8
0
 10
4925.9345728842727112
 20
3.143180522212413
 30
0.0
 40
0.0055870967181137
 50
42.9790681213250707
 51
55.6702369164377231
  0
ARC
  5
40EF0
  8
0
 10
4925.9381354881343213
 20
3.1465002715738088
 30
0.0
 40
0.0007175092511611
 50
348.6765307835785848
 51
42.9790681214933485
  0
ARC
  5
40EF1
  8
0
 10
4925.938314355111288
 20
3.146636931438247
 30
0.0
 40
0.0005935600035988
 50
287.906540692797023
 51
332.1221914390969232
  0
ARC
  5
40EF2
  8
0
 10
4925.9365821866422266
 20
3.1552360737692831
 30
0.0
 40
0.0093618336440673
 50
261.0145149534662892
 51
281.8013099996969117
  0
ARC
  5
40EF3
  8
0
 10
4925.9533939427456062
 20
3.2678241369321719
 30
0.0
 40
0.1231978308978852
 50
252.0292046694546002
 51
261.469843398731598
  0
ARC
  5
40EF4
  8
0
 10
4925.8049593382547755
 20
2.7852437783011461
 30
0.0
 40
0.392543304724899
 50
66.4274632705748616
 51
73.1672420496714295
  0
ARC
  5
40EF5
  8
0
 10
4925.9295292196393348
 20
3.0707459136926278
 30
0.0
 40
0.0810483213602212
 50
56.9667577037627666
 51
66.4274632705792953
  0
ARC
  5
40EF6
  8
0
 10
4925.9693648353122626
 20
3.132009536883368
 30
0.0
 40
0.0079722801257748
 50
21.0112996191336592
 51
56.9667577037008286
  0
ARC
  5
40EF7
  8
0
 10
4925.9744025055251768
 20
3.1356511914866911
 30
0.0
 40
0.0025288604509255
 50
272.4306825234618259
 51
341.9591084957355065
  0
ARC
  5
40EF8
  8
0
 10
4925.9780749516557989
 20
3.084371973077277
 30
0.0
 40
0.0488828177293696
 50
94.182495832519578
 51
99.8238661698456156
  0
ARC
  5
40EF9
  8
0
 10
4925.5758989776813905
 20
3.7690507569143841
 30
0.0
 40
0.4760028772711133
 50
247.820282969202708
 51
252.2814079810221983
  0
ARC
  5
40EFA
  8
0
 10
4925.4542956663917721
 20
3.4707691427410792
 30
0.0
 40
0.1538859937173968
 50
237.7270069264006906
 51
247.820282969202708
  0
ARC
  5
40EFB
  8
0
 10
4925.3805503045568912
 20
3.3539936851571661
 30
0.0
 40
0.0157741336685405
 50
210.1758826627022074
 51
237.7270069263927041
  0
ARC
  5
40EFC
  8
0
 10
4925.3796905003218853
 20
3.353493751533863
 30
0.0
 40
0.0147795498609997
 50
166.3631944158103124
 51
210.1758826627001895
  0
LINE
  5
40EFD
  8
0
 10
4925.3653275896704145
 20
3.3569782732640072
 30
0.0
 11
4925.3817412122925816
 21
3.4115470948154769
 31
0.0
  0
ARC
  5
40EFE
  8
0
 10
4925.2161015348956425
 20
2.5768967434657291
 30
0.0
 40
0.850809572862002
 50
73.6600899742363424
 51
76.8793957347512134
  0
ARC
  5
40EFF
  8
0
 10
4925.3510777134433738
 20
3.206741687860132
 30
0.0
 40
0.2070881572659706
 50
73.6895766202057132
 51
81.4849157148761378
  0
ARC
  5
40F00
  8
0
 10
4925.3694102587205634
 20
3.3607388583774469
 30
0.0
 40
0.0522831646512264
 50
76.3583020940704813
 51
93.3238685978808036
  0
ARC
  5
40F01
  8
0
 10
4925.3669436262716772
 20
3.4056540679860512
 30
0.0
 40
0.0073018735138627
 50
94.4357967729598471
 51
122.692066588236699
  0
ARC
  5
40F02
  8
0
 10
4925.364284408250569
 20
3.4102921527325121
 30
0.0
 40
0.0019803277503879
 50
130.4459024225795076
 51
184.7070099861871029
  0
ARC
  5
40F03
  8
0
 10
4925.3961883854999542
 20
3.4360618074679099
 30
0.0
 40
0.0426634566966164
 50
217.4328175278216122
 51
244.1238680579419906
  0
ARC
  5
40F04
  8
0
 10
4925.3904673850665858
 20
3.1927147841303052
 30
0.0
 40
0.1399908709702603
 50
71.7972400288573738
 51
79.3014424854011537
  0
ARC
  5
40F05
  8
0
 10
4925.4122981519913083
 20
3.3082654704962118
 30
0.0
 40
0.0223960432619965
 50
79.3020735569396464
 51
89.4236879443900534
  0
ARC
  5
40F06
  8
0
 10
4925.412467222649866
 20
3.3250735667306959
 30
0.0
 40
0.0055870967181137
 50
89.4236879443900534
 51
102.1148567394964033
  0
ARC
  5
40F07
  8
0
 10
4925.4114452321309727
 20
3.3298347028847268
 30
0.0
 40
0.0007175092511611
 50
102.1148567393364033
 51
156.4173940772620881
  0
ARC
  5
40F08
  8
0
 10
4925.4113767461576572
 20
3.3300491299938408
 30
0.0
 40
0.0005935600035988
 50
172.9717334217475866
 51
217.1873841680425983
  0
ARC
  5
40F09
  8
0
 10
4925.4177179938542395
 20
3.3361100073301651
 30
0.0
 40
0.0093618336440673
 50
223.2926148611144015
 51
244.0794099073372081
  0
ARC
  5
40F0A
  8
0
 10
4925.4683574067375957
 20
3.4380627266314878
 30
0.0
 40
0.1231978308978852
 50
243.6240814621112065
 51
253.0647201913727997
  0
ARC
  5
40F0B
  8
0
 10
4925.3139389953030332
 20
2.9573636642682168
 30
0.0
 40
0.392543304724899
 50
71.926682811130874
 51
78.6664615902799937
  0
ARC
  5
40F0C
  8
0
 10
4925.3751540265002404
 20
3.2627844307803451
 30
0.0
 40
0.0810483213602212
 50
78.6664615902799937
 51
88.1271671570697066
  0
ARC
  5
40F0D
  8
0
 10
4925.3775422449925827
 20
3.3358214365714098
 30
0.0
 40
0.0079722801257748
 50
88.1271671571218462
 51
124.0826252417108009
  0
ARC
  5
40F0E
  8
0
 10
4925.3761193429163541
 20
3.3425056927783201
 30
0.0
 40
0.0030457541273204
 50
181.5309302865099141
 51
230.4964169202991968
  0
ARC
  5
40F0F
  8
0
 10
4925.3851725290423929
 20
3.3496427045268029
 30
0.0
 40
0.0145189301584878
 50
220.8005277524158885
 51
233.4035769911056093
  0
ARC
  5
40F10
  8
0
 10
4925.5716897681377304
 20
3.770374123506758
 30
0.0
 40
0.4760028772711133
 50
252.8125168798009099
 51
257.2736418916422281
  0
ARC
  5
40F11
  8
0
 10
4925.5007290415587704
 20
3.4561705876357558
 30
0.0
 40
0.1538859937173968
 50
257.273641891589989
 51
267.3669179344468034
  0
ARC
  5
40F12
  8
0
 10
4925.4943842134916849
 20
3.3182045445565098
 30
0.0
 40
0.0157741336685405
 50
267.3669179344468034
 51
294.918042198145713
  0
ARC
  5
40F13
  8
0
 10
4925.4948032529500779
 20
3.3173025451761919
 30
0.0
 40
0.0147795498609997
 50
294.918042198145713
 51
338.7307304450191054
  0
LINE
  5
40F14
  8
0
 10
4925.5085761074060429
 20
3.3119412417671752
 30
0.0
 11
4925.5263415111239738
 21
3.3660850661967618
 31
0.0
  0
ARC
  5
40F15
  8
0
 10
4924.8562428750037725
 20
1.6526984266607889
 30
0.0
 40
1.840897978862402
 50
69.5487527809751214
 51
71.0038319280653809
  0
ARC
  5
40F16
  8
0
 10
4925.5862917172271409
 20
3.5436010144862871
 30
0.0
 40
0.1873657895900383
 50
242.395029650709688
 51
251.3392849558825048
  0
ARC
  5
40F17
  8
0
 10
4925.5073798766879918
 20
3.3173615018208
 30
0.0
 40
0.0522831646512264
 50
51.7700562629617806
 51
68.7356227667827824
  0
ARC
  5
40F18
  8
0
 10
4925.535104697859424
 20
3.3527845821631548
 30
0.0
 40
0.0073018735138627
 50
22.4018582725771189
 51
50.6581280878507982
  0
ARC
  5
40F19
  8
0
 10
4925.5399395635413384
 20
3.3550665428180251
 30
0.0
 40
0.0019803277503879
 50
320.3869148746451856
 51
14.6480224382387796
  0
ARC
  5
40F1A
  8
0
 10
4925.5285216348711401
 20
3.394456513296733
 30
0.0
 40
0.0426634566966164
 50
260.9700568023768028
 51
287.6611073330045087
  0
ARC
  5
40F1B
  8
0
 10
4925.3939622206553395
 20
3.191616015035708
 30
0.0
 40
0.1399908711282217
 50
65.7924823775698258
 51
73.296684846869951
  0
ARC
  5
40F1C
  8
0
 10
4925.4421808972292638
 20
3.2988703984928121
 30
0.0
 40
0.0223960432619965
 50
55.6702369164907935
 51
65.7918513039071939
  0
ARC
  5
40F1D
  8
0
 10
4925.4516603883748758
 20
3.3127513181855361
 30
0.0
 40
0.0055870967181137
 50
42.9790681213250707
 51
55.6702369164377231
  0
ARC
  5
40F1E
  8
0
 10
4925.4552229922373954
 20
3.3160710675469312
 30
0.0
 40
0.0007175092511611
 50
348.6765307835785848
 51
42.9790681214933485
  0
ARC
  5
40F1F
  8
0
 10
4925.4554018592134526
 20
3.3162077274113688
 30
0.0
 40
0.0005935600035988
 50
287.906540692797023
 51
332.1221914390969232
  0
ARC
  5
40F20
  8
0
 10
4925.4536696907453006
 20
3.3248068697423769
 30
0.0
 40
0.0093618336440673
 50
261.0145149534662892
 51
281.8013099996969117
  0
ARC
  5
40F21
  8
0
 10
4925.4704814468495897
 20
3.4373949329052942
 30
0.0
 40
0.1231978308978852
 50
252.0292046694546002
 51
261.469843398731598
  0
ARC
  5
40F22
  8
0
 10
4925.32204684235694
 20
2.954814574274268
 30
0.0
 40
0.392543304724899
 50
66.4274632705748616
 51
73.1672420496714295
  0
ARC
  5
40F23
  8
0
 10
4925.4466167237433183
 20
3.240316709665751
 30
0.0
 40
0.0810483213602212
 50
56.9667577037627666
 51
66.4274632705792953
  0
ARC
  5
40F24
  8
0
 10
4925.4864523394162461
 20
3.3015803328564912
 30
0.0
 40
0.0079722801257748
 50
21.0112996191336592
 51
56.9667577037008286
  0
ARC
  5
40F25
  8
0
 10
4925.491444199754369
 20
3.3062478013051351
 30
0.0
 40
0.0030457541273204
 50
274.5975079405322958
 51
323.5629945743215217
  0
ARC
  5
40F26
  8
0
 10
4925.4881037938712325
 20
3.3172813322110981
 30
0.0
 40
0.0145189301584878
 50
271.6903478696959269
 51
284.2933971083842266
  0
LINE
  5
40F27
  8
0
 10
4925.6065146551190992
 20
3.2107668772660731
 30
0.0
 11
4925.6221675693059296
 21
3.2605233588556159
 31
0.0
  0
ARC
  5
40F28
  8
0
 10
4925.3373863752458419
 20
2.148892507077317
 30
0.0
 40
1.147262778259349
 50
72.8154789517166705
 51
75.1644897987225846
  0
ARC
  5
40F29
  8
0
 10
4925.6063501029211693
 20
3.1895048502940551
 30
0.0
 40
0.0727586476041885
 50
70.0819768783989474
 51
87.6557496748102523
  0
ARC
  5
40F2A
  8
0
 10
4926.5026977367715517
 20
5.2896799793897564
 30
0.0
 40
2.2054075749585831
 50
247.9946089203762938
 51
249.2301579429644107
  0
ARC
  5
40F2B
  8
0
 10
4925.6800065352199454
 20
3.131131614792503
 30
0.0
 40
0.1046685994314695
 50
55.866708411439113
 51
67.1642583978450887
  0
ARC
  5
40F2C
  8
0
 10
4924.9975433945919576
 20
2.883994596223427
 30
0.0
 40
0.5754752159633983
 50
69.9700287857791494
 51
73.960612976716348
  0
ARC
  5
40F2D
  8
0
 10
4925.0837986919432296
 20
3.251202763753124
 30
0.0
 40
0.1995944934806548
 50
68.624659958113142
 51
77.8907836441591002
  0
ARC
  5
40F2E
  8
0
 10
4925.121976120069121
 20
3.434605313433134
 30
0.0
 40
0.0123174160695262
 50
72.5548306255234507
 51
104.4438983802496068
  0
ARC
  5
40F2F
  8
0
 10
4925.1192525281558119
 20
3.4451793634418051
 30
0.0
 40
0.0013982363158355
 50
104.4438983799804959
 51
188.6273082282218923
  0
ARC
  5
40F30
  8
0
 10
4925.127437330342218
 20
3.4517553012573461
 30
0.0
 40
0.011729328046824
 50
215.3467038171737045
 51
234.7704950338948038
  0
ARC
  5
40F31
  8
0
 10
4925.2725320256759005
 20
3.6626022750247631
 30
0.0
 40
0.2676755994166819
 50
235.4356494543191047
 51
239.8491570309855092
  0
ARC
  5
40F32
  8
0
 10
4924.9784808091553714
 20
2.852429725155925
 30
0.0
 40
0.6117011841006881
 50
64.0455810096039784
 51
69.3051497561782242
  0
ARC
  5
40F33
  8
0
 10
4925.2166688651368531
 20
3.337315414327743
 30
0.0
 40
0.0715020705897464
 50
50.2728280495316469
 51
65.6098503745016046
  0
ARC
  5
40F34
  8
0
 10
4925.2576560610414163
 20
3.3863114009820912
 30
0.0
 40
0.0076260146396362
 50
25.45429434044825
 51
51.8370974143478023
  0
ARC
  5
40F35
  8
0
 10
4925.2601877843062539
 20
3.3875164929182189
 30
0.0
 40
0.0048221121313219
 50
6.6029840740717249
 51
25.4542943404458697
  0
ARC
  5
40F36
  8
0
 10
4925.2626759783415764
 20
3.3882278661044678
 30
0.0
 40
0.0023072718272709
 50
330.9599035443608841
 51
356.1011420958820963
  0
ARC
  5
40F37
  8
0
 10
4925.2639625395922849
 20
3.3879647996040729
 30
0.0
 40
0.0011261306639196
 50
278.0112373920619007
 51
310.4516752767448793
  0
ARC
  5
40F38
  8
0
 10
4925.275562977077243
 20
3.5284604109582141
 30
0.0
 40
0.1420723707693409
 50
256.3492728711490258
 51
265.3799966869768241
  0
LINE
  5
40F39
  8
0
 10
4925.2461238798141494
 20
3.4024711303090061
 30
0.0
 11
4925.2293216801335802
 21
3.3528948831753911
 31
0.0
  0
LINE
  5
40F3A
  8
0
 10
4925.1414387240429278
 20
3.442292949333019
 30
0.0
 11
4925.1256704113220621
 21
3.3898646183262668
 31
0.0
  0
ARC
  5
40F3B
  8
0
 10
4925.1398186164888102
 20
3.3862351648377809
 30
0.0
 40
0.0146063219902665
 50
165.6121132581575068
 51
187.6397988728878943
  0
ARC
  5
40F3C
  8
0
 10
4925.1384266629447666
 20
3.3868863628422581
 30
0.0
 40
0.0133391744862587
 50
191.2092295319739037
 51
231.2857051653622023
  0
ARC
  5
40F3D
  8
0
 10
4925.1754590340078721
 20
3.4430278027649268
 30
0.0
 40
0.080546660450082
 50
235.7128741706027881
 51
248.1971381316716077
  0
ARC
  5
40F3E
  8
0
 10
4925.3394400503402721
 20
3.816146832198906
 30
0.0
 40
0.4880718031401406
 50
246.5922606109205901
 51
250.0847337304857945
  0
ARC
  5
40F3F
  8
0
 10
4925.3391834430585732
 20
3.8076348379160221
 30
0.0
 40
0.4799888006447148
 50
249.767427870057702
 51
253.2282883846858113
  0
ARC
  5
40F40
  8
0
 10
4925.2300614188161489
 20
3.4410316516299089
 30
0.0
 40
0.0975007498520388
 50
252.4605148951933131
 51
260.9646286106848834
  0
ARC
  5
40F41
  8
0
 10
4925.2170310163428439
 20
3.3587268071540519
 30
0.0
 40
0.0141709434811737
 50
260.7350508838810015
 51
296.7949310724902148
  0
ARC
  5
40F42
  8
0
 10
4925.2175604614312761
 20
3.3571137417596288
 30
0.0
 40
0.012495000326272
 50
297.9623475566507977
 51
340.2666174399158194
  0
ARC
  5
40F43
  8
0
 10
4925.0724696159395535
 20
3.0839983254095058
 30
0.0
 40
0.2960478481578903
 50
69.8104934837439117
 51
72.0038553808072095
  0
ARC
  5
40F44
  8
0
 10
4925.1132880652503445
 20
3.209653363968239
 30
0.0
 40
0.1639292101115726
 50
72.0038553808072095
 51
74.3095376329489739
  0
ARC
  5
40F45
  8
0
 10
4925.1445990057882227
 20
3.3211168045931698
 30
0.0
 40
0.0481515197156614
 50
74.309537632947027
 51
79.2833684755264017
  0
ARC
  5
40F46
  8
0
 10
4925.1522324032448523
 20
3.3614512400951599
 30
0.0
 40
0.0071011184508354
 50
79.2833684755273111
 51
91.3552857995871932
  0
ARC
  5
40F47
  8
0
 10
4925.1520721457063701
 20
3.3682249907781698
 30
0.0
 40
0.0003254722975166
 50
91.3552857990659817
 51
147.4389750464661972
  0
ARC
  5
40F48
  8
0
 10
4925.1519791638838797
 20
3.3683499549856282
 30
0.0
 40
0.0001881538474914
 50
164.5245620770083121
 51
194.7307348491324035
  0
ARC
  5
40F49
  8
0
 10
4925.1523891532724519
 20
3.3685485918024609
 30
0.0
 40
0.0006412236066324
 50
202.6058786522486059
 51
233.3827798967629974
  0
ARC
  5
40F4A
  8
0
 10
4925.1617032865524379
 20
3.3809663565971522
 30
0.0
 40
0.0161639093224561
 50
233.1378300058900948
 51
244.7846454073932989
  0
ARC
  5
40F4B
  8
0
 10
4925.2410588853326772
 20
3.548560462709442
 30
0.0
 40
0.2015960611527888
 50
244.6722970127761982
 51
250.6089669432234928
  0
ARC
  5
40F4C
  8
0
 10
4925.2553016785459477
 20
3.5780966639254319
 30
0.0
 40
0.2342137179315194
 50
249.721303083719107
 51
253.8550845317298013
  0
ARC
  5
40F4D
  8
0
 10
4925.2028731843138303
 20
3.3975194707283221
 30
0.0
 40
0.0461797888915376
 50
254.038832192845689
 51
260.2213340164844908
  0
ARC
  5
40F4E
  8
0
 10
4925.1954531221736033
 20
3.353330010703754
 30
0.0
 40
0.0013856122598902
 50
252.2149038092543094
 51
300.0472168882982942
  0
ARC
  5
40F4F
  8
0
 10
4925.195922796195191
 20
3.352196818157207
 30
0.0
 40
0.0002336965613697
 50
343.5413888544312044
 51
46.1185613428823018
  0
ARC
  5
40F50
  8
0
 10
4925.1863737037792816
 20
3.3402256489419488
 30
0.0
 40
0.0155459101473967
 50
51.3419361817944804
 51
66.1047192027934614
  0
ARC
  5
40F51
  8
0
 10
4925.1017098868696849
 20
3.1589661513346199
 30
0.0
 40
0.2156004583445092
 50
65.0456609196250071
 51
70.2277960261796323
  0
ARC
  5
40F52
  8
0
 10
4925.0480414045350699
 20
3.027822293786723
 30
0.0
 40
0.3702908410270351
 50
69.2621169237705914
 51
77.8976592881830925
  0
ARC
  5
40F53
  8
0
 10
4925.0592784137779745
 20
3.0209483607784442
 30
0.0
 40
0.3729652054684831
 50
62.875799044097171
 51
71.2514185941362967
  0
ARC
  5
40F54
  8
0
 10
4922.7006593580563276
 20
-2.1255399546436511
 30
0.0
 40
6.0369490542513908
 50
68.2003754645043472
 51
68.5916083653740429
  0
ARC
  5
40F55
  8
0
 10
4924.843733518215231
 20
3.3461311760607031
 30
0.0
 40
0.1605728172641859
 50
67.8691076619903413
 51
79.4110815370024596
  0
ARC
  5
40F56
  8
0
 10
4924.9490061867245458
 20
3.609285773430766
 30
0.0
 40
0.1319145086331894
 50
233.8689788878178035
 51
242.3211679180357976
  0
ARC
  5
40F57
  8
0
 10
4924.1016260985697954
 20
1.6312077739497131
 30
0.0
 40
2.0307794905977228
 50
63.9505655920349767
 51
65.5379851651140228
  0
LINE
  5
40F58
  8
0
 10
4924.9929646481750751
 20
3.4559233459118439
 30
0.0
 11
4924.9783028345791536
 21
3.4126624807844319
 31
0.0
  0
LINE
  5
40F59
  8
0
 10
4924.8897983623974142
 20
3.499994057526667
 30
0.0
 11
4924.874651565766726
 21
3.4496322159353081
 31
0.0
  0
ARC
  5
40F5A
  8
0
 10
4924.8887997709343836
 20
3.446002762446823
 30
0.0
 40
0.0146063219902665
 50
165.6121132581575068
 51
187.6397988728878943
  0
ARC
  5
40F5B
  8
0
 10
4924.8874078173876114
 20
3.4466539604512989
 30
0.0
 40
0.0133391744862587
 50
191.209229531973989
 51
231.2857051653622023
  0
ARC
  5
40F5C
  8
0
 10
4924.9244401884516265
 20
3.5027954003739681
 30
0.0
 40
0.080546660450082
 50
235.7128741706027881
 51
248.1971381316716077
  0
ARC
  5
40F5D
  8
0
 10
4925.088421204784936
 20
3.8759144298079482
 30
0.0
 40
0.4880718031401406
 50
246.5922606109205901
 51
250.0847337304857945
  0
ARC
  5
40F5E
  8
0
 10
4925.0881645975041465
 20
3.8674024355250638
 30
0.0
 40
0.4799888006447148
 50
249.767427870057702
 51
253.2282883846858113
  0
ARC
  5
40F5F
  8
0
 10
4924.9790425732608128
 20
3.500799249238951
 30
0.0
 40
0.0975007498520388
 50
252.4605148951933131
 51
260.9646286106848834
  0
ARC
  5
40F60
  8
0
 10
4924.9660121707884173
 20
3.4184944047630941
 30
0.0
 40
0.0141709434811737
 50
260.7350508838810015
 51
296.7949310724902148
  0
ARC
  5
40F61
  8
0
 10
4924.9665416158750304
 20
3.4168813393686421
 30
0.0
 40
0.012495000326272
 50
297.9623475566507977
 51
340.2666174399158194
  0
ARC
  5
40F62
  8
0
 10
4924.8214507703842173
 20
3.1437659230185471
 30
0.0
 40
0.2960478481578903
 50
69.8104934837439117
 51
72.0038553808072095
  0
ARC
  5
40F63
  8
0
 10
4924.8622692196940989
 20
3.2694209615772811
 30
0.0
 40
0.1639292101115726
 50
72.0038553808072095
 51
74.3095376329489739
  0
ARC
  5
40F64
  8
0
 10
4924.8935801602328866
 20
3.3808844022022111
 30
0.0
 40
0.0481515197156614
 50
74.309537632947027
 51
79.2833684755264017
  0
ARC
  5
40F65
  8
0
 10
4924.9012135576904257
 20
3.4212188377042012
 30
0.0
 40
0.0071011184508354
 50
79.2833684755273111
 51
91.3552857995871932
  0
ARC
  5
40F66
  8
0
 10
4924.9010533001501244
 20
3.4279925883872111
 30
0.0
 40
0.0003254722975166
 50
91.3552857990659817
 51
147.4389750464661972
  0
ARC
  5
40F67
  8
0
 10
4924.900960318327634
 20
3.428117552594669
 30
0.0
 40
0.0001881538474914
 50
164.5245620770083121
 51
194.7307348491324035
  0
ARC
  5
40F68
  8
0
 10
4924.9013703077162063
 20
3.4283161894114742
 30
0.0
 40
0.0006412236066324
 50
202.6058786522486912
 51
233.3827798967629974
  0
ARC
  5
40F69
  8
0
 10
4924.9106844409971018
 20
3.440733954206165
 30
0.0
 40
0.0161639093224561
 50
233.1378300058900948
 51
244.7846454073932989
  0
ARC
  5
40F6A
  8
0
 10
4924.990040039777341
 20
3.6083280603184829
 30
0.0
 40
0.2015960611527888
 50
244.6722970127761982
 51
250.6089669432234928
  0
ARC
  5
40F6B
  8
0
 10
4925.0042828329924305
 20
3.6378642615344732
 30
0.0
 40
0.2342137179315194
 50
249.721303083719107
 51
253.8550845317298013
  0
ARC
  5
40F6C
  8
0
 10
4924.9518543387575846
 20
3.4572870683373349
 30
0.0
 40
0.0461797888915376
 50
254.038832192845689
 51
260.2213340164844908
  0
ARC
  5
40F6D
  8
0
 10
4924.9444342766191767
 20
3.4130976083127949
 30
0.0
 40
0.0013856122598902
 50
252.2149038092543094
 51
300.0472168882982942
  0
ARC
  5
40F6E
  8
0
 10
4924.9449039506380359
 20
3.4119644157662479
 30
0.0
 40
0.0002336965613697
 50
343.5413888544312044
 51
46.1185613428823018
  0
ARC
  5
40F6F
  8
0
 10
4924.9353548582239455
 20
3.3999932465509901
 30
0.0
 40
0.0155459101473967
 50
51.3419361817944804
 51
66.1047192027934614
  0
ARC
  5
40F70
  8
0
 10
4924.8506910413152582
 20
3.218733748943662
 30
0.0
 40
0.2156004583445092
 50
65.0456609196250071
 51
70.2277960261796323
  0
ARC
  5
40F71
  8
0
 10
4924.7970225589788242
 20
3.0875898913957358
 30
0.0
 40
0.3702908410270351
 50
69.2621169237705914
 51
77.8976592881830925
  0
ARC
  5
40F72
  8
0
 10
4924.8082595682226383
 20
3.080715958387457
 30
0.0
 40
0.3729652054684831
 50
62.875799044097171
 51
71.2514185941362967
  0
ARC
  5
40F73
  8
0
 10
4924.8397057701522499
 20
4.0229534851491859
 30
0.0
 40
0.4260546453427423
 50
240.3794765550362058
 51
243.0003489074694869
  0
ARC
  5
40F74
  8
0
 10
4923.6868252222611773
 20
1.455650442309925
 30
0.0
 40
2.404324689787547
 50
62.7110000019326179
 51
64.2878889409415422
  0
ARC
  5
40F75
  8
0
 10
4924.7596308395768574
 20
3.5272656219425169
 30
0.0
 40
0.0715020705897464
 50
50.2728280495316469
 51
65.6098503745016046
  0
ARC
  5
40F76
  8
0
 10
4924.8006180354814205
 20
3.576261608596893
 30
0.0
 40
0.0076260146396362
 50
25.45429434044825
 51
51.8370974143478023
  0
ARC
  5
40F77
  8
0
 10
4924.8031497587480771
 20
3.5774667005330221
 30
0.0
 40
0.0048221121313219
 50
6.6029840740717249
 51
25.4542943404458697
  0
ARC
  5
40F78
  8
0
 10
4924.8056379527843092
 20
3.5781780737192701
 30
0.0
 40
0.0023072718272709
 50
330.9599035443608841
 51
356.1011420958820963
  0
ARC
  5
40F79
  8
0
 10
4924.8069245140322892
 20
3.5779150072188761
 30
0.0
 40
0.0011261306639196
 50
278.0112373920619007
 51
310.4516752767448793
  0
ARC
  5
40F7A
  8
0
 10
4924.8185249515181567
 20
3.7184106185730159
 30
0.0
 40
0.1420723707693409
 50
256.3491430398271973
 51
265.3799966869768241
  0
LINE
  5
40F7B
  8
0
 10
4924.7890858542550632
 20
3.5924213379238079
 30
0.0
 11
4924.772283654576313
 21
3.5428450907901929
 31
0.0
  0
LINE
  5
40F7C
  8
0
 10
4924.6490045611080859
 20
3.652285048922054
 30
0.0
 11
4924.6329798333272265
 21
3.5990041591288202
 31
0.0
  0
ARC
  5
40F7D
  8
0
 10
4924.6471280384948841
 20
3.5953747056403622
 30
0.0
 40
0.0146063219902665
 50
165.6121132581575068
 51
187.6397988728878943
  0
ARC
  5
40F7E
  8
0
 10
4924.645736084949931
 20
3.5960259036448101
 30
0.0
 40
0.0133391744862587
 50
191.2092295319739037
 51
231.2857051653622023
  0
ARC
  5
40F7F
  8
0
 10
4924.6908550120269865
 20
3.652314831919544
 30
0.0
 40
0.0854790457566926
 50
231.2857418401628138
 51
243.1870348173036973
  0
ARC
  5
40F80
  8
0
 10
4924.7827900003330797
 20
3.680481829538925
 30
0.0
 40
0.147932134150666
 50
254.1572760895529939
 51
260.2396646441169992
  0
ARC
  5
40F81
  8
0
 10
4924.7599929907828482
 20
3.5486770147688551
 30
0.0
 40
0.0141709434811737
 50
260.7350508838810015
 51
296.7949310724902148
  0
ARC
  5
40F82
  8
0
 10
4924.7605224358721898
 20
3.547063949374432
 30
0.0
 40
0.012495000326272
 50
297.9623475566507977
 51
340.2666174399158194
  0
ARC
  5
40F83
  8
0
 10
4924.1720647164311231
 20
3.006334722947468
 30
0.0
 40
0.6834169191974573
 50
65.3210156885136115
 51
66.8133922071167206
  0
ARC
  5
40F84
  8
0
 10
4924.1362911038795573
 20
2.813118105572495
 30
0.0
 40
0.8761771366567774
 50
69.6388918362776934
 51
70.1883988989228413
  0
ARC
  5
40F85
  8
0
 10
4924.4417154884340562
 20
3.653077351101921
 30
0.0
 40
0.0193385087707009
 50
231.5766060960274899
 51
242.509300698205692
  0
ARC
  5
40F86
  8
0
 10
4924.4877147610932298
 20
3.7258262800488411
 30
0.0
 40
0.1053544909525958
 50
238.5774976240994931
 51
249.7555600662599034
  0
ARC
  5
40F87
  8
0
 10
4924.5345980445272289
 20
3.809189191188505
 30
0.0
 40
0.2003634162970555
 50
245.4216247189498858
 51
251.5197650110578991
  0
ARC
  5
40F88
  8
0
 10
4924.5282045889825895
 20
3.172895135272638
 30
0.0
 40
0.4404933529256672
 50
67.7361714741880974
 51
76.1744491924205818
  0
ARC
  5
40F89
  8
0
 10
4924.579683100893817
 20
3.2441274762650791
 30
0.0
 40
0.3556678181259333
 50
57.1975825918401526
 51
71.0650767319373955
  0
ARC
  5
40F8A
  8
0
 10
4924.4553606246163326
 20
4.4517694997661339
 30
0.0
 40
0.7083536492342741
 50
245.3717386295543861
 51
250.9104364804200884
  0
ARC
  5
40F8B
  8
0
 10
4924.0569723523021821
 20
3.356627568310631
 30
0.0
 40
0.4572231041038683
 50
61.5309047568119212
 51
68.6142510252206819
  0
LINE
  5
40F8C
  8
0
 10
4924.2992036690502573
 20
3.746178772853598
 30
0.0
 11
4924.2834134279337377
 21
3.699588391186126
 31
0.0
  0
LINE
  5
40F8D
  8
0
 10
4924.1601689566950881
 20
3.807854310029783
 30
0.0
 11
4924.1457675227229629
 21
3.75997073741215
 31
0.0
  0
ARC
  5
40F8E
  8
0
 10
4924.159915727889711
 20
3.7563412839236929
 30
0.0
 40
0.0146063219902665
 50
165.6121132581575068
 51
187.6397988728878943
  0
ARC
  5
40F8F
  8
0
 10
4924.1585237743447578
 20
3.7569924819281408
 30
0.0
 40
0.0133391744862587
 50
191.209229531973989
 51
231.2857051653622023
  0
ARC
  5
40F90
  8
0
 10
4924.1955561454087729
 20
3.81313392185081
 30
0.0
 40
0.080546660450082
 50
235.7128741706027881
 51
248.1971381316716077
  0
ARC
  5
40F91
  8
0
 10
4924.5624908263380348
 20
4.5053037178759299
 30
0.0
 40
0.863545115273938
 50
242.6412766030865953
 51
245.5395138932256884
  0
ARC
  5
40F92
  8
0
 10
4924.2711227641420919
 20
3.7054203151647589
 30
0.0
 40
0.0141709434811737
 50
260.7350508838810015
 51
296.7949310724902148
  0
ARC
  5
40F93
  8
0
 10
4924.2716522092314335
 20
3.7038072497703358
 30
0.0
 40
0.012495000326272
 50
297.9623475566507977
 51
340.2666174399158194
  0
ARC
  5
40F94
  8
0
 10
4924.1105409879210129
 20
3.443500513971177
 30
0.0
 40
0.2960478481578903
 50
69.8104934837439117
 51
72.0038553808072095
  0
ARC
  5
40F95
  8
0
 10
4924.1513594372318039
 20
3.569155552529911
 30
0.0
 40
0.1639292101115726
 50
72.0038553808072095
 51
74.3095376329489739
  0
ARC
  5
40F96
  8
0
 10
4924.1826703777705916
 20
3.680618993154841
 30
0.0
 40
0.0481515197156614
 50
74.309537632947027
 51
79.2833684755264017
  0
ARC
  5
40F97
  8
0
 10
4924.1903037752281307
 20
3.7209534286568311
 30
0.0
 40
0.0071011184508354
 50
79.2833684755273111
 51
91.3552857995871932
  0
ARC
  5
40F98
  8
0
 10
4924.1901435176869199
 20
3.727727179339869
 30
0.0
 40
0.0003254722975166
 50
91.3552857990659817
 51
147.4389750464661972
  0
ARC
  5
40F99
  8
0
 10
4924.1900505358662485
 20
3.7278521435472989
 30
0.0
 40
0.0001881538474914
 50
164.5245620770083121
 51
194.7307348491324035
  0
ARC
  5
40F9A
  8
0
 10
4924.1904605252539113
 20
3.7280507803641321
 30
0.0
 40
0.0006412236066324
 50
202.6058786522486912
 51
233.3827798967629974
  0
ARC
  5
40F9B
  8
0
 10
4924.1997746585348068
 20
3.7404685451588229
 30
0.0
 40
0.0161639093224561
 50
233.1378300058900948
 51
244.7846454073932989
  0
ARC
  5
40F9C
  8
0
 10
4924.279130257315046
 20
3.9080626512711132
 30
0.0
 40
0.2015960611527888
 50
244.6722970127761982
 51
250.6089669432234928
  0
ARC
  5
40F9D
  8
0
 10
4924.293373050529226
 20
3.9375988524871031
 30
0.0
 40
0.2342137179315194
 50
249.721303083719107
 51
253.8550845317298013
  0
ARC
  5
40F9E
  8
0
 10
4924.2409445562961992
 20
3.7570216592899941
 30
0.0
 40
0.0461797888915376
 50
254.038832192845689
 51
260.2213340164844908
  0
ARC
  5
40F9F
  8
0
 10
4924.2335244941568817
 20
3.7128321992654252
 30
0.0
 40
0.0013856122598902
 50
252.2149038092543094
 51
300.0472168882982942
  0
ARC
  5
40FA0
  8
0
 10
4924.2339941681766504
 20
3.7116990067188782
 30
0.0
 40
0.0002336965613697
 50
343.5413888544312044
 51
46.1185613428823018
  0
ARC
  5
40FA1
  8
0
 10
4924.224445075760741
 20
3.699727837503648
 30
0.0
 40
0.0155459101473967
 50
51.3419361817944804
 51
66.1047192027934614
  0
ARC
  5
40FA2
  8
0
 10
4924.1397812588529632
 20
3.518468339896291
 30
0.0
 40
0.2156004583445092
 50
65.0456609196250071
 51
70.2277960261796323
  0
ARC
  5
40FA3
  8
0
 10
4923.2073936124670581
 20
1.4403414600546269
 30
0.0
 40
2.5024017149644382
 50
64.532783836359215
 51
67.9752214940605626
  0
ARC
  5
40FA4
  8
0
 10
4925.3303049756832479
 20
3.0607612188693678
 30
0.0
 40
0.2500327686255635
 50
68.6619528903937351
 51
77.7913251584169103
  0
ARC
  5
40FA5
  8
0
 10
4925.4220493214752423
 20
3.4045314415215069
 30
0.0
 40
0.1191032515082527
 50
232.100704335312912
 51
241.2262819375623053
  0
ARC
  5
40FA6
  8
0
 10
4925.2051148094851669
 20
2.7214225397501668
 30
0.0
 40
0.6117011841006881
 50
64.0455810096039784
 51
69.3051497561782242
  0
ARC
  5
40FA7
  8
0
 10
4925.4433028654666487
 20
3.2063082289219862
 30
0.0
 40
0.0715020705897464
 50
50.2728280495316469
 51
65.6098503745016046
  0
ARC
  5
40FA8
  8
0
 10
4925.4842900613703023
 20
3.255304215576333
 30
0.0
 40
0.0076260146396362
 50
25.45429434044825
 51
51.8370974143478023
  0
ARC
  5
40FA9
  8
0
 10
4925.4868217846369589
 20
3.256509307512462
 30
0.0
 40
0.0048221121313219
 50
6.6029840740717249
 51
25.4542943404458697
  0
ARC
  5
40FAA
  8
0
 10
4925.4893099786722814
 20
3.2572206806987389
 30
0.0
 40
0.0023072718272709
 50
330.9599035443608841
 51
356.1011420958820963
  0
ARC
  5
40FAB
  8
0
 10
4925.4905965399202614
 20
3.2569576141983441
 30
0.0
 40
0.0011261306639196
 50
278.0112373920619007
 51
310.4516752767448793
  0
ARC
  5
40FAC
  8
0
 10
4925.5021969774070385
 20
3.3974532255524839
 30
0.0
 40
0.1420723707693409
 50
256.3492728711490258
 51
265.3799966869768241
  0
LINE
  5
40FAD
  8
0
 10
4925.4727578801439449
 20
3.2714639449032772
 30
0.0
 11
4925.4559556804642853
 21
3.2218876977696622
 31
0.0
  0
LINE
  5
40FAE
  8
0
 10
4925.3674261146570643
 20
3.3091358402880591
 30
0.0
 11
4925.3523044116518577
 21
3.258857432920538
 31
0.0
  0
ARC
  5
40FAF
  8
0
 10
4925.3664526168186057
 20
3.255227979432052
 30
0.0
 40
0.0146063219902665
 50
165.6121132581575068
 51
187.6397988728878943
  0
ARC
  5
40FB0
  8
0
 10
4925.3650606632736526
 20
3.2558791774365279
 30
0.0
 40
0.0133391744862587
 50
191.209229531973989
 51
231.2857051653622023
  0
ARC
  5
40FB1
  8
0
 10
4925.4020930343376676
 20
3.3120206173591971
 30
0.0
 40
0.080546660450082
 50
235.7128741706027881
 51
248.1971381316716077
  0
ARC
  5
40FB2
  8
0
 10
4925.5660740506691582
 20
3.6851396467931492
 30
0.0
 40
0.4880718031401406
 50
246.5922606109205901
 51
250.0847337304857945
  0
ARC
  5
40FB3
  8
0
 10
4925.5658174433883687
 20
3.6766276525102932
 30
0.0
 40
0.4799888006447148
 50
249.767427870057702
 51
253.2282883846858113
  0
ARC
  5
40FB4
  8
0
 10
4925.4566954191459445
 20
3.31002446622418
 30
0.0
 40
0.0975007498520388
 50
252.4605148951933131
 51
260.9646286106848834
  0
ARC
  5
40FB5
  8
0
 10
4925.44366501667173
 20
3.2277196217483231
 30
0.0
 40
0.0141709434811737
 50
260.7350508838810015
 51
296.7949310724902148
  0
ARC
  5
40FB6
  8
0
 10
4925.4441944617610716
 20
3.226106556353872
 30
0.0
 40
0.012495000326272
 50
297.9623475566507977
 51
340.2666174399158194
  0
ARC
  5
40FB7
  8
0
 10
4925.2991036162702585
 20
2.9529911400037769
 30
0.0
 40
0.2960478481578903
 50
69.8104934837439117
 51
72.0038553808072095
  0
ARC
  5
40FB8
  8
0
 10
4925.3399220655783211
 20
3.0786461785625101
 30
0.0
 40
0.1639292101115726
 50
72.0038553808072095
 51
74.3095376329489739
  0
ARC
  5
40FB9
  8
0
 10
4925.3712330061180182
 20
3.190109619187441
 30
0.0
 40
0.0481515197156614
 50
74.309537632947027
 51
79.2833684755264017
  0
ARC
  5
40FBA
  8
0
 10
4925.3788664035755573
 20
3.2304440546894022
 30
0.0
 40
0.0071011184508354
 50
79.2833684755273111
 51
91.3552857995871932
  0
ARC
  5
40FBB
  8
0
 10
4925.3787061460352561
 20
3.2372178053724401
 30
0.0
 40
0.0003254722975166
 50
91.3552857990659817
 51
147.4389750464661972
  0
ARC
  5
40FBC
  8
0
 10
4925.3786131642118562
 20
3.23734276957987
 30
0.0
 40
0.0001881538474914
 50
164.5245620770083121
 51
194.7307348491324035
  0
ARC
  5
40FBD
  8
0
 10
4925.379023153601338
 20
3.2375414063967041
 30
0.0
 40
0.0006412236066324
 50
202.6058786522486912
 51
233.3827798967629974
  0
ARC
  5
40FBE
  8
0
 10
4925.388337286881324
 20
3.249959171191394
 30
0.0
 40
0.0161639093224561
 50
233.1378300058900948
 51
244.7846454073932989
  0
ARC
  5
40FBF
  8
0
 10
4925.4676928856615632
 20
3.4175532773036839
 30
0.0
 40
0.2015960611527888
 50
244.6722970127761982
 51
250.6089669432234928
  0
ARC
  5
40FC0
  8
0
 10
4925.4819356788766527
 20
3.447089478519703
 30
0.0
 40
0.2342137179315194
 50
249.721303083719107
 51
253.8550845317298013
  0
ARC
  5
40FC1
  8
0
 10
4925.4295071846427163
 20
3.2665122853225652
 30
0.0
 40
0.0461797888915376
 50
254.038832192845689
 51
260.2213340164844908
  0
ARC
  5
40FC2
  8
0
 10
4925.4220871225043084
 20
3.2223228252980238
 30
0.0
 40
0.0013856122598902
 50
252.2149038092543094
 51
300.0472168882982942
  0
ARC
  5
40FC3
  8
0
 10
4925.4225567965231676
 20
3.2211896327514769
 30
0.0
 40
0.0002336965613697
 50
343.5413888544312044
 51
46.1185613428823018
  0
ARC
  5
40FC4
  8
0
 10
4925.4130077041081677
 20
3.2092184635362191
 30
0.0
 40
0.0155459101473967
 50
51.3419361817944804
 51
66.1047192027934614
  0
ARC
  5
40FC5
  8
0
 10
4925.3283438872003899
 20
3.027958965928863
 30
0.0
 40
0.2156004583445092
 50
65.0456609196250071
 51
70.2277960261796323
  0
ARC
  5
40FC6
  8
0
 10
4925.2746754048639559
 20
2.8968151083809648
 30
0.0
 40
0.3702908410270351
 50
69.2621169237705914
 51
77.8976592881830925
  0
ARC
  5
40FC7
  8
0
 10
4925.28591241410777
 20
2.889941175372686
 30
0.0
 40
0.3729652054684831
 50
62.875799044097171
 51
71.2514185941362967
  0
LINE
  5
40FC8
  8
0
 10
4925.2229183343615659
 20
3.3325865402025281
 30
0.0
 11
4925.2093114427998444
 21
3.2924383077322501
 31
0.0
  0
LINE
  5
40FC9
  8
0
 10
4925.1191026437663822
 20
3.3741031391510732
 30
0.0
 11
4925.1056601739874168
 21
3.3294080428831259
 31
0.0
  0
ARC
  5
40FCA
  8
0
 10
4925.1198083791550744
 20
3.3257785893946399
 30
0.0
 40
0.0146063219902665
 50
165.6121132581575068
 51
187.6397988728878943
  0
ARC
  5
40FCB
  8
0
 10
4925.1184164256101212
 20
3.3264297873991162
 30
0.0
 40
0.0133391744862587
 50
191.209229531973989
 51
231.2857051653622023
  0
ARC
  5
40FCC
  8
0
 10
4925.1554487966732268
 20
3.3825712273217849
 30
0.0
 40
0.080546660450082
 50
235.7128741706027881
 51
248.1971381316716077
  0
ARC
  5
40FCD
  8
0
 10
4925.3194298130047173
 20
3.7556902567557371
 30
0.0
 40
0.4880718031401406
 50
246.5922606109205901
 51
250.0847337304857945
  0
ARC
  5
40FCE
  8
0
 10
4925.3191732057239278
 20
3.7471782624728811
 30
0.0
 40
0.4799888006447148
 50
249.767427870057702
 51
253.2282883846858113
  0
ARC
  5
40FCF
  8
0
 10
4925.2100511814824131
 20
3.3805750761867679
 30
0.0
 40
0.0975007498520388
 50
252.4605148951933131
 51
260.9646286106848834
  0
ARC
  5
40FD0
  8
0
 10
4925.1970207790081986
 20
3.2982702317109109
 30
0.0
 40
0.0141709434811737
 50
260.7350508838810015
 51
296.7949310724902148
  0
ARC
  5
40FD1
  8
0
 10
4925.1975502240966307
 20
3.296657166316459
 30
0.0
 40
0.012495000326272
 50
297.9623475566507977
 51
340.2666174399158194
  0
ARC
  5
40FD2
  8
0
 10
4925.0524593786049081
 20
3.0235417499663648
 30
0.0
 40
0.2960478481578903
 50
69.8104934837439117
 51
72.0038553808072095
  0
ARC
  5
40FD3
  8
0
 10
4925.0932778279147897
 20
3.149196788525098
 30
0.0
 40
0.1639292101115726
 50
72.0038553808072095
 51
74.3095376329489739
  0
ARC
  5
40FD4
  8
0
 10
4925.1245887684535774
 20
3.2606602291500288
 30
0.0
 40
0.0481515197156614
 50
74.309537632947027
 51
79.2833684755264017
  0
ARC
  5
40FD5
  8
0
 10
4925.1322221659111165
 20
3.3009946646520181
 30
0.0
 40
0.0071011184508354
 50
79.2833684755273111
 51
91.3552857995871932
  0
ARC
  5
40FD6
  8
0
 10
4925.1320619083708152
 20
3.307768415335028
 30
0.0
 40
0.0003254722975166
 50
91.3552857990659817
 51
147.4389750464661972
  0
ARC
  5
40FD7
  8
0
 10
4925.1319689265501438
 20
3.3078933795424579
 30
0.0
 40
0.0001881538474914
 50
164.5245620770083121
 51
194.7307348491324035
  0
ARC
  5
40FD8
  8
0
 10
4925.1323789159368971
 20
3.3080920163592911
 30
0.0
 40
0.0006412236066324
 50
202.6058786522486912
 51
233.3827798967629974
  0
ARC
  5
40FD9
  8
0
 10
4925.1416930492177926
 20
3.3205097811539819
 30
0.0
 40
0.0161639093224561
 50
233.1378300058900948
 51
244.7846454073932989
  0
ARC
  5
40FDA
  8
0
 10
4925.2210486479980318
 20
3.4881038872662722
 30
0.0
 40
0.2015960611527888
 50
244.6722970127761982
 51
250.6089669432234928
  0
ARC
  5
40FDB
  8
0
 10
4925.2352914412122118
 20
3.5176400884822621
 30
0.0
 40
0.2342137179315194
 50
249.721303083719107
 51
253.8550845317298013
  0
ARC
  5
40FDC
  8
0
 10
4925.1828629469791849
 20
3.3370628952851531
 30
0.0
 40
0.0461797888915376
 50
254.038832192845689
 51
260.2213340164844908
  0
ARC
  5
40FDD
  8
0
 10
4925.1754428848398675
 20
3.2928734352606122
 30
0.0
 40
0.0013856122598902
 50
252.2149038092543094
 51
300.0472168882982942
  0
ARC
  5
40FDE
  8
0
 10
4925.1759125588587267
 20
3.2917402427140652
 30
0.0
 40
0.0002336965613697
 50
343.5413888544312044
 51
46.1185613428823018
  0
ARC
  5
40FDF
  8
0
 10
4925.1663634664437268
 20
3.279769073498807
 30
0.0
 40
0.0155459101473967
 50
51.3419361817944804
 51
66.1047192027934614
  0
ARC
  5
40FE0
  8
0
 10
4925.081699649535949
 20
3.09850957589145
 30
0.0
 40
0.2156004583445092
 50
65.0456609196250071
 51
70.2277960261796323
  0
ARC
  5
40FE1
  8
0
 10
4925.028031167201334
 20
2.9673657183435531
 30
0.0
 40
0.3702908410270351
 50
69.2621169237705914
 51
77.8976592881830925
  0
ARC
  5
40FE2
  8
0
 10
4925.0392681764433291
 20
2.9604917853352739
 30
0.0
 40
0.3729652054684831
 50
62.875799044097171
 51
71.2514185941362967
  0
LINE
  5
40FE3
  8
0
 10
4924.3895945863378074
 20
3.6833245821897691
 30
0.0
 11
4924.2933236372309693
 21
3.728829264084387
 31
0.0
  0
LINE
  5
40FE4
  8
0
 10
4924.5276529429092989
 20
3.6197473080851812
 30
0.0
 11
4924.6412248818469379
 21
3.5701933745051808
 31
0.0
  0
LINE
  5
40FE5
  8
0
 10
4924.6461157592202653
 20
3.579422407666895
 30
0.0
 11
4924.6306066555071084
 21
3.5301309907748641
 31
0.0
  0
ARC
  5
40FE6
  8
0
 10
4924.6423307762261175
 20
3.5266146262807219
 30
0.0
 40
0.0122400909258012
 50
163.3046641967144126
 51
245.9185468423131056
  0
ARC
  5
40FE7
  8
0
 10
5017.8239841838476423
 20
228.5807749734788956
 30
0.0
 40
243.5942454318343096
 50
247.5083589738858052
 51
247.5290254893438942
  0
ARC
  5
40FE8
  8
0
 10
4924.7226224008209101
 20
3.4932511129464938
 30
0.0
 40
0.01212299985519
 50
250.2369316279981888
 51
340.927030452582585
  0
LINE
  5
40FE9
  8
0
 10
4924.7340798865188845
 20
3.4892896552660759
 30
0.0
 11
4924.7486121476167682
 21
3.532808527158148
 31
0.0
  0
LINE
  5
40FEA
  8
0
 10
4924.8743231029393428
 20
3.4440609267548421
 30
0.0
 11
4924.8664536713486086
 21
3.4191481732598832
 31
0.0
  0
ARC
  5
40FEB
  8
0
 10
4924.8800088923389922
 20
3.4163062146544392
 30
0.0
 40
0.0138499366354074
 50
168.1589974401200891
 51
232.6385540841995976
  0
LINE
  5
40FEC
  8
0
 10
4924.8716041809457238
 20
3.4052979645117589
 30
0.0
 11
4924.9538043188877054
 21
3.3749864427966809
 31
0.0
  0
ARC
  5
40FED
  8
0
 10
4924.9578905368125561
 20
3.3860686264137021
 30
0.0
 40
0.0118113220729689
 50
249.7601209202682924
 51
341.7558754241828751
  0
LINE
  5
40FEE
  8
0
 10
4924.9691081183091228
 20
3.3823708981267639
 30
0.0
 11
4924.9910020445486225
 21
3.448789218462486
 31
0.0
  0
LINE
  5
40FEF
  8
0
 10
4925.2178760076403705
 20
3.317708747984641
 30
0.0
 11
4925.353212589128816
 21
3.26187704765454
 31
0.0
  0
LINE
  5
40FF0
  8
0
 10
4925.3095554359770176
 20
3.2798873525201149
 30
0.0
 11
4925.2978635935196507
 21
3.2446539001660728
 31
0.0
  0
ARC
  5
40FF1
  8
0
 10
4925.3100692967800569
 20
3.241574441865426
 30
0.0
 40
0.0126395598315314
 50
166.2180726803815105
 51
255.7989891554364874
  0
LINE
  5
40FF2
  8
0
 10
4925.3049268383456365
 20
3.230028291252232
 30
0.0
 11
4925.5958921293413368
 21
3.129248677945482
 31
0.0
  0
ARC
  5
40FF3
  8
0
 10
4925.6011460837562481
 20
3.1428325626893532
 30
0.0
 40
0.0145645446793361
 50
248.8546017808849911
 51
291.5874702689819742
  0
LINE
  5
40FF4
  8
0
 10
4925.482317859986324
 20
3.2316838827032051
 30
0.0
 11
4925.4676356062436753
 21
3.1857926755572201
 31
0.0
  0
ARC
  5
40FF5
  8
0
 10
4925.4782575653180174
 20
3.1812388332687438
 30
0.0
 40
0.0115569673434555
 50
156.7942365191433964
 51
227.7475699636918023
  0
LINE
  5
40FF6
  8
0
 10
4925.4241393150387012
 20
3.218024821411412
 30
0.0
 11
4925.4193501920190101
 21
3.2026994902660721
 31
0.0
  0
ARC
  5
40FF7
  8
0
 10
4925.4320696018758099
 20
3.1990399970675698
 30
0.0
 40
0.0132353797677127
 50
163.948977963577704
 51
229.5872319207616101
  0
LINE
  5
40FF8
  8
0
 10
4925.3531797236182683
 20
3.2498147855577679
 30
0.0
 11
4925.3462983592917226
 21
3.227927347264465
 31
0.0
  0
LINE
  5
40FF9
  8
0
 10
4925.4619191006177061
 20
3.2394832505495188
 30
0.0
 11
4925.5541576940577215
 21
3.2042162665694449
 31
0.0
  0
ARC
  5
40FFA
  8
0
 10
4925.3610348376632828
 20
2.4310982387605291
 30
0.0
 40
0.8011358127281155
 50
69.288029403501767
 51
76.7491121846384203
  0
ARC
  5
40FFB
  8
0
 10
4925.4788009908779713
 20
2.897144055445791
 30
0.0
 40
0.3205993519425521
 50
78.1442603388716037
 51
79.2532679373435656
  0
ARC
  5
40FFC
  8
0
 10
4925.5376521653142845
 20
3.2072186291443199
 30
0.0
 40
0.0049893045948908
 50
79.2532679373417324
 51
104.2435018543375946
  0
ARC
  5
40FFD
  8
0
 10
4925.5365733160197124
 20
3.2114686286692931
 30
0.0
 40
0.0006045113547757
 50
104.2435018540672047
 51
213.9082680201343862
  0
LINE
  5
40FFE
  8
0
 10
4925.5554241201216428
 20
3.208312464397566
 30
0.0
 11
4925.5418598767828371
 21
3.1644159531250708
 31
0.0
  0
ARC
  5
40FFF
  8
0
 10
4925.5544334335691019
 20
3.1615945454236809
 30
0.0
 40
0.0128862202249832
 50
167.3527687565216127
 51
254.1987096107397122
  0
LINE
  5
41000
  8
0
 10
4925.5509244910908819
 20
3.1491952714782898
 30
0.0
 11
4925.606504688737914
 21
3.1292896193481701
 31
0.0
  0
LINE
  5
41001
  8
0
 10
4925.606504688737914
 20
3.1292896193481412
 30
0.0
 11
4925.7197019826189717
 21
3.0925585006160778
 31
0.0
  0
ARC
  5
41002
  8
0
 10
4925.7243751767391586
 20
3.104343067269566
 30
0.0
 40
0.0126773323096574
 50
248.369096800040893
 51
340.7611445530750984
  0
LINE
  5
41003
  8
0
 10
4925.7363445197233887
 20
3.1001657974678509
 30
0.0
 11
4925.750012002902622
 21
3.1407869675202051
 31
0.0
  0
ARC
  5
41004
  8
0
 10
4924.8412933227427857
 20
0.8758676461123084
 30
0.0
 40
2.4405056083209709
 50
68.1981236085138107
 51
70.7881031012339577
  0
ARC
  5
41005
  8
0
 10
4925.6479423101245629
 20
2.9110941784100541
 30
0.0
 40
0.2513588277393317
 50
61.8844810374367427
 51
66.6189051427624577
  0
ARC
  5
41006
  8
0
 10
4925.7650712502709212
 20
3.1304514496710669
 30
0.0
 40
0.0026895485768206
 50
33.516433025877113
 51
60.5070988100980074
  0
LINE
  5
41007
  8
0
 10
4924.7451772659833296
 20
3.5225222975911339
 30
0.0
 11
4924.8791118662902591
 21
3.4614515174356439
 31
0.0
  0
ARC
  5
41008
  8
0
 10
4926.546724757928132
 20
3.4534096094775699
 30
0.0
 40
0.4760028772711133
 50
252.8125171506198114
 51
257.2736421624401828
  0
ARC
  5
41009
  8
0
 10
4926.4757640328352863
 20
3.1392060732711919
 30
0.0
 40
0.1538859937173968
 50
257.2736421624401828
 51
267.3669182052368001
  0
ARC
  5
4100A
  8
0
 10
4926.4694192054175801
 20
3.0012400301619899
 30
0.0
 40
0.0157741336685405
 50
267.3669182052368001
 51
294.9180424688976245
  0
ARC
  5
4100B
  8
0
 10
4926.46983824488143
 20
3.0003380307836331
 30
0.0
 40
0.0147795498609997
 50
294.9180424689449751
 51
338.73073071581058
  0
LINE
  5
4100C
  8
0
 10
4926.4836110993619513
 20
2.9949767274397008
 30
0.0
 11
4926.5013765028252237
 21
3.0491205519532749
 31
0.0
  0
ARC
  5
4100D
  8
0
 10
4926.6700933139545668
 20
3.7232195703875508
 30
0.0
 40
0.6927422900409544
 50
249.7654991238472917
 51
253.6002613253695017
  0
ARC
  5
4100E
  8
0
 10
4926.3823330176774107
 20
2.7564617674820462
 30
0.0
 40
0.3159438486253768
 50
67.8652062531858036
 51
73.0378436735989993
  0
ARC
  5
4100F
  8
0
 10
4926.4824148686202534
 20
3.000396987487699
 30
0.0
 40
0.0522831646512264
 50
51.7700565337510028
 51
68.7356230375862935
  0
ARC
  5
41010
  8
0
 10
4926.5101396896216102
 20
3.0358200679610499
 30
0.0
 40
0.0073018735138627
 50
22.4018585433871706
 51
50.658128358651112
  0
ARC
  5
41011
  8
0
 10
4926.5149745552944296
 20
3.0381020286387992
 30
0.0
 40
0.0019803277503879
 50
320.3869151454509847
 51
14.6480227090402906
  0
ARC
  5
41012
  8
0
 10
4926.5035566264368754
 20
3.0774919990635632
 30
0.0
 40
0.0426634566966164
 50
261.0437783266659153
 51
287.6611076038183228
  0
ARC
  5
41013
  8
0
 10
4926.3689972132397088
 20
2.8746515003127748
 30
0.0
 40
0.1399908709702603
 50
65.7924826462673025
 51
73.2966851027926367
  0
ARC
  5
41014
  8
0
 10
4926.4172158892470179
 20
2.981905883851562
 30
0.0
 40
0.0223960432619965
 50
55.6702371872723205
 51
65.7918515746771959
  0
ARC
  5
41015
  8
0
 10
4926.4266953803289653
 20
2.9957868035890511
 30
0.0
 40
0.0055870967181137
 50
42.9790683921412935
 51
55.6702371872622805
  0
ARC
  5
41016
  8
0
 10
4926.4302579841742045
 20
2.9991065529673291
 30
0.0
 40
0.0007175092511611
 50
348.6765310543744931
 51
42.9790683922950123
  0
ARC
  5
41017
  8
0
 10
4926.4304368511493522
 20
2.999243212832591
 30
0.0
 40
0.0005935600035988
 50
287.9065409635999231
 51
332.1221917099002781
  0
ARC
  5
41018
  8
0
 10
4926.4287046826402729
 20
3.0078423551554421
 30
0.0
 40
0.0093618336440673
 50
261.0145152242714062
 51
281.8013102705057236
  0
ARC
  5
41019
  8
0
 10
4926.4455164382143266
 20
3.120430418397798
 30
0.0
 40
0.1231978308978852
 50
252.0292049402461885
 51
261.4698436695214241
  0
ARC
  5
4101A
  8
0
 10
4926.2970818360026897
 20
2.6378500590651819
 30
0.0
 40
0.392543304724899
 50
66.4274635413726315
 51
73.1672423204702227
  0
ARC
  5
4101B
  8
0
 10
4926.4216517160366493
 20
2.9233521950454482
 30
0.0
 40
0.0810483213602212
 50
56.9667579745748327
 51
66.4274635413770653
  0
ARC
  5
4101C
  8
0
 10
4926.4614873314221768
 20
2.9846158184244538
 30
0.0
 40
0.0079722801257748
 50
21.0112998899361898
 51
56.9667579745128805
  0
ARC
  5
4101D
  8
0
 10
4926.4664791917375624
 20
2.9892832868966881
 30
0.0
 40
0.0030457541273204
 50
274.5975082113344001
 51
323.5629948451348241
  0
ARC
  5
4101E
  8
0
 10
4926.4631387858016751
 20
3.0003168177868771
 30
0.0
 40
0.0145189301584878
 50
271.6903481405262824
 51
284.293397379194289
  0
ARC
  5
4101F
  8
0
 10
4926.5509339674772491
 20
3.452086242905092
 30
0.0
 40
0.4760028772711133
 50
247.8202832399944953
 51
252.2814082518133034
  0
ARC
  5
41020
  8
0
 10
4926.4293306575973475
 20
3.1538046281570709
 30
0.0
 40
0.1538859937173968
 50
237.7270071972008907
 51
247.8202832399944953
  0
ARC
  5
41021
  8
0
 10
4926.3555852963136203
 20
3.0370291702246228
 30
0.0
 40
0.0157741336685405
 50
210.1758829334908114
 51
237.7270071972008907
  0
ARC
  5
41022
  8
0
 10
4926.3547254920822525
 20
3.0365292365972558
 30
0.0
 40
0.0147795498609997
 50
166.3631946866119904
 51
210.1758829334887082
  0
LINE
  5
41023
  8
0
 10
4926.3403625814125917
 20
3.040013758259529
 30
0.0
 11
4926.3567762037782813
 21
3.094582579888562
 31
0.0
  0
ARC
  5
41024
  8
0
 10
4926.5487328118088044
 20
3.5535836154295399
 30
0.0
 40
0.4946906685877219
 50
250.5822941844149057
 51
256.1721710567093737
  0
ARC
  5
41025
  8
0
 10
4926.2869337569682102
 20
2.786455093111039
 30
0.0
 40
0.3159438486253768
 50
72.0560817288044717
 51
77.2287191492203675
  0
ARC
  5
41026
  8
0
 10
4926.3444452504463698
 20
3.0437743433922391
 30
0.0
 40
0.0522831646512264
 50
76.3583023648662902
 51
93.32386886868413
  0
ARC
  5
41027
  8
0
 10
4926.3419786177837523
 20
3.08868955298919
 30
0.0
 40
0.0073018735138627
 50
94.435797043805934
 51
122.692066859061697
  0
ARC
  5
41028
  8
0
 10
4926.3393193997426351
 20
3.0933276377230881
 30
0.0
 40
0.0019803277503879
 50
130.4459026933816119
 51
184.7070102569797996
  0
ARC
  5
41029
  8
0
 10
4926.3712233768692386
 20
3.1190972926092919
 30
0.0
 40
0.0426634566966164
 50
217.4328177986400874
 51
244.0501470757658922
  0
ARC
  5
4102A
  8
0
 10
4926.3655023775527297
 20
2.8757502690904131
 30
0.0
 40
0.1399908711282217
 50
71.7972402847548494
 51
79.3014427540623785
  0
ARC
  5
4102B
  8
0
 10
4926.3873331439635876
 20
2.9913009557137071
 30
0.0
 40
0.0223960432619965
 50
79.3020738277727872
 51
89.423688215168383
  0
ARC
  5
4102C
  8
0
 10
4926.3875022145439289
 20
3.008109051948987
 30
0.0
 40
0.0055870967181137
 50
89.4236882152204942
 51
102.1148570102994029
  0
ARC
  5
4102D
  8
0
 10
4926.3864802240022982
 20
3.0128701880981859
 30
0.0
 40
0.0007175092511611
 50
102.1148570101395023
 51
156.4173943480572859
  0
ARC
  5
4102E
  8
0
 10
4926.3864117380289827
 20
3.0130846152069868
 30
0.0
 40
0.0005935600035988
 50
172.9717336925459108
 51
217.1873844388103976
  0
ARC
  5
4102F
  8
0
 10
4926.3927529856955516
 20
3.0191454925732959
 30
0.0
 40
0.0093618336440673
 50
223.2926151318966959
 51
244.0794101781432062
  0
ARC
  5
41030
  8
0
 10
4926.4433923980977852
 20
3.1210982121139299
 30
0.0
 40
0.1231978308978852
 50
243.62408173287659
 51
253.0647204621575952
  0
ARC
  5
41031
  8
0
 10
4926.2889739889351404
 20
2.6403991490208458
 30
0.0
 40
0.392543304724899
 50
71.9266830819157406
 51
78.6664618610617907
  0
ARC
  5
41032
  8
0
 10
4926.3501890186880701
 20
2.9458199158222791
 30
0.0
 40
0.0810483213602212
 50
78.6664618610617907
 51
88.1271674278747668
  0
ARC
  5
41033
  8
0
 10
4926.3525772368366233
 20
3.0188569216246561
 30
0.0
 40
0.0079722801257748
 50
88.1271674278747952
 51
124.082625512507903
  0
ARC
  5
41034
  8
0
 10
4926.3511543347276529
 20
3.0255411778248011
 30
0.0
 40
0.0030457541273204
 50
181.5309305573065899
 51
230.496417191107497
  0
ARC
  5
41035
  8
0
 10
4926.3602075208200404
 20
3.0326781896161159
 30
0.0
 40
0.0145189301584878
 50
220.8005280232216023
 51
233.4035772619043883
  0
ARC
  5
41036
  8
0
 10
4927.667523498893388
 20
5.9773718148876682
 30
0.0
 40
3.1910154819159571
 50
251.5756676267652097
 51
252.305306925332701
  0
ARC
  5
41037
  8
0
 10
4926.6509323581567514
 20
2.7432697720069901
 30
0.0
 40
0.1995944934806548
 50
67.2031414875121413
 51
76.4692651735043825
  0
ARC
  5
41038
  8
0
 10
4926.7245723446521879
 20
2.9155229683092121
 30
0.0
 40
0.0123174160695262
 50
40.6500267513631073
 51
72.5390945061173937
  0
ARC
  5
41039
  8
0
 10
4926.7328567569747975
 20
2.9226361250586379
 30
0.0
 40
0.0013982363158355
 50
316.4666169034261998
 51
40.6500267516773022
  0
ARC
  5
4103A
  8
0
 10
4926.7299074401516918
 20
2.9327126063517501
 30
0.0
 40
0.011729328046824
 50
270.3234300977712792
 51
289.7472213144810098
  0
ARC
  5
4103B
  8
0
 10
4926.731570116164221
 20
3.1886543037545971
 30
0.0
 40
0.2676755994166819
 50
265.2142986012784149
 51
269.6582756772859284
  0
ARC
  5
4103C
  8
0
 10
4926.5375135229123771
 20
2.5137400167905231
 30
0.0
 40
0.4527833048950263
 50
74.436675857742685
 51
81.5099736822012346
  0
ARC
  5
4103D
  8
0
 10
4926.5913114457262054
 20
2.8912603938270269
 30
0.0
 40
0.0715020705897464
 50
79.4840747571427215
 51
94.8210970820658758
  0
ARC
  5
4103E
  8
0
 10
4926.585735318702973
 20
2.954895790766872
 30
0.0
 40
0.0076260146396362
 50
93.2568277173013627
 51
119.6396307911889068
  0
ARC
  5
4103F
  8
0
 10
4926.5843486678741101
 20
2.9573328112342971
 30
0.0
 40
0.0048221121313219
 50
119.639630791195799
 51
138.4909410575492075
  0
ARC
  5
41040
  8
0
 10
4926.5827151929106549
 20
2.9593400284396432
 30
0.0
 40
0.0023072718272709
 50
148.9927830357545986
 51
174.1340215872716044
  0
ARC
  5
41041
  8
0
 10
4926.5815095600546556
 20
2.9598605024970959
 30
0.0
 40
0.0011261306639196
 50
194.6422498549029001
 51
227.0826877395763859
  0
ARC
  5
41042
  8
0
 10
4926.6523923442664454
 20
3.0817178693738492
 30
0.0
 40
0.1420723707693409
 50
239.7139284446446084
 51
248.7446522604730887
  0
LINE
  5
41043
  8
0
 10
4926.6046353514993825
 20
2.9615205225283918
 30
0.0
 11
4926.5893725393189015
 21
2.911478944166074
 31
0.0
  0
LINE
  5
41044
  8
0
 10
4926.7130513018200872
 20
2.932951607367924
 30
0.0
 11
4926.6951696463193002
 21
2.8811810218660749
 31
0.0
  0
ARC
  5
41045
  8
0
 10
4926.6832908613441759
 20
2.885477073071212
 30
0.0
 40
0.0126317690149604
 50
269.3413181634285252
 51
340.1170980854637946
  0
ARC
  5
41046
  8
0
 10
4926.6849378578517644
 20
2.9419473468470181
 30
0.0
 40
0.0691244455729172
 50
256.6256309543464909
 51
268.5143086553703142
  0
ARC
  5
41047
  8
0
 10
4926.7646594388188532
 20
3.3299141048898888
 30
0.0
 40
0.4651694922300547
 50
254.3392660020415974
 51
258.1263010069242796
  0
ARC
  5
41048
  8
0
 10
4926.7723603353460931
 20
3.367170505271547
 30
0.0
 40
0.503128543753607
 50
251.3621947925994959
 51
254.6401357552391005
  0
ARC
  5
41049
  8
0
 10
4926.6495564281267434
 20
3.006809449745496
 30
0.0
 40
0.122425257586611
 50
244.7029286696864006
 51
251.922851417394412
  0
ARC
  5
4104A
  8
0
 10
4926.6032807136971314
 20
2.9096467774732022
 30
0.0
 40
0.0148093501607624
 50
206.6608610716588998
 51
245.9384964378739085
  0
ARC
  5
4104B
  8
0
 10
4926.6012137877823989
 20
2.908154172806884
 30
0.0
 40
0.0122991572778711
 50
164.3163847748832893
 51
204.7670142789822023
  0
ARC
  5
4104C
  8
0
 10
4926.5638030441150477
 20
2.6010977822811912
 30
0.0
 40
0.2960478481578903
 50
73.0900697508179888
 51
75.2834316478989507
  0
ARC
  5
4104D
  8
0
 10
4926.6022321307564198
 20
2.7275040314116019
 30
0.0
 40
0.1639292101115726
 50
70.7843874986733113
 51
73.0900697508678832
  0
ARC
  5
4104E
  8
0
 10
4926.6403373435350659
 20
2.8368313672087351
 30
0.0
 40
0.0481515197156614
 50
65.8105566561444846
 51
70.7843874986733113
  0
ARC
  5
4104F
  8
0
 10
4926.6571579494811886
 20
2.8742773637847598
 30
0.0
 40
0.0071011184508354
 50
53.7386393320593214
 51
65.8105566560874991
  0
ARC
  5
41050
  8
0
 10
4926.6611655377910211
 20
2.8797407525440559
 30
0.0
 40
0.0003254722975166
 50
357.6549500851647281
 51
53.7386393325650218
  0
ARC
  5
41051
  8
0
 10
4926.6613132999873415
 20
2.8797900273411909
 30
0.0
 40
0.0001881538474914
 50
310.3631902824910185
 51
340.5693630546169857
  0
ARC
  5
41052
  8
0
 10
4926.6610907378017146
 20
2.8801875370351731
 30
0.0
 40
0.0006412236066324
 50
271.7111452349008118
 51
302.4880464793967008
  0
ARC
  5
41053
  8
0
 10
4926.6605581516487291
 20
2.8957010896024871
 30
0.0
 40
0.0161639093224561
 50
260.3092797242180154
 51
271.9560951257136026
  0
ARC
  5
41054
  8
0
 10
4926.6913821720299893
 20
3.0785534213592922
 30
0.0
 40
0.2015960611527888
 50
254.4849581884282941
 51
260.4216281188403173
  0
ARC
  5
41055
  8
0
 10
4926.6966033664803035
 20
3.1109259941538072
 30
0.0
 40
0.2342137179315194
 50
251.23884059993091
 51
255.3726220479304061
  0
ARC
  5
41056
  8
0
 10
4926.6362673157436802
 20
2.932834920003021
 30
0.0
 40
0.0461797888915376
 50
244.8725911151252035
 51
251.0550929388018062
  0
ARC
  5
41057
  8
0
 10
4926.6170657837938052
 20
2.8923495291790902
 30
0.0
 40
0.0013856122598902
 50
205.0467082433339101
 51
252.8790213223963974
  0
ARC
  5
41058
  8
0
 10
4926.6160321582838151
 20
2.8916889708264688
 30
0.0
 40
0.0002336965613697
 50
98.9753637887407933
 51
161.5525362772008862
  0
ARC
  5
41059
  8
0
 10
4926.6170129890097087
 20
2.8764072160375389
 30
0.0
 40
0.0155459101473967
 50
78.9892059288202546
 51
93.7519889498554875
  0
ARC
  5
4105A
  8
0
 10
4926.5827224060258231
 20
2.6793104801821568
 30
0.0
 40
0.2156004583445092
 50
74.8661291054627043
 51
80.048264211994649
  0
ARC
  5
4105B
  8
0
 10
4926.5373423648497919
 20
2.503794838404072
 30
0.0
 40
0.4095317894054626
 50
67.3089550004465593
 51
74.8665671274372357
  0
ARC
  5
4105C
  8
0
 10
4926.5219073938233123
 20
2.503515732078482
 30
0.0
 40
0.4140963152193135
 50
72.8146380577721857
 51
80.5995352200537951
  0
LINE
  5
4105D
  8
0
 10
4926.840763807199437
 20
2.8575560413151679
 30
0.0
 11
4926.8260263080483128
 21
2.8113997478611852
 31
0.0
  0
LINE
  5
4105E
  8
0
 10
4926.9489145958423251
 20
2.8333878792875562
 30
0.0
 11
4926.9321850984651974
 21
2.782405643964136
 31
0.0
  0
ARC
  5
4105F
  8
0
 10
4926.9185053873543438
 20
2.7875252285204049
 30
0.0
 40
0.0146063219902665
 50
317.454126258730696
 51
339.481811873487402
  0
ARC
  5
41060
  8
0
 10
4926.9200195530947894
 20
2.7872627487652828
 30
0.0
 40
0.0133391744862587
 50
273.8082199662404719
 51
313.8846955996783095
  0
ARC
  5
41061
  8
0
 10
4926.921775606087067
 20
2.854494988509896
 30
0.0
 40
0.080546660450082
 50
256.8967869999179925
 51
269.3810509610261761
  0
ARC
  5
41062
  8
0
 10
4927.0008071736074271
 20
3.2543219450526348
 30
0.0
 40
0.4880718031401406
 50
255.0091914011474898
 51
258.5016645206914063
  0
ARC
  5
41063
  8
0
 10
4926.9961467724224349
 20
3.2471944942626121
 30
0.0
 40
0.4799888006447148
 50
251.8656367469401971
 51
255.3264972615648105
  0
ARC
  5
41064
  8
0
 10
4926.875854407125189
 20
2.884103239588637
 30
0.0
 40
0.0975007498520388
 50
244.1292965208847079
 51
252.6334102364286878
  0
ARC
  5
41065
  8
0
 10
4926.8394429917243542
 20
2.8091493361458331
 30
0.0
 40
0.0141709434811737
 50
208.2989940591616005
 51
244.358874247782893
  0
ARC
  5
41066
  8
0
 10
4926.8380857494894371
 20
2.8081294412568072
 30
0.0
 40
0.012495000326272
 50
164.8273076917180902
 51
207.131577574989592
  0
ARC
  5
41067
  8
0
 10
4926.8007878692578743
 20
2.501124144521139
 30
0.0
 40
0.2960478481578903
 50
73.0900697508179888
 51
75.2834316478989507
  0
ARC
  5
41068
  8
0
 10
4926.8392169558983369
 20
2.6275303936515511
 30
0.0
 40
0.1639292101115726
 50
70.7843874986733113
 51
73.0900697508678832
  0
ARC
  5
41069
  8
0
 10
4926.877322168676983
 20
2.7368577294486842
 30
0.0
 40
0.0481515197156614
 50
65.8105566561444846
 51
70.7843874986733113
  0
ARC
  5
4106A
  8
0
 10
4926.8941427746240151
 20
2.774303726024709
 30
0.0
 40
0.0071011184508354
 50
53.7386393320593214
 51
65.8105566560874991
  0
ARC
  5
4106B
  8
0
 10
4926.8981503629338476
 20
2.779767114784033
 30
0.0
 40
0.0003254722975166
 50
357.6549500851647281
 51
53.7386393325650218
  0
ARC
  5
4106C
  8
0
 10
4926.8982981251310775
 20
2.7798163895811401
 30
0.0
 40
0.0001881538474914
 50
310.3631902824910185
 51
340.5693630546169857
  0
ARC
  5
4106D
  8
0
 10
4926.8980755629454507
 20
2.7802138992751511
 30
0.0
 40
0.0006412236066324
 50
271.7111452349008118
 51
302.4880464793967008
  0
ARC
  5
4106E
  8
0
 10
4926.8975429767915557
 20
2.7957274518424349
 30
0.0
 40
0.0161639093224561
 50
260.3092797242180154
 51
271.9560951257136026
  0
ARC
  5
4106F
  8
0
 10
4926.9283669971746349
 20
2.9785797835992409
 30
0.0
 40
0.2015960611527888
 50
254.4849581884282941
 51
260.4216281188403173
  0
ARC
  5
41070
  8
0
 10
4926.9335881916231301
 20
3.0109523563937839
 30
0.0
 40
0.2342137179315194
 50
251.23884059993091
 51
255.3726220479304061
  0
ARC
  5
41071
  8
0
 10
4926.8732521408883258
 20
2.832861282242999
 30
0.0
 40
0.0461797888915376
 50
244.8725911151252035
 51
251.0550929388018062
  0
ARC
  5
41072
  8
0
 10
4926.8540506089366318
 20
2.7923758914190668
 30
0.0
 40
0.0013856122598902
 50
205.0467082433339101
 51
252.8790213223963974
  0
ARC
  5
41073
  8
0
 10
4926.8530169834275512
 20
2.7917153330664459
 30
0.0
 40
0.0002336965613697
 50
98.9753637887407933
 51
161.5525362772008862
  0
ARC
  5
41074
  8
0
 10
4926.8539978141534448
 20
2.776433578277516
 30
0.0
 40
0.0155459101473967
 50
78.9892059288202546
 51
93.7519889498554875
  0
ARC
  5
41075
  8
0
 10
4926.8197072311677402
 20
2.579336842422105
 30
0.0
 40
0.2156004583445092
 50
74.8661291054627043
 51
80.048264211994649
  0
ARC
  5
41076
  8
0
 10
4926.7886754612318327
 20
2.441076050353626
 30
0.0
 40
0.3702908410270351
 50
67.1962658434392495
 51
75.8318082078261426
  0
ARC
  5
41077
  8
0
 10
4926.7755265986152153
 20
2.441868983902463
 30
0.0
 40
0.3729652054684831
 50
73.8425065374860594
 51
82.2181260875331645
  0
ARC
  5
41078
  8
0
 10
4927.1448048963784458
 20
2.5777810276504818
 30
0.0
 40
0.2506122316294366
 50
65.5468655963280611
 51
72.9500088667396227
  0
ARC
  5
41079
  8
0
 10
4927.2448496251236065
 20
2.7941635312803301
 30
0.0
 40
0.0123174160695262
 50
40.6500267513631073
 51
72.5390945061173937
  0
ARC
  5
4107A
  8
0
 10
4927.2531340374489446
 20
2.8012766880297559
 30
0.0
 40
0.0013982363158355
 50
316.4666169034261998
 51
40.6500267516773022
  0
ARC
  5
4107B
  8
0
 10
4927.25018472062402
 20
2.8113531693228682
 30
0.0
 40
0.011729328046824
 50
270.3234300977712792
 51
289.7472213144810098
  0
ARC
  5
4107C
  8
0
 10
4927.2518473966356396
 20
3.0672948667257138
 30
0.0
 40
0.2676755994166819
 50
265.2447681006510152
 51
269.6582756772859284
  0
LINE
  5
4107D
  8
0
 10
4927.0866830859176844
 20
2.8496443028645149
 30
0.0
 11
4927.0708665186193684
 21
2.7977984822660762
 31
0.0
  0
LINE
  5
4107E
  8
0
 10
4927.2334784315708021
 20
2.812181315190502
 30
0.0
 11
4927.2167335944695878
 21
2.761636586716111
 31
0.0
  0
ARC
  5
4107F
  8
0
 10
4927.2995587305740628
 20
3.4507600453155778
 30
0.0
 40
0.7059677105317109
 50
255.9574852754410017
 51
258.3577719284849081
  0
ARC
  5
41080
  8
0
 10
4927.2376276613777009
 20
3.2151340425774451
 30
0.0
 40
0.4623652432028859
 50
251.5991757744118047
 51
256.317793939157923
  0
ARC
  5
41081
  8
0
 10
4927.1183752356873811
 20
2.8583492333339819
 30
0.0
 40
0.0861804148083474
 50
242.0914603016395006
 51
251.9525865098090947
  0
ARC
  5
41082
  8
0
 10
4927.0856055911781368
 20
2.7960831882919841
 30
0.0
 40
0.0158190503730801
 50
209.2915771627174024
 51
241.417977596895895
  0
ARC
  5
41083
  8
0
 10
4927.0829383882755792
 20
2.794227617644756
 30
0.0
 40
0.0125889281185675
 50
163.5217585603035104
 51
207.8651519302497945
  0
ARC
  5
41084
  8
0
 10
4927.0985781177469107
 20
2.51630864358938
 30
0.0
 40
0.27229857942769
 50
64.283483710150108
 51
77.8652235222943148
  0
ARC
  5
41085
  8
0
 10
4926.9808647007894251
 20
2.1290432061338671
 30
0.0
 40
0.6764943503272006
 50
75.0119047973684445
 51
82.3114384221702267
  0
LINE
  5
41086
  8
0
 10
4926.5820384219814514
 20
2.8917819156659599
 30
0.0
 11
4926.5692239591826365
 21
2.8510546731390551
 31
0.0
  0
LINE
  5
41087
  8
0
 10
4926.690584441061219
 20
2.8645713676264819
 30
0.0
 11
4926.6756796888203098
 21
2.8199482660660729
 31
0.0
  0
ARC
  5
41088
  8
0
 10
4926.6640344691559221
 20
2.823957859065386
 30
0.0
 40
0.0123161673027495
 50
320.1360056432383772
 51
341.000781607939814
  0
ARC
  5
41089
  8
0
 10
4926.6642976832863496
 20
2.8239054312652758
 30
0.0
 40
0.0120812111055468
 50
260.0016971744738044
 51
319.5267195075659856
  0
ARC
  5
4108A
  8
0
 10
4926.7237607734414269
 20
3.1123009025672972
 30
0.0
 40
0.3065382813621409
 50
255.290584298256789
 51
258.4147801643424032
  0
ARC
  5
4108B
  8
0
 10
4928.039800687764
 20
7.8774371222570307
 30
0.0
 40
5.2500444052654389
 50
254.2779099854818128
 51
254.6034666140494096
  0
ARC
  5
4108C
  8
0
 10
4927.0332003775329213
 20
4.2942247326225971
 30
0.0
 40
1.528130736069875
 50
253.0939053689673983
 51
254.2026211928196062
  0
ARC
  5
4108D
  8
0
 10
4926.6371082389559888
 20
2.9970685224332709
 30
0.0
 40
0.1718579760374164
 50
249.1912738491099901
 51
253.6793200360343121
  0
ARC
  5
4108E
  8
0
 10
4926.5808466791440878
 20
2.8477062754184099
 30
0.0
 40
0.0122604890629866
 50
206.1266903490956111
 51
246.9983921797891071
  0
ARC
  5
4108F
  8
0
 10
4926.5805449837771448
 20
2.8474552706135872
 30
0.0
 40
0.0118794484890103
 50
162.3624766230329897
 51
205.6805298676356983
  0
ARC
  5
41090
  8
0
 10
4926.2579271638805949
 20
1.5630859036071589
 30
0.0
 40
1.3245474751114359
 50
71.614205401091354
 51
74.1748496866472635
  0
ARC
  5
41091
  8
0
 10
4926.2991814293172865
 20
1.7635181906581461
 30
0.0
 40
1.120561720149265
 50
73.4095067846698583
 51
76.055108033671047
  0
LINE
  5
41092
  8
0
 10
4927.1944353757307908
 20
2.7534925332785161
 30
0.0
 11
4927.1779516855185648
 21
2.7041329752660701
 31
0.0
  0
ARC
  5
41093
  8
0
 10
4927.166339609669194
 20
2.7082057710056331
 30
0.0
 40
0.012305607285277
 50
256.4045841132482906
 51
340.6722949934018061
  0
ARC
  5
41094
  8
0
 10
4927.3630143892642081
 20
3.7212545580791141
 30
0.0
 40
1.0442565777498729
 50
254.0927906934566067
 51
258.9824575223174179
  0
ARC
  5
41095
  8
0
 10
4927.0808930944313033
 20
2.7281098107971129
 30
0.0
 40
0.0118486716704183
 50
161.3127587810207899
 51
249.6145283638813055
  0
LINE
  5
41096
  8
0
 10
4927.0696690651902827
 20
2.7319061495524211
 30
0.0
 11
4927.0854924981231306
 21
2.7786887696974678
 31
0.0
  0
LINE
  5
41097
  8
0
 10
4926.9382474574604203
 20
2.7954623038867661
 30
0.0
 11
4926.9234197696196134
 21
2.7510587355660738
 31
0.0
  0
ARC
  5
41098
  8
0
 10
4926.9122166094120985
 20
2.7547996788800959
 30
0.0
 40
0.0118112427577382
 50
254.5353180123175889
 51
341.534877684189496
  0
LINE
  5
41099
  8
0
 10
4926.9090672085194456
 20
2.7434160621660788
 30
0.0
 11
4926.8231347853015905
 21
2.767302181255987
 31
0.0
  0
ARC
  5
4109A
  8
0
 10
4926.8277607636346147
 20
2.7781539555194659
 30
0.0
 40
0.0117966385125587
 50
162.4734610585603889
 51
246.9120428686557887
  0
LINE
  5
4109B
  8
0
 10
4926.816511753820123
 20
2.7817064839660741
 30
0.0
 11
4926.8287206409931969
 21
2.8205090709429852
 31
0.0
  0
LINE
  5
4109C
  8
0
 10
4926.4844937845637105
 20
2.9073296455674029
 30
0.0
 11
4926.470138796818901
 21
2.864533950066654
 31
0.0
  0
ARC
  5
4109D
  8
0
 10
4926.4582542004263814
 20
2.8695611009277808
 30
0.0
 40
0.0129041031150798
 50
249.6599495342460955
 51
337.0717745437125927
  0
ARC
  5
4109E
  8
0
 10
4926.1649346589192646
 20
2.9602340505557558
 30
0.0
 40
0.0149014076068303
 50
215.6492974812171894
 51
253.5108527844504067
  0
LINE
  5
4109F
  8
0
 10
4926.3132987557646629
 20
2.962662427365875
 30
0.0
 11
4926.2982859124158495
 21
2.917114340979114
 31
0.0
  0
ARC
  5
410A0
  8
0
 10
4926.2806698773692915
 20
2.9226370815923439
 30
0.0
 40
0.0184614559188931
 50
319.8967123323641886
 51
342.5934554500277045
  0
LINE
  5
410A1
  8
0
 10
4926.3531332356324128
 20
2.9196650934250559
 30
0.0
 11
4926.346986368819671
 21
2.901322707466055
 31
0.0
  0
ARC
  5
410A2
  8
0
 10
4926.3351277558040238
 20
2.9062616393539442
 30
0.0
 40
0.0128460013559116
 50
249.2464579227265915
 51
337.3890151185145783
  0
LINE
  5
410A3
  8
0
 10
4926.4284074991137459
 20
2.9014538894517181
 30
0.0
 11
4926.4211194822491962
 21
2.8794005499413129
 31
0.0
  0
ARC
  5
410A4
  8
0
 10
4926.4106144484821925
 20
2.8807934050334461
 30
0.0
 40
0.0105969703111999
 50
274.3013711928738871
 51
352.4472459501698722
  0
LINE
  5
410A5
  8
0
 10
4926.2400296162268205
 20
2.9862338977367542
 30
0.0
 11
4926.2253645525233878
 21
2.9435206872616551
 31
0.0
  0
ARC
  5
410A6
  8
0
 10
4926.2134385870331243
 20
2.9484018775681191
 30
0.0
 40
0.0128862202249832
 50
250.8952155208847898
 51
337.741156375096125
  0
LINE
  5
410A7
  8
0
 10
4926.2092209683150941
 20
2.9362254099341261
 30
0.0
 11
4926.152249469236267
 21
2.9517057733015291
 31
0.0
  0
LINE
  5
410A8
  8
0
 10
4926.152249469236267
 20
2.9517057733015291
 30
0.0
 11
4926.0390809311029443
 21
2.988998738650452
 31
0.0
  0
ARC
  5
410A9
  8
0
 10
4929.64741145541484
 20
2.7499906659428981
 30
0.0
 40
1.567283926539619
 50
154.4392320130064036
 51
188.0229298481575029
  0
ARC
  5
410AA
  8
0
 10
4932.2746803874488251
 20
-0.4137866611323818
 30
0.0
 40
0.0196044526638237
 50
315.5604736378830921
 51
45.0937446340287877
  0
LINE
  5
410AB
  8
0
 10
4927.0196815945018898
 20
2.6216728077379621
 30
0.0
 11
4927.4802793188837313
 21
2.635317132273006
 31
0.0
  0
LINE
  5
410AC
  8
0
 10
4932.8507815451202987
 20
-1.5798419994284281
 30
0.0
 11
4932.8507815451202987
 21
-1.619121389533926
 31
0.0
  0
LINE
  5
410AD
  8
0
 10
4932.0257815451195711
 20
-1.5797513108339261
 30
0.0
 11
4932.0257815451195711
 21
-1.619121389533926
 31
0.0
  0
LINE
  5
410AE
  8
0
 10
4932.891037450620388
 20
-1.619121389533926
 30
0.0
 11
4931.9855256396185723
 21
-1.619121389533926
 31
0.0
  0
LINE
  5
410AF
  8
0
 10
4931.9855256396185723
 20
-1.619121389533926
 30
0.0
 11
4932.0040953252191684
 21
-1.9734520982339261
 31
0.0
  0
LINE
  5
410B0
  8
0
 10
4932.891037450620388
 20
-1.619121389533926
 30
0.0
 11
4932.8724677651180173
 21
-1.9734520982339261
 31
0.0
  0
ARC
  5
410B7
  8
0
 10
4924.9324064889106012
 20
2.9968567601421281
 30
0.0
 40
0.4171040904999919
 50
63.5810733014495213
 51
66.2177445233917581
  0
ARC
  5
410B8
  8
0
 10
4925.1013575284123363
 20
3.378363073131919
 30
0.0
 40
0.0007699928345709
 50
92.0100740307748168
 51
166.5408273984843106
  0
ARC
  5
410B9
  8
0
 10
4925.1018784943425999
 20
3.3635645123707532
 30
0.0
 40
0.0155777207487338
 50
71.2237492263585494
 51
92.0158952281105229
  0
ARC
  5
410BA
  8
0
 10
4925.0680765173019608
 20
3.245928154956002
 30
0.0
 40
0.1379582986101177
 50
68.2926276550451945
 51
73.6585738881670409
  0
ARC
  5
410BB
  8
0
 10
4924.7001419799744326
 20
2.1758991748449432
 30
0.0
 40
1.2693387167672729
 50
65.6789374317086754
 51
70.7274523168805445
  0
ARC
  5
410BC
  8
0
 10
4925.1941825705853262
 20
3.2588324186302771
 30
0.0
 40
0.0791543717596188
 50
55.7814440873226189
 51
68.7133306748794297
  0
ARC
  5
410BD
  8
0
 10
4925.2382566303112981
 20
3.3235605531410992
 30
0.0
 40
0.0008468614570212
 50
337.0651458142647243
 51
58.8158373304218003
  0
ARC
  5
410BE
  8
0
 10
4925.0993984864726372
 20
2.9343596954671209
 30
0.0
 40
0.4131819514217502
 50
70.247499578759971
 51
72.7810035954473449
  0
ARC
  5
410BF
  8
0
 10
4925.353123096915624
 20
3.3052528687786271
 30
0.0
 40
0.0067810498839736
 50
75.2238826317092162
 51
128.658688630246786
  0
ARC
  5
410C0
  8
0
 10
4925.2835775989005924
 20
2.9178016825049791
 30
0.0
 40
0.4004028119437042
 50
78.2790498411885096
 51
79.746239584125604
  0
ARC
  5
410C1
  8
0
 10
4925.4142680333643511
 20
3.463234356899398
 30
0.0
 40
0.1611227247926795
 50
252.1641379787031099
 51
258.8752593230482262
  0
ARC
  5
410C2
  8
0
 10
4926.0425236844457686
 20
3.0013184118066221
 30
0.0
 40
0.0127916729655384
 50
167.1499164972406959
 51
254.3868902016201048
  0
LINE
  5
410C3
  8
0
 10
4926.0300523748192063
 20
3.0041632902660731
 30
0.0
 11
4926.0429093343191198
 21
3.0452210752660731
 31
0.0
  0
ARC
  5
410C4
  8
0
 10
4927.6707313582619463
 20
7.602851425883375
 30
0.0
 40
4.8956053892280469
 50
252.0344410898156013
 51
254.1126634728821898
  0
ARC
  5
410C5
  8
0
 10
4926.2830371961836136
 20
2.9226254650123771
 30
0.0
 40
0.016712155499523
 50
286.7282586912501756
 51
314.6918969278336817
  0
ARC
  5
410C6
  8
0
 10
4925.6085447839659537
 20
3.254804697135163
 30
0.0
 40
0.0074390622867003
 50
83.9705198152814489
 51
121.9978154620969946
  0
ARC
  5
410C7
  8
0
 10
4925.6054615834182187
 20
3.2597392680778339
 30
0.0
 40
0.0016204614230315
 50
121.997815462092305
 51
191.7519494850535011
  0
ARC
  5
410C8
  8
0
 10
4925.6669495042842755
 20
3.342331673755619
 30
0.0
 40
0.1041850041487715
 50
232.7418068099568131
 51
242.5350985815807974
  0
ARC
  5
410C9
  8
0
 10
4925.7343405758929293
 20
3.2087863744651299
 30
0.0
 40
0.0100017022375103
 50
20.7274122563241612
 51
63.9161525061952105
  0
ARC
  5
410CA
  8
0
 10
4925.7414579858314028
 20
3.2119869093047448
 30
0.0
 40
0.0022625152503555
 50
335.239344595715977
 51
8.6247199248604272
  0
ARC
  5
410CB
  8
0
 10
4925.7418372658366934
 20
3.213329341476721
 30
0.0
 40
0.0028373713751734
 50
264.3317943609545182
 51
306.1865875501526943
  0
ARC
  5
410CC
  8
0
 10
4925.7474402381312757
 20
3.3271115538422902
 30
0.0
 40
0.1167540316706278
 50
258.5269020249698997
 51
267.1116538143256776
  0
ARC
  5
410CD
  8
0
 10
4925.6182792832687483
 20
3.207113720143894
 30
0.0
 40
0.0123190932446416
 50
162.7447811597876921
 51
220.2434222322127937
  0
ARC
  5
410CE
  8
0
 10
4925.6232027920186738
 20
3.2112808077380262
 30
0.0
 40
0.0187693302502734
 50
220.2434222322129074
 51
243.1813857799764946
  0
ARC
  5
410CF
  8
0
 10
4925.731266875502115
 20
3.4250387447928552
 30
0.0
 40
0.2582903142849691
 50
243.1813857799764946
 51
252.4061244563276887
  0
ARC
  5
410D0
  8
0
 10
4925.8084593802759628
 20
3.627867392772214
 30
0.0
 40
0.47512260860323
 50
250.9259323111257913
 51
253.9267468526375069
  0
ARC
  5
410D1
  8
0
 10
4925.7169242404479519
 20
3.3023710137543012
 30
0.0
 40
0.1370244488598521
 50
253.0226753694633999
 51
261.4838048209433055
  0
ARC
  5
410D2
  8
0
 10
4925.6990261028504392
 20
3.1811603491234739
 30
0.0
 40
0.0145018718155884
 50
260.4993139674401164
 51
308.6976440231214838
  0
ARC
  5
410D3
  8
0
 10
4925.6997639887740661
 20
3.179336728535934
 30
0.0
 40
0.0126298927567922
 50
311.2582706465130968
 51
340.8929517899983921
  0
LINE
  5
410D4
  8
0
 10
4925.7116957777188873
 20
3.175203588166073
 30
0.0
 11
4925.7280368255633221
 21
3.2241295014163791
 31
0.0
  0
ARC
  5
410D5
  8
0
 10
4925.3579271025491835
 20
3.2226682109191729
 30
0.0
 40
0.0127626872103395
 50
155.6649865624607969
 51
215.7639489043212961
  0
ARC
  5
410D6
  8
0
 10
4924.9327181970620586
 20
4.1173180873315358
 30
0.0
 40
0.6096170053926697
 50
242.6131879821149937
 51
251.8090378601366126
  0
ARC
  5
410D7
  8
0
 10
4924.630949434383183
 20
3.5962610333947369
 30
0.0
 40
0.0588615147349689
 50
72.1371783942523166
 51
88.0884513395313888
  0
ARC
  5
410D8
  8
0
 10
4924.6330449060842511
 20
3.6498330629198001
 30
0.0
 40
0.0052583878280265
 50
91.4389778281270935
 51
126.1489941604193064
  0
ARC
  5
410D9
  8
0
 10
4924.6312545346518164
 20
3.652393785265176
 30
0.0
 40
0.0021355085663961
 50
127.8888553401295951
 51
175.0907512653301978
  0
ARC
  5
410DA
  8
0
 10
4924.4588739535947752
 20
3.0226221850002908
 30
0.0
 40
0.6577423280552405
 50
65.6621433724261436
 51
73.1979835290188561
  0
ARC
  5
410DB
  8
0
 10
4924.8730553894429249
 20
3.5020049044685191
 30
0.0
 40
0.0019733882165439
 50
84.6152734796521884
 51
158.0584533549989885
  0
ARC
  5
410DC
  8
0
 10
4924.9739425274246969
 20
3.4089098934679081
 30
0.0
 40
0.0506804216022563
 50
50.2584916436963098
 51
67.3792540331284187
  0
ARC
  5
410DD
  8
0
 10
4925.0037769346554342
 20
3.4446810903167142
 30
0.0
 40
0.004101376149329
 50
356.5077449797589111
 51
51.2552285876986176
  0
ARC
  5
410DE
  8
0
 10
4925.0574049045580978
 20
3.6709930771730219
 30
0.0
 40
0.2319135499347456
 50
253.2552862381309922
 51
257.6672330701383089
  0
ARC
  5
410DF
  8
0
 10
4924.2792536915749224
 20
4.0693213726092479
 30
0.0
 40
0.2893077244970039
 50
241.6999435476332962
 51
245.5518302741658943
  0
ARC
  5
410E0
  8
0
 10
4924.1423737781960881
 20
3.815108386272108
 30
0.0
 40
0.0005857940704907
 50
204.6633962703621137
 51
241.6999435476919871
  0
ARC
  5
410E1
  8
0
 10
4924.1419754364460459
 20
3.8146793784772841
 30
0.0
 40
0.0002280862492928
 50
80.702490486009026
 51
125.9836981991994946
  0
ARC
  5
410E2
  8
0
 10
4924.14009664571131
 20
3.8046244738613662
 30
0.0
 40
0.0104569577020036
 50
70.5131799952376923
 51
79.4442064057017916
  0
ARC
  5
410E3
  8
0
 10
4924.0358657012311596
 20
3.5209012452378299
 30
0.0
 40
0.3127193001917239
 50
66.5785482415939924
 51
69.8511661109112225
  0
ARC
  5
410E4
  8
0
 10
4924.7030162014061716
 20
4.77587140512132
 30
0.0
 40
1.16812322154574
 50
244.7605830613767068
 51
248.1803697163047957
  0
ARC
  5
410E5
  8
0
 10
4924.1980199751897089
 20
3.5792585787439282
 30
0.0
 40
0.1949092310683495
 50
53.8753594796205277
 51
66.7953088720546617
  0
ARC
  5
410E6
  8
0
 10
4924.2473086409527241
 20
3.6117767622285881
 30
0.0
 40
0.1398832065505367
 50
62.6098228460602897
 51
68.6837769836258474
  0
ARC
  5
410E7
  8
0
 10
4924.3180254063363464
 20
3.7484699694850239
 30
0.0
 40
0.0140193160999888
 50
243.0036703659260979
 51
249.752321984643288
  0
ARC
  5
410E8
  8
0
 10
4924.3118927629429891
 20
3.735798466415015
 30
0.0
 40
0.0013683635367942
 50
339.3978893537880026
 51
40.8708395535252365
  0
LINE
  5
410E9
  8
0
 10
4925.7989234221140578
 20
3.1257227231962492
 30
0.0
 11
4925.7851444745192566
 21
3.081722617166073
 31
0.0
  0
ARC
  5
410EA
  8
0
 10
4925.7976278911137342
 20
3.0788441025193678
 30
0.0
 40
0.0128109927973952
 50
167.0152921009714078
 51
253.3941187909786947
  0
ARC
  5
410EB
  8
0
 10
4926.2544183155687278
 20
4.2686012821949104
 30
0.0
 40
1.2872067153383751
 50
249.040139664325693
 51
252.8680776708822862
  0
ARC
  5
410EC
  8
0
 10
4926.3022322182996504
 20
4.28033451549961
 30
0.0
 40
1.313183406337088
 50
251.0249493288127951
 51
255.0464538440510012
  0
ARC
  5
410ED
  8
0
 10
4925.96812517413764
 20
3.0236000347938128
 30
0.0
 40
0.0128826552827182
 50
248.4053415180858053
 51
336.5435637998231755
  0
LINE
  5
410EE
  8
0
 10
4925.9799432453191912
 20
3.018472072166074
 30
0.0
 11
4925.9950632401269104
 21
3.063553523889301
 31
0.0
  0
LINE
  5
410EF
  8
0
 10
4925.8513405257190243
 20
3.1349100116660731
 30
0.0
 11
4925.8372370685192436
 21
3.090086055566073
 31
0.0
  0
ARC
  5
410F0
  8
0
 10
4925.8489105163580462
 20
3.0864131095279448
 30
0.0
 40
0.0122376434432383
 50
162.5342837540177925
 51
250.5631585804437975
  0
ARC
  5
410F1
  8
0
 10
4926.0220246153194239
 20
3.500726937670672
 30
0.0
 40
0.4612447023908619
 50
247.4091212613132882
 51
252.5560346965650069
  0
ARC
  5
410F2
  8
0
 10
4926.0370358052514348
 20
3.511906598730187
 30
0.0
 40
0.4765364365737581
 50
251.2370167775729897
 51
256.8349743953656912
  0
ARC
  5
410F3
  8
0
 10
4925.931009239049672
 20
3.060037321343402
 30
0.0
 40
0.0123991226450098
 50
258.3314367465503096
 51
340.4613023895856259
  0
LINE
  5
410F4
  8
0
 10
4925.9426941962192359
 20
3.0558913071660729
 30
0.0
 11
4925.9575113027021871
 21
3.1002618814163432
 31
0.0
  0
ARC
  5
410F5
  8
0
 10
4925.6317555161112978
 20
2.2820537586827321
 30
0.0
 40
0.8806709741427432
 50
68.2908584274173478
 51
75.5616399390440563
  0
ARC
  5
410F6
  8
0
 10
4925.8363254655923811
 20
3.0917916321531229
 30
0.0
 40
0.0456579312109227
 50
70.8004127351716619
 51
93.5206682360636847
  0
ARC
  5
410F7
  8
0
 10
4925.9346541537906887
 20
3.3222489398086732
 30
0.0
 40
0.2127424206685681
 50
241.4086442736420963
 51
246.2554462852444885
  0
ARC
  5
410F8
  8
0
 10
4925.8335057488693565
 20
3.1362921390871392
 30
0.0
 40
0.001071372987939
 50
89.1481857325727987
 51
231.8726325357870053
  0
ARC
  5
410F9
  8
0
 10
4925.9981406251772569
 20
3.2878445660360152
 30
0.0
 40
0.1994109062396681
 50
257.5516707117325836
 51
262.7949385684834738
  0
ARC
  5
410FA
  8
0
 10
4925.9342126552546688
 20
3.0369263523196479
 30
0.0
 40
0.06748493332512
 50
54.6672453747340299
 51
69.8034181909391833
  0
ARC
  5
410FB
  8
0
 10
4925.9723554340662304
 20
3.0910411536264011
 30
0.0
 40
0.0012912369929093
 50
306.8786917530367191
 51
46.7103454398532634
  0
ARC
  5
410FC
  8
0
 10
4984.4716000619619081
 20
184.1430742530768043
 30
0.0
 40
190.2928122061352099
 50
252.0256525699446968
 51
252.0410844210146877
  0
ARC
  5
410FD
  8
0
 10
4925.713485007442614
 20
2.549170740169882
 30
0.0
 40
0.5828481035682223
 50
76.8934113633051055
 51
83.3317883603151159
  0
ARC
  5
410FE
  8
0
 10
4925.7809609425639792
 20
3.1259893233241178
 30
0.0
 40
0.0020966537819946
 50
84.410645824015532
 51
130.0837354712099057
  0
ARC
  5
410FF
  8
0
 10
4925.767045694035005
 20
3.1317795321931432
 30
0.0
 40
0.0003105317416784
 50
322.0321705188271721
 51
30.3748398128271404
  0
ARC
  5
41100
  8
0
 10
4925.6300675444190347
 20
3.150360827423091
 30
0.0
 40
0.0394930492418208
 50
72.7535387662614994
 51
84.3953654855121442
  0
ARC
  5
41101
  8
0
 10
4924.5562715530040805
 20
-0.3085817538117639
 30
0.0
 40
3.6612773624583932
 50
72.4920083797511552
 51
72.7535387662614852
  0
ARC
  5
41102
  8
0
 10
4925.5973413739538955
 20
3.005864166357707
 30
0.0
 40
0.1872276731202545
 50
65.8843368921503441
 51
71.1846478406985739
  0
ARC
  5
41103
  8
0
 10
4925.6609832987705886
 20
3.1497053954549261
 30
0.0
 40
0.0299455227668585
 50
56.3795390745451783
 51
64.5769763530669678
  0
ARC
  5
41104
  8
0
 10
4925.6771856180766918
 20
3.1740729629994471
 30
0.0
 40
0.0006830297267342
 50
14.8787655009339002
 51
56.3795390746016594
  0
ARC
  5
41105
  8
0
 10
4925.6777018668872188
 20
3.1742101213334641
 30
0.0
 40
0.0001488712832565
 50
304.0813608247908064
 51
14.8787655013364208
  0
ARC
  5
41106
  8
0
 10
4925.6770556844167004
 20
3.1757893064435749
 30
0.0
 40
0.0018522378035277
 50
262.234423439927923
 51
293.1976883425675737
  0
ARC
  5
41107
  8
0
 10
4925.6838029067957905
 20
3.2270898155670231
 30
0.0
 40
0.0535945333455759
 50
253.556011387275106
 51
262.4978359277662889
  0
ARC
  5
41108
  8
0
 10
4925.7376976920340894
 20
3.422378363929846
 30
0.0
 40
0.2561767789478568
 50
249.9522667310776001
 51
254.3593128182199052
  0
ARC
  5
41109
  8
0
 10
4925.6924874949963851
 20
3.3043996787062242
 30
0.0
 40
0.1298643739862892
 50
243.5993421407897017
 51
250.8467674651485027
  0
ARC
  5
4110A
  8
0
 10
4925.6383148486711434
 20
3.1948095468283202
 30
0.0
 40
0.00761892631179
 50
229.2372716149006919
 51
242.0503313553732028
  0
ARC
  5
4110B
  8
0
 10
4925.6338163301716122
 20
3.1895805335964891
 30
0.0
 40
0.0007211915496319
 50
198.5970696093388881
 51
228.6889555431291967
  0
ARC
  5
4110C
  8
0
 10
4925.6333357564017206
 20
3.1893843571712162
 30
0.0
 40
0.0002057589377429
 50
102.2695532726609997
 51
189.4602933778942031
  0
ARC
  5
4110D
  8
0
 10
4925.6338392743718941
 20
3.1877912909152171
 30
0.0
 40
0.0018757297025101
 50
87.3936752021034948
 51
106.9627518162589013
  0
LINE
  5
4110E
  8
0
 10
4925.993302029401093
 20
3.0583023358218289
 30
0.0
 11
4926.0420552732675787
 21
3.0424936920928971
 31
0.0
  0
ARC
  5
4110F
  8
0
 10
4925.8210631214260502
 20
2.7464674777293321
 30
0.0
 40
0.361878768488309
 50
58.6576852403513271
 51
68.7043202307607288
  0
ARC
  5
41110
  8
0
 10
4926.0072078162629623
 20
3.0514325173129628
 30
0.0
 40
0.0046062309067418
 50
11.21220221077213
 51
63.0646592512020021
  0
ARC
  5
41111
  8
0
 10
4925.8385904970018601
 20
2.9493019341158822
 30
0.0
 40
0.1226616811586281
 50
72.9285907434141336
 51
77.4835788032605564
  0
ARC
  5
41112
  8
0
 10
4925.2488984373130734
 20
1.0290689969945681
 30
0.0
 40
2.1314004043543942
 50
72.588940650330855
 51
72.9285907434141336
  0
ARC
  5
41113
  8
0
 10
4925.8051523086705856
 20
2.8028773406088341
 30
0.0
 40
0.2724183148019013
 50
70.1981080940211513
 51
72.5889406503308408
  0
ARC
  5
41114
  8
0
 10
4925.7845476417151076
 20
2.7456516053623941
 30
0.0
 40
0.3332404906496572
 50
68.4392030142931844
 51
70.1981080940211086
  0
ARC
  5
41115
  8
0
 10
4925.9030540419016688
 20
3.0455639829098171
 30
0.0
 40
0.0107638231351631
 50
59.5327311037242097
 51
68.4392030142919907
  0
ARC
  5
41116
  8
0
 10
4925.9077895771160911
 20
3.0536138385231149
 30
0.0
 40
0.0014243654875273
 50
45.0849020160954623
 51
59.5327311037240321
  0
ARC
  5
41117
  8
0
 10
4925.9087388134112189
 20
3.0545658921900571
 30
0.0
 40
0.0000799489857631
 50
338.2496574258731812
 51
45.0849020171262111
  0
ARC
  5
41118
  8
0
 10
4925.908773156591451
 20
3.0545521904123358
 30
0.0
 40
0.0000429734160012
 50
276.5935291050093952
 51
338.249657422210305
  0
ARC
  5
41119
  8
0
 10
4925.9085797799098145
 20
3.0598023442406519
 30
0.0
 40
0.0052965568428361
 50
255.9644904188581904
 51
272.1457422072242025
  0
ARC
  5
4111A
  8
0
 10
4925.9342672039101672
 20
3.1739601562769271
 30
0.0
 40
0.1223073195500407
 50
253.3738240729641973
 51
257.2600620024049931
  0
ARC
  5
4111B
  8
0
 10
4926.0365901274881253
 20
3.5250711132019799
 30
0.0
 40
0.4880222640609705
 50
250.3444496348633095
 51
253.6575937190208947
  0
ARC
  5
4111C
  8
0
 10
4925.9016541160235647
 20
3.15003310752506
 30
0.0
 40
0.089454107560714
 50
245.3744296414494102
 51
250.9362589367889029
  0
ARC
  5
4111D
  8
0
 10
4925.8646766266274426
 20
3.069598166304913
 30
0.0
 40
0.0009318760015291
 50
211.0357149430899995
 51
251.4258277786541953
  0
ARC
  5
4111E
  8
0
 10
4925.8643657899865502
 20
3.0660892182122388
 30
0.0
 40
0.0030675062497168
 50
74.7301561174934221
 51
99.1470445135349934
  0
LINE
  5
4111F
  8
0
 10
4926.1098016119203749
 20
3.1005383188660738
 30
0.0
 11
4926.0942935809189294
 21
3.0511426683660741
 31
0.0
  0
ARC
  5
41120
  8
0
 10
4926.1064917879648419
 20
3.047312975445986
 30
0.0
 40
0.0127852572513147
 50
162.5700377041493141
 51
248.5969022024756043
  0
ARC
  5
41121
  8
0
 10
4926.2178039156233353
 20
3.2828142584688011
 30
0.0
 40
0.2732398176385151
 50
244.8838728958978095
 51
253.8650560988160976
  0
ARC
  5
41122
  8
0
 10
4926.2345770587144216
 20
3.3052553078692219
 30
0.0
 40
0.2996209876161382
 50
251.9761382975030983
 51
260.3506812064380256
  0
ARC
  5
41123
  8
0
 10
4926.1875892126408871
 20
3.0231497381822678
 30
0.0
 40
0.0136645893026275
 50
256.310570778010117
 51
338.8373082985041265
  0
LINE
  5
41124
  8
0
 10
4926.2003322494192616
 20
3.018216583566073
 30
0.0
 11
4926.2171777480070887
 21
3.0686611095304031
 31
0.0
  0
ARC
  5
41125
  8
0
 10
4926.0352697522275776
 20
2.6526999110570868
 30
0.0
 40
0.4539980590464305
 50
66.3792971858518968
 51
80.5511066663096642
  0
ARC
  5
41126
  8
0
 10
4926.0992875585534421
 20
3.071025740293809
 30
0.0
 40
0.0313295006691937
 50
70.3912189140219624
 51
99.0604928127079205
  0
ARC
  5
41127
  8
0
 10
4926.0950914388376987
 20
3.097339160566428
 30
0.0
 40
0.0046836096708433
 50
99.0604928127081337
 51
165.7886133986235961
  0
ARC
  5
41128
  8
0
 10
4926.9588161662795756
 20
4.7009345168813619
 30
0.0
 40
1.822557486400761
 50
241.5495063933474
 51
242.1175441285436136
  0
ARC
  5
41129
  8
0
 10
4926.2148655410910578
 20
3.0500700784633539
 30
0.0
 40
0.0187342659799447
 50
19.9115690381592003
 51
82.9104000472512439
  0
ARC
  5
4112A
  8
0
 10
4926.2332167910335556
 20
3.202350262184638
 30
0.0
 40
0.1459017269976625
 50
262.2510678536161208
 51
269.7106054873131029
  0
ARC
  5
4112B
  8
0
 10
4926.1030140103148369
 20
2.908006980987127
 30
0.0
 40
0.1242503022654111
 50
71.2084199962484234
 51
80.5767252072824931
  0
ARC
  5
4112C
  8
0
 10
4926.365357664099065
 20
3.679007781413016
 30
0.0
 40
0.6901614037765614
 50
251.2084199962484092
 51
252.4892984394957125
  0
ARC
  5
4112D
  8
0
 10
4926.146331377606657
 20
2.9847972968702292
 30
0.0
 40
0.0377813900089181
 50
62.6129955520657404
 51
72.4892984394957693
  0
ARC
  5
4112E
  8
0
 10
4926.1498328760280856
 20
2.9915561237616721
 30
0.0
 40
0.0301694104940676
 50
57.6493089678410371
 51
62.6129955520644899
  0
ARC
  5
4112F
  8
0
 10
4926.1656119741355724
 20
3.016467365404309
 30
0.0
 40
0.0006812790290662
 50
14.3012276741082403
 51
57.6493089679522868
  0
ARC
  5
41130
  8
0
 10
4926.1660549730722778
 20
3.016642779147968
 30
0.0
 40
0.0002172843823253
 50
286.1816409861792749
 51
358.1210412051045182
  0
ARC
  5
41131
  8
0
 10
4926.1650539290403685
 20
3.0305863347090889
 30
0.0
 40
0.014191992608687
 50
256.5538667909381161
 51
274.2898787782020236
  0
ARC
  5
41132
  8
0
 10
4926.1912149567197048
 20
3.1696984204496181
 30
0.0
 40
0.1557272383255367
 50
250.9367776675146047
 51
259.0948308202027874
  0
ARC
  5
41133
  8
0
 10
4926.1825101973599885
 20
3.1611103959992941
 30
0.0
 40
0.1448686356853594
 50
245.5074299853550883
 51
253.081860112310892
  0
ARC
  5
41134
  8
0
 10
4926.124361971408689
 20
3.0332570285034621
 30
0.0
 40
0.0044142327233854
 50
223.118623987215102
 51
244.3511119118990962
  0
ARC
  5
41135
  8
0
 10
4926.1213073208928108
 20
3.030371026161113
 30
0.0
 40
0.0002127315255062
 50
104.3129546834140058
 51
218.0697632376976003
  0
ARC
  5
41136
  8
0
 10
4926.1223157063050166
 20
3.0246343226872581
 30
0.0
 40
0.0060367972243027
 50
80.0663078970319759
 51
100.1223968965556992
  0
ARC
  5
41137
  8
0
 10
4925.7730216409327113
 20
1.784467676897812
 30
0.0
 40
1.2893170667211711
 50
68.7638064232419879
 51
77.9171379858810411
  0
ARC
  5
41138
  8
0
 10
4926.0108007683447795
 20
2.910742235152016
 30
0.0
 40
0.1382588819835484
 50
76.5713024785462864
 51
84.5585117172722533
  0
ARC
  5
41139
  8
0
 10
4926.5694130327410676
 20
3.88476280711693
 30
0.0
 40
0.9570076453236755
 50
249.8742323740870859
 51
255.7333646582792142
  0
ARC
  5
4113A
  8
0
 10
4757.2869621265253954
 20
-558.4466955109170385
 30
0.0
 40
586.2420705701325687
 50
73.2281539161442936
 51
73.2403436780344492
  0
ARC
  5
4113B
  8
0
 10
4956.3976317281485535
 20
114.340850160829703
 30
0.0
 40
115.3786172393191976
 50
254.9501523176652995
 51
255.0223709620404122
  0
LINE
  5
4113C
  8
0
 10
4926.3422315651187091
 20
2.9847882411660729
 30
0.0
 11
4926.3284117442181014
 21
2.9408574475660738
 31
0.0
  0
ARC
  5
4113D
  8
0
 10
4926.3396199083663305
 20
2.9373315649577338
 30
0.0
 40
0.0117496719829347
 50
162.5373820356315093
 51
231.4519462656361952
  0
ARC
  5
4113E
  8
0
 10
4926.3537563612399026
 20
2.9602855213804609
 30
0.0
 40
0.0386478104805949
 50
236.2732968181958029
 51
253.1167972798602079
  0
ARC
  5
4113F
  8
0
 10
4926.5945876354917345
 20
3.6454629673432311
 30
0.0
 40
0.7648831735750753
 50
250.7594726946437902
 51
253.2089397758292932
  0
ARC
  5
41140
  8
0
 10
4926.5505432860936708
 20
3.4748770613696949
 30
0.0
 40
0.5888895869515186
 50
252.5168888168458921
 51
257.2088392954124743
  0
ARC
  5
41141
  8
0
 10
4926.4229387947743817
 20
2.914363286196346
 30
0.0
 40
0.0140385489178123
 50
258.6012697971872853
 51
290.7481873687568736
  0
ARC
  5
41142
  8
0
 10
4926.4234233413608308
 20
2.9123286835319062
 30
0.0
 40
0.0119672349559454
 50
292.0297721880181143
 51
341.368949007856088
  0
LINE
  5
41143
  8
0
 10
4926.4347634383166223
 20
2.9085054762996321
 30
0.0
 11
4926.4503121430179817
 21
2.9550682295660731
 31
0.0
  0
ARC
  5
41144
  8
0
 10
4926.2013923199283454
 20
2.261224182299995
 30
0.0
 40
0.7371435682883865
 50
70.2643122977010108
 51
78.9853018378070573
  0
ARC
  5
41145
  8
0
 10
4926.3256111803839303
 20
2.9197268193280168
 30
0.0
 40
0.0671507694356785
 50
75.6698704660742436
 51
87.7584701901011783
  0
ARC
  5
41146
  8
0
 10
4926.3278445864880268
 20
2.9767858204949951
 30
0.0
 40
0.0100480749546614
 50
87.7584701901011783
 51
111.3741276694108961
  0
ARC
  5
41147
  8
0
 10
4926.3245896695443662
 20
2.9851024421257448
 30
0.0
 40
0.0011171914785555
 50
111.3741276694108961
 51
174.1454834946428036
  0
ARC
  5
41148
  8
0
 10
4926.3290662945528311
 20
2.9913787642973029
 30
0.0
 40
0.0083186761270875
 50
227.7984816702299895
 51
248.8492882497145899
  0
ARC
  5
41149
  8
0
 10
4926.4571920026055523
 20
3.2735189737142769
 30
0.0
 40
0.3181752639159996
 50
245.6617458320482115
 51
248.3830009940334094
  0
ARC
  5
4114A
  8
0
 10
4926.4306831613721442
 20
2.8872651946740899
 30
0.0
 40
0.0705871692383195
 50
62.2093244815679327
 51
73.8542676469835442
  0
ARC
  5
4114B
  8
0
 10
4926.4582393260343451
 20
2.939550735110759
 30
0.0
 40
0.0114845470489817
 50
41.8642151193895273
 51
62.209324481567883
  0
ARC
  5
4114C
  8
0
 10
4926.465666752499601
 20
2.946206614947382
 30
0.0
 40
0.0015112125855794
 50
355.1828779090329817
 51
41.8642151193930019
  0
ARC
  5
4114D
  8
0
 10
4926.4660017337337194
 20
2.9461783849741909
 30
0.0
 40
0.0011750439407938
 50
332.5523262884868814
 51
355.1828779090170087
  0
ARC
  5
4114E
  8
0
 10
4926.4654263389356856
 20
2.9579136445908989
 30
0.0
 40
0.0123830652570886
 50
260.779024719452309
 51
277.5086441895613802
  0
ARC
  5
4114F
  8
0
 10
4926.5035776525201072
 20
3.2938717785978868
 30
0.0
 40
0.3504868070719724
 50
260.8589036362994875
 51
263.4244122395811019
  0
ARC
  5
41150
  8
0
 10
4926.3548544651630436
 20
2.9104446468458618
 30
0.0
 40
0.0100216103136818
 50
77.2681002300101056
 51
85.8712500089583557
  0
ARC
  5
41151
  8
0
 10
4926.6538726165217668
 20
4.2338568274269353
 30
0.0
 40
1.3467509036149199
 50
257.2681002300100772
 51
257.3744379124613033
  0
ARC
  5
41152
  8
0
 10
4926.2556144514910557
 20
2.5106670337118588
 30
0.0
 40
0.4219917058346105
 50
73.0209378255926111
 51
75.7482396713213149
  0
ARC
  5
41153
  8
0
 10
4926.2829535584660334
 20
2.5884769614224901
 30
0.0
 40
0.3396070402103857
 50
70.049039664614682
 51
73.5988215357313038
  0
ARC
  5
41154
  8
0
 10
4926.3966021441374323
 20
2.900732542125168
 30
0.0
 40
0.0073182030056126
 50
57.463354547768418
 51
72.2531216158911036
  0
ARC
  5
41155
  8
0
 10
4926.4004936271476254
 20
2.9068323340916731
 30
0.0
 40
0.0000827968623563
 50
288.785850856543675
 51
57.4633545454787793
  0
ARC
  5
41156
  8
0
 10
4926.4024864694256394
 20
2.9277572243709651
 30
0.0
 40
0.0210951056378971
 50
255.1282268925538119
 51
264.6519580061358283
  0
ARC
  5
41157
  8
0
 10
4926.5076330537476679
 20
3.3442625185181778
 30
0.0
 40
0.4506660101584266
 50
252.5860002347085924
 51
255.7988088095345915
  0
ARC
  5
41158
  8
0
 10
4926.4463925236123032
 20
3.1593602004883419
 30
0.0
 40
0.2559293244427832
 50
249.4571823180818058
 51
253.2794116703771863
  0
ARC
  5
41159
  8
0
 10
4926.3591279725096683
 20
2.926284031519192
 30
0.0
 40
0.0070530286516906
 50
238.4316618389576945
 51
248.8665512368417865
  0
ARC
  5
4115A
  8
0
 10
4926.3556259269280417
 20
2.9198176926198829
 30
0.0
 40
0.0006245550146803
 50
94.585080823239565
 51
112.3951952775972956
  0
ARC
  5
4115B
  8
0
 10
4926.3554542888614378
 20
2.9203517501031491
 30
0.0
 40
0.0000792483351937
 50
146.8009844416015142
 51
256.3634401960355262
  0
ARC
  5
4115C
  8
0
 10
4926.7514782812077101
 20
2.2039421422540229
 30
0.0
 40
0.65968404119355
 50
72.5850836419567429
 51
82.221378296600335
  0
ARC
  5
4115D
  8
0
 10
4926.9400878624128381
 20
2.7833688583279139
 30
0.0
 40
0.0507918662857836
 50
59.0567166184987897
 51
79.992189744558857
  0
ARC
  5
4115E
  8
0
 10
4926.9650365837405843
 20
2.8242438888513361
 30
0.0
 40
0.0029307349799654
 50
335.3418165109338815
 51
66.5152200806348333
  0
ARC
  5
4115F
  8
0
 10
4926.9380428496351669
 20
2.6614768254202841
 30
0.0
 40
0.1642441102165622
 50
79.5971564031134733
 51
87.1078084670698303
  0
ARC
  5
41160
  8
0
 10
4926.8309056915022666
 20
2.818230622797286
 30
0.0
 40
0.0405422124048553
 50
75.9270659869609545
 51
96.9182088359596179
  0
ARC
  5
41161
  8
0
 10
4926.8265232803551044
 20
2.8545692184709459
 30
0.0
 40
0.0039404118769447
 50
97.3044874877679575
 51
159.3165317948030975
  0
ARC
  5
41162
  8
0
 10
4926.7982076070138646
 20
2.758194215237348
 30
0.0
 40
0.1008213361184999
 50
66.4089939404741614
 51
75.8603599005579667
  0
ARC
  5
41163
  8
0
 10
4926.2778893115755636
 20
1.451703816090979
 30
0.0
 40
1.471907601747898
 50
73.4183766219402685
 51
78.2869041799268928
  0
ARC
  5
41164
  8
0
 10
4926.564780162131683
 20
2.847001330695861
 30
0.0
 40
0.047481026809396
 50
75.4570690348575255
 51
88.7449938395838842
  0
ARC
  5
41165
  8
0
 10
4926.5657418185892311
 20
2.8908975648017918
 30
0.0
 40
0.0035742602258114
 50
88.7449938396359954
 51
112.9296562060953022
  0
ARC
  5
41166
  8
0
 10
4926.5645811629156015
 20
2.8935213773744088
 30
0.0
 40
0.0007071230623085
 50
109.1424758193200972
 51
170.5131670143501026
  0
ARC
  5
41167
  8
0
 10
4926.6912991915596649
 20
2.832146351361382
 30
0.0
 40
0.0309755987423888
 50
57.3862235656574597
 51
77.6132388269769535
  0
ARC
  5
41168
  8
0
 10
4926.7074582029472367
 20
2.8574001132122122
 30
0.0
 40
0.0009945024215941
 50
347.9777172800381777
 51
57.3862235657037019
  0
ARC
  5
41169
  8
0
 10
4926.4696137867922516
 20
2.5651834671351881
 30
0.0
 40
0.3417150130852566
 50
70.9885296282551508
 51
73.9859577882738932
  0
ARC
  5
4116A
  8
0
 10
4926.6625758577283705
 20
2.6818185552741518
 30
0.0
 40
0.1812701526537556
 50
75.3469547235597332
 51
81.4832998518028546
  0
ARC
  5
4116B
  8
0
 10
4926.5336267078855599
 20
2.5607123691885092
 30
0.0
 40
0.2772992011524052
 50
74.8041590015947833
 51
76.6525920754856003
  0
ARC
  5
4116C
  8
0
 10
4926.3547600582378436
 20
1.892009066614192
 30
0.0
 40
0.9695096824417344
 50
73.3258406814955492
 51
74.9617878803865949
  0
ARC
  5
4116D
  8
0
 10
4926.5901856431710257
 20
2.6780111658831829
 30
0.0
 40
0.1490070888464301
 50
69.8907900126418014
 51
73.3258406814955634
  0
ARC
  5
4116E
  8
0
 10
4926.6437063771445537
 20
2.8377568262687132
 30
0.0
 40
0.0199540915817293
 50
254.2829491583491972
 51
263.4085434895736739
  0
ARC
  5
4116F
  8
0
 10
4926.8378664346128062
 20
3.5996876584150361
 30
0.0
 40
0.8062284150689967
 50
253.6391625714352074
 51
255.6686280669264022
  0
ARC
  5
41170
  8
0
 10
4926.6666776781621593
 20
3.0282587498398419
 30
0.0
 40
0.2097429650269503
 50
250.2950073752220135
 51
254.538868101433593
  0
ARC
  5
41171
  8
0
 10
4926.5952582842755874
 20
2.8212752603154581
 30
0.0
 40
0.0095484348202897
 50
75.5398919733241456
 51
85.8028988879795946
  0
LINE
  5
41172
  8
0
 10
4924.4014115703121206
 20
3.722059075943259
 30
0.0
 11
4924.3853241599190369
 21
3.6693266952660739
 31
0.0
  0
ARC
  5
41173
  8
0
 10
4924.3979092621466407
 20
3.6655899887219929
 30
0.0
 40
0.013128129108015
 50
163.4630521309861138
 51
246.5409793572360968
  0
ARC
  5
41174
  8
0
 10
4924.7498962013623895
 20
4.2966683060572493
 30
0.0
 40
0.7356672473459455
 50
240.9506026418002875
 51
250.2487429430844088
  0
ARC
  5
41175
  8
0
 10
4924.5147533715417012
 20
3.6409149160709169
 30
0.0
 40
0.0390303090206312
 50
249.8163802606673016
 51
266.4272833290089011
  0
ARC
  5
41176
  8
0
 10
4924.512408263686666
 20
3.6143098806636229
 30
0.0
 40
0.0123497257832901
 50
269.5960115267545234
 51
340.5005713076541838
  0
LINE
  5
41177
  8
0
 10
4924.5240496687192717
 20
3.6101875735660731
 30
0.0
 11
4924.5408361156150931
 21
3.659033178653841
 31
0.0
  0
LINE
  5
41178
  8
0
 10
4924.3995103555098467
 20
3.649415842339609
 30
0.0
 11
4924.3934202372529398
 21
3.629451626734681
 31
0.0
  0
ARC
  5
41179
  8
0
 10
4924.4047175121331748
 20
3.6260053736297042
 30
0.0
 40
0.0118112268704245
 50
163.0355831507303037
 51
238.7049082376956903
  0
ARC
  5
4117A
  8
0
 10
4930.2193944887931139
 20
17.3151207371390186
 30
0.0
 40
14.8845610599792
 50
246.9792947424770944
 51
247.3196834802870967
  0
ARC
  5
4117B
  8
0
 10
4924.4846403529436429
 20
3.592465113611631
 30
0.0
 40
0.0118114154734929
 50
247.2362936152102009
 51
341.0322685402543925
  0
LINE
  5
4117C
  8
0
 10
4924.4958099767172826
 20
3.588626138868189
 30
0.0
 11
4924.5011977477188339
 21
3.6043023567660741
 31
0.0
  0
ARC
  5
4117D
  8
0
 10
4924.0434270844971252
 20
2.7448821563895001
 30
0.0
 40
1.0406861314503291
 50
61.2699196993211785
 51
69.8799128325792509
  0
ARC
  5
4117E
  8
0
 10
4924.3761941066532017
 20
3.6584618549636869
 30
0.0
 40
0.068414377068962
 50
68.3707666837193671
 51
82.6138771526595406
  0
ARC
  5
4117F
  8
0
 10
4924.384664576193245
 20
3.723746253909912
 30
0.0
 40
0.0025827729465153
 50
82.7807400064213965
 51
165.2647834491475862
  0
ARC
  5
41180
  8
0
 10
4925.2830866656258877
 20
5.4423780559977706
 30
0.0
 40
1.9398696724560489
 50
242.3271198041003913
 51
242.8994871511087013
  0
ARC
  5
41181
  8
0
 10
4924.5309376850318586
 20
3.632040783625663
 30
0.0
 40
0.0284230893915553
 50
35.1350384193998408
 51
63.3914197079298489
  0
ARC
  5
41182
  8
0
 10
4924.552611526297369
 20
3.6472932241421931
 30
0.0
 40
0.0019204039261783
 50
336.3115473981388845
 51
35.1350384193526821
  0
ARC
  5
41183
  8
0
 10
4924.5764280092871559
 20
3.754802610433229
 30
0.0
 40
0.1105048006644693
 50
249.7362373160088964
 51
258.4858344486589203
  0
ARC
  5
41184
  8
0
 10
4924.4263045701763986
 20
3.618383555564181
 30
0.0
 40
0.0202799553797997
 50
69.9647790918106267
 51
79.5454855208831049
  0
ARC
  5
41185
  8
0
 10
4924.4298410272467663
 20
3.637528592571432
 30
0.0
 40
0.0008110413964272
 50
79.8131398610436946
 51
109.7750331223324025
  0
ARC
  5
41186
  8
0
 10
4924.4295940749998408
 20
3.638215467799506
 30
0.0
 40
0.0000811215436239
 50
109.7750331221116937
 51
207.9765990062037986
  0
ARC
  5
41187
  8
0
 10
4924.4306426726116115
 20
3.6387724678073718
 30
0.0
 40
0.0012684740446562
 50
207.9765990062620915
 51
221.811789964373105
  0
ARC
  5
41188
  8
0
 10
4924.405192787165106
 20
3.5097221661914442
 30
0.0
 40
0.1286799549319749
 50
58.5905006675485183
 51
66.057135750486168
  0
ARC
  5
41189
  8
0
 10
4924.4714831560677339
 20
3.6183880324548059
 30
0.0
 40
0.0013912871966404
 50
33.4878153894715496
 51
56.3302785948913183
  0
ARC
  5
4118A
  8
0
 10
4924.4724529213126516
 20
3.6190296095297469
 30
0.0
 40
0.0002285035649738
 50
0.5813906938860152
 51
33.4878153894206392
  0
ARC
  5
4118B
  8
0
 10
4924.4726055531991733
 20
3.6190311583664081
 30
0.0
 40
0.0000758638208896
 50
294.2971049480149759
 51
0.5813906947748709
  0
ARC
  5
4118C
  8
0
 10
4924.4724214712623507
 20
3.619438909596576
 30
0.0
 40
0.0005232419890087
 50
275.1388315172929993
 51
294.2971049477927181
  0
ARC
  5
4118D
  8
0
 10
4924.4723405442937292
 20
3.620338790036723
 30
0.0
 40
0.0014267540147596
 50
255.8576789402850977
 51
275.1388315171884074
  0
ARC
  5
4118E
  8
0
 10
4924.4677133153763862
 20
3.6019744406613148
 30
0.0
 40
0.0175115821169854
 50
75.8576789402851546
 51
78.8910966302017016
  0
ARC
  5
4118F
  8
0
 10
4927.2137857211064329
 20
3.000183271481891
 30
0.0
 40
0.2474484919765615
 50
256.7557411921661128
 51
267.6434920737847278
  0
ARC
  5
41190
  8
0
 10
4926.8860966800439201
 20
1.7463096577696979
 30
0.0
 40
1.121400248853812
 50
72.7688616146703424
 51
79.7051573023653788
  0
ARC
  5
41191
  8
0
 10
4927.0801561679027145
 20
2.814696688229354
 30
0.0
 40
0.0355319641699894
 50
79.7051573023655067
 51
102.972474348361402
  0
ARC
  5
41192
  8
0
 10
4927.0735589394089402
 20
2.8433351874974462
 30
0.0
 40
0.0061434108858697
 50
102.9724743483613025
 51
148.557869307076686
  0
ARC
  5
41193
  8
0
 10
4927.0689228851088046
 20
2.8461697283677609
 30
0.0
 40
0.0007094784764598
 50
148.5578693069560927
 51
241.9593275714076128
  0
ARC
  5
41194
  8
0
 10
4927.1069387074949191
 20
2.905156528966736
 30
0.0
 40
0.0708828733982259
 50
237.2466149770546053
 51
250.4665568321410092
  0
ARC
  5
41195
  8
0
 10
4927.2039373317957143
 20
2.766702862332814
 30
0.0
 40
0.013762684586648
 50
268.6426664221921783
 51
338.4004768160751837
  0
LINE
  5
41196
  8
0
 10
4927.3261696525696607
 20
2.7558294125660732
 30
0.0
 11
4927.310879813118845
 21
2.7050397191660731
 31
0.0
  0
ARC
  5
41197
  8
0
 10
4927.3237102238108491
 20
2.7030764747828169
 30
0.0
 40
0.0129797444900001
 50
171.3003680340549977
 51
251.1318122896159934
  0
ARC
  5
41198
  8
0
 10
4927.4615222043476024
 20
3.109564016117504
 30
0.0
 40
0.4421932472943264
 50
251.2676278853500094
 51
258.8233531826384137
  0
ARC
  5
41199
  8
0
 10
4927.5349060710268532
 20
3.3912848778522942
 30
0.0
 40
0.7330015754618291
 50
257.4643211808127035
 51
262.18644540861618
  0
ARC
  5
4119A
  8
0
 10
4927.4448525547759345
 20
2.7377126682378692
 30
0.0
 40
0.0732554569864598
 50
262.471396471635785
 51
270.9137512827056753
  0
ARC
  5
4119B
  8
0
 10
4927.446174393839101
 20
2.67731749174084
 30
0.0
 40
0.0128518829408909
 50
269.3151525919511187
 51
339.0843509901015977
  0
ARC
  5
4119C
  8
0
 10
4769.1917498571237957
 20
57.1062149564758883
 30
0.0
 40
167.3656687393608991
 50
341.0200739711540905
 51
341.0390030495606766
  0
LINE
  5
4119D
  8
0
 10
4927.3262626139194253
 20
2.6882515692660731
 30
0.0
 11
4927.3214257005192849
 21
2.6723968137660741
 31
0.0
  0
ARC
  5
4119E
  8
0
 10
4927.3327227058498465
 20
2.668950362859555
 30
0.0
 40
0.0118110267674228
 50
163.034283833708912
 51
256.8342890037354778
  0
LINE
  5
4119F
  8
0
 10
4927.3300325297195741
 20
2.657449784366074
 30
0.0
 11
4927.4144306314092319
 21
2.6377076680193419
 31
0.0
  0
ARC
  5
411A0
  8
0
 10
4927.4171208084226237
 20
2.6492082502873009
 30
0.0
 40
0.0118110306437895
 50
256.8342890037358757
 51
341.0348858345403187
  0
LINE
  5
411A1
  8
0
 10
4927.4282906965190705
 20
2.6453697551660742
 30
0.0
 11
4927.4350754990082351
 21
2.6651132958414978
 31
0.0
  0
ARC
  5
411A2
  8
0
 10
4927.3571078093864344
 20
2.6340376000065668
 30
0.0
 40
0.0496052994352252
 50
79.3621036427948354
 51
88.0829339921564554
  0
ARC
  5
411A3
  8
0
 10
4927.6289055538627508
 20
4.0810820199609621
 30
0.0
 40
1.4227436969728671
 50
259.362103642794807
 51
259.8778369046672196
  0
ARC
  5
411A4
  8
0
 10
4927.3587287188893242
 20
2.6814927482817961
 30
0.0
 40
0.0021227365916645
 50
88.9599567253380172
 51
107.7276012122433997
  0
ARC
  5
411A5
  8
0
 10
4927.358126618726601
 20
2.683376244294486
 30
0.0
 40
0.0001453439058736
 50
107.7276012123006979
 51
167.693502775211897
  0
ARC
  5
411A6
  8
0
 10
4927.3581392484647949
 20
2.6834086243415598
 30
0.0
 40
0.0001546401954557
 50
180.5191940551214884
 51
221.9833276943498959
  0
ARC
  5
411A7
  8
0
 10
4927.3645109683266128
 20
2.6943453404696629
 30
0.0
 40
0.0128047631137982
 50
239.5635355116247069
 51
255.0809439270612984
  0
ARC
  5
411A8
  8
0
 10
4927.4327386584773194
 20
2.9293532648813438
 30
0.0
 40
0.2575133228161444
 50
253.8740354606042899
 51
258.7270014161227891
  0
ARC
  5
411A9
  8
0
 10
4927.4269160494986863
 20
2.8826261664959341
 30
0.0
 40
0.2105773496545716
 50
257.7952930548158861
 51
263.1588534798268029
  0
ARC
  5
411AA
  8
0
 10
4927.4030478222675811
 20
2.6852876996764592
 30
0.0
 40
0.0118023372877946
 50
264.0905870760270773
 51
273.778250601935099
  0
ARC
  5
411AB
  8
0
 10
4927.4038285759870632
 20
2.6740552631092731
 30
0.0
 40
0.0005442574507061
 50
269.6802675544457202
 51
314.9177584225378155
  0
ARC
  5
411AC
  8
0
 10
4927.3245107770362665
 20
2.4068242142201259
 30
0.0
 40
0.2790038336376123
 50
74.2130538420419015
 51
78.7667232703266507
  0
ARC
  5
411AD
  8
0
 10
4927.3940340787094101
 20
2.6527281811281318
 30
0.0
 40
0.023460783611247
 50
65.2699265385956409
 51
74.2130538420421004
  0
ARC
  5
411AE
  8
0
 10
4927.4034315848548431
 20
2.673131608452846
 30
0.0
 40
0.0009971915485543
 50
41.7668965629037316
 51
65.2699265385435154
  0
ARC
  5
411AF
  8
0
 10
4927.4040601422875625
 20
2.6736929505236411
 30
0.0
 40
0.0001544642096862
 50
351.4038644343422106
 51
41.7668965627450035
  0
ARC
  5
411B0
  8
0
 10
4927.3146666651873602
 20
2.690587149248687
 30
0.0
 40
0.0162132703971201
 50
79.6290382996205039
 51
102.3001902906879934
  0
ARC
  5
411B1
  8
0
 10
4927.2510516901911615
 20
2.212121965864366
 30
0.0
 40
0.4988702396788758
 50
78.0498154393133206
 51
82.3356970659224032
  0
ARC
  5
411B2
  8
0
 10
4927.0834223050824221
 20
1.3682887673704911
 30
0.0
 40
1.3591677636609749
 50
75.3371075423538343
 51
78.5020833766301394
  0
ARC
  5
411B3
  8
0
 10
4927.641955702039013
 20
3.3883804220340061
 30
0.0
 40
0.7370861862644029
 50
253.0827167133220996
 51
254.8237370655421898
  0
ARC
  5
411B4
  8
0
 10
4927.4382232333282445
 20
2.6372906674634571
 30
0.0
 40
0.0411443311452028
 50
60.7299950713503804
 51
74.8237370655419483
  0
ARC
  5
411B5
  8
0
 10
4927.1910063773129878
 20
1.717368793418798
 30
0.0
 40
1.0472199236538799
 50
74.1275625585706592
 51
82.5842227690982185
  0
ARC
  5
411B6
  8
0
 10
4927.3187529330571124
 20
2.7041804508815579
 30
0.0
 40
0.05217875977268
 50
81.8282682533647545
 51
96.2361212096735841
  0
ARC
  5
411B7
  8
0
 10
4927.3136587678818614
 20
2.747915091199252
 30
0.0
 40
0.0081555720776096
 50
94.0345446004722731
 51
128.0941079961910134
  0
ARC
  5
411B8
  8
0
 10
4927.309030536715909
 20
2.7537748237327362
 30
0.0
 40
0.0006890992307515
 50
125.8302981642106033
 51
239.6497049960624111
  0
ARC
  5
411B9
  8
0
 10
4927.3830811298776098
 20
2.9411283784486288
 30
0.0
 40
0.2021378503153912
 50
248.4039999254333964
 51
252.9396470238953043
  0
ARC
  5
411BA
  8
0
 10
4927.469415977355311
 20
2.684381330213375
 30
0.0
 40
0.0410670522486878
 50
57.8624404322703967
 51
78.76474362693709
  0
ARC
  5
411BB
  8
0
 10
4927.489437213715064
 20
2.716251486186529
 30
0.0
 40
0.0034298798377759
 50
5.177326551339493
 51
57.8624404322728765
  0
ARC
  5
411BC
  8
0
 10
4927.4914487632549935
 20
2.7164337489484169
 30
0.0
 40
0.0014100899309019
 50
330.7302484134452811
 51
5.1773265513289246
  0
ARC
  5
411BD
  8
0
 10
5743.4592082157350887
 20
5277.7213776368025719
 30
0.0
 40
5337.7416393602188691
 50
261.2066650759043114
 51
261.2068683721493016
  0
ARC
  5
411BE
  8
0
 10
4927.1176511417470465
 20
2.7343362070168391
 30
0.0
 40
0.0400909249055547
 50
81.7369950783927663
 51
88.4125390482785321
  0
ARC
  5
411BF
  8
0
 10
4927.0969035267326035
 20
2.5914707543822559
 30
0.0
 40
0.1844550516312414
 50
78.1788814651484785
 51
81.7369950783927521
  0
ARC
  5
411C0
  8
0
 10
4927.0804405721219155
 20
2.5128118838015672
 30
0.0
 40
0.264818269557871
 50
74.5490492239615037
 51
78.1788814651484927
  0
ARC
  5
411C1
  8
0
 10
4927.1223402740351958
 20
2.6644011365657332
 30
0.0
 40
0.1075449832887436
 50
68.7970015466545419
 51
74.5490492239615463
  0
ARC
  5
411C2
  8
0
 10
4927.1590364754629263
 20
2.7589949087329582
 30
0.0
 40
0.006082709846421
 50
48.2186610674738105
 51
68.7970015465450331
  0
ARC
  5
411C3
  8
0
 10
4927.1629030167114252
 20
2.7633868099190848
 30
0.0
 40
0.0002354282050708
 50
334.9976502175351811
 51
37.6884802371661181
  0
ARC
  5
411C4
  8
0
 10
4927.1626815547151637
 20
2.7635978375854742
 30
0.0
 40
0.0005343278207268
 50
271.1926819955841097
 51
324.4674693872469788
  0
ARC
  5
411C5
  8
0
 10
4927.1610351451327006
 20
2.7809262680815561
 30
0.0
 40
0.0179393815279558
 50
261.8669684901354913
 51
275.3014763088813197
  0
ARC
  5
411C6
  8
0
 10
4927.1775851717438854
 20
2.9148585884618852
 30
0.0
 40
0.1528875135068279
 50
257.6838494123439887
 51
262.8279290627348246
  0
ARC
  5
411C7
  8
0
 10
4927.1962178532294274
 20
3.009492321482635
 30
0.0
 40
0.2493256345349318
 50
254.0360815337566009
 51
258.1393383864756856
  0
ARC
  5
411C8
  8
0
 10
4927.1457778574304029
 20
2.8365879724906469
 30
0.0
 40
0.0692231064868763
 50
246.6280458264494939
 51
254.8146049660909966
  0
ARC
  5
411C9
  8
0
 10
4927.1199728983783643
 20
2.7767155057881712
 30
0.0
 40
0.0040269528685877
 50
226.7830304367589918
 51
245.7218208235283896
  0
ARC
  5
411CA
  8
0
 10
4927.1173952548069792
 20
2.7739855472791759
 30
0.0
 40
0.0002725302246361
 50
150.6238974010653067
 51
228.7016047162935024
  0
ARC
  5
411CB
  8
0
 10
4927.1176714751818508
 20
2.7735710445073232
 30
0.0
 40
0.0007512711007339
 50
98.9399766341301756
 51
133.1401645864185923
  0
ARC
  5
411CC
  8
0
 10
4927.1186302631986109
 20
2.7685815976201771
 30
0.0
 40
0.0058316305680928
 50
88.7077803424086255
 51
100.6279786901375957
  0
LINE
  5
411CD
  8
0
 10
4927.7224238017070093
 20
2.6544745848293192
 30
0.0
 11
4927.7056101304187905
 21
2.605548698166074
 31
0.0
  0
ARC
  5
411CE
  8
0
 10
4927.6942750290409094
 20
2.6094440730193931
 30
0.0
 40
0.0119857610732494
 50
269.7013982141340875
 51
341.0344123515279193
  0
ARC
  5
411CF
  8
0
 10
4927.6978467782018924
 20
2.687574350137683
 30
0.0
 40
0.0901891263517775
 50
260.1501541558662893
 51
267.6906140952040118
  0
ARC
  5
411D0
  8
0
 10
4927.8924612170440014
 20
3.9070772124258601
 30
0.0
 40
1.3251152936383219
 50
258.8861858527870936
 51
260.879631944033008
  0
ARC
  5
411D1
  8
0
 10
4927.9294694259397147
 20
4.1389400944926971
 30
0.0
 40
1.5597860263328509
 50
256.9496769896300066
 51
259.1939882712418921
  0
ARC
  5
411D2
  8
0
 10
4927.6011253599426709
 20
2.7255883611412468
 30
0.0
 40
0.1087982486402147
 50
251.1147063314826084
 51
257.3284587899908047
  0
ARC
  5
411D3
  8
0
 10
4927.569929820847392
 20
2.6340274810366209
 30
0.0
 40
0.0120696216470159
 50
163.4130319409763104
 51
250.5465005169299957
  0
ARC
  5
411D4
  8
0
 10
4930.7826907171584025
 20
1.6801769279176091
 30
0.0
 40
3.363437017574495
 50
162.604607658059507
 51
163.4639599410857045
  0
ARC
  5
411D5
  8
0
 10
4927.091510921804911
 20
0.0117863482933904
 30
0.0
 40
2.7169564183901742
 50
76.5725985446222239
 51
79.7905687483845014
  0
ARC
  5
411D6
  8
0
 10
4927.6793771532757091
 20
2.4351330791147561
 30
0.0
 40
0.223525636615316
 50
75.2060852718449695
 51
78.8965902432702535
  0
ARC
  5
411D7
  8
0
 10
4927.7306830301131413
 20
2.6251580541998738
 30
0.0
 40
0.0267212698257773
 50
68.2218828239137594
 51
77.530076970525613
  0
ARC
  5
411D8
  8
0
 10
4927.7399733347419897
 20
2.6484112251734291
 30
0.0
 40
0.0016809079986342
 50
53.4497945232881619
 51
68.2218828239110309
  0
ARC
  5
411D9
  8
0
 10
4927.7409199331668788
 20
2.6496881379640942
 30
0.0
 40
0.0000913939686679
 50
345.5410086311268856
 51
53.4497945234688885
  0
ARC
  5
411DA
  8
0
 10
4927.7408122696542705
 20
2.6499043377361038
 30
0.0
 40
0.0003092090086351
 50
279.7892456677724908
 51
309.3756244426239164
  0
ARC
  5
411DB
  8
0
 10
4927.740294614942286
 20
2.653080085220723
 30
0.0
 40
0.003526857285468
 50
267.0503686026784749
 51
279.304514172959216
  0
ARC
  5
411DC
  8
0
 10
4927.8229088748430513
 20
3.4226448161792531
 30
0.0
 40
0.7775078871940716
 50
262.5054766172282825
 51
263.8870606600914925
  0
ARC
  5
411DD
  8
0
 10
4927.5643146837310269
 20
2.6353777558446252
 30
0.0
 40
0.0511037109254056
 50
80.1208283740644021
 51
93.7674454060901468
  0
ARC
  5
411DE
  8
0
 10
4927.5615709275325571
 20
2.6770449869521462
 30
0.0
 40
0.009346240381271
 50
93.7674454060902178
 51
124.8105732595761026
  0
ARC
  5
411DF
  8
0
 10
4927.5575268179054547
 20
2.6833496570711821
 30
0.0
 40
0.0018819432319731
 50
133.3276803200681115
 51
178.6184818334523072
  0
ARC
  5
411E0
  8
0
 10
4927.5789673644394497
 20
2.83685009514965
 30
0.0
 40
0.1552171703818456
 50
261.3583751429840163
 51
267.3786259955832065
  0
ARC
  5
411E1
  8
0
 10
4927.598509152961924
 20
2.5436890225379729
 30
0.0
 40
0.0716950106014806
 50
79.8094642312469063
 51
84.2408026014253295
  0
ARC
  5
411E2
  8
0
 10
4929.4302145777228361
 20
12.7335370484865695
 30
0.0
 40
10.2814758831405406
 50
259.8094642312469205
 51
259.8740950658425959
  0
ARC
  5
411E3
  8
0
 10
4927.5639319955098472
 20
2.2836543750664449
 30
0.0
 40
0.3337517905798682
 50
77.7385979704417451
 51
79.8740950658426527
  0
ARC
  5
411E4
  8
0
 10
4927.302802878397415
 20
1.082119817469686
 30
0.0
 40
1.563334528301674
 50
77.2165614017124113
 51
77.7385979704417451
  0
ARC
  5
411E5
  8
0
 10
4927.6437354701402001
 20
2.5847505125258721
 30
0.0
 40
0.0225120083993967
 50
71.7466180724653526
 51
77.2165614017124255
  0
ARC
  5
411E6
  8
0
 10
4927.6498436057527215
 20
2.6032703410194609
 30
0.0
 40
0.0030108964284845
 50
58.3657794307337525
 51
71.7466180724147904
  0
ARC
  5
411E7
  8
0
 10
4927.6515246251137796
 20
2.6261375780399079
 30
0.0
 40
0.0203039734814723
 50
259.5845703826511226
 51
269.7126709941103968
  0
ARC
  5
411E8
  8
0
 10
4927.736702877238713
 20
3.1555290280993269
 30
0.0
 40
0.5564993185079309
 50
258.4654762888382038
 51
260.8130252757628114
  0
ARC
  5
411E9
  8
0
 10
4927.6754407248981806
 20
2.875713397837683
 30
0.0
 40
0.270115570860183
 50
254.9699736216408894
 51
259.3295528410886845
  0
ARC
  5
411EA
  8
0
 10
4927.6058754747846251
 20
2.6163163460155578
 30
0.0
 40
0.0015546589535703
 50
238.9879256055627081
 51
251.9181593601288114
  0
ARC
  5
411EB
  8
0
 10
4927.6054701284274415
 20
2.613668782567065
 30
0.0
 40
0.0013733530959341
 50
80.2126262164338186
 51
106.7433677825883933
  0
ARC
  5
411EC
  8
0
 10
-12929.9271203127991612
 20
-70661.6350268879323266
 30
0.0
 40
72885.7244416184548754
 50
75.8183804132370653
 51
75.8184808600749847
  0
ARC
  5
411ED
  8
0
 10
4926.8136606336656769
 20
2.833157598819354
 30
0.0
 40
0.009794336508072
 50
255.8183804132370085
 51
287.7722993624807941
  0
LINE
  5
411EE
  8
0
 10
4926.8166502074400341
 20
2.8238306766963781
 30
0.0
 11
4926.8289175198842713
 21
2.8204547184855691
 31
0.0
  0
LINE
  5
411EF
  8
0
 10
4926.9365701853157589
 20
2.7957689581567609
 30
0.0
 11
4927.0822602728167112
 21
2.7691325647090141
 31
0.0
  0
ARC
  5
411F0
  8
0
 10
4926.9588175517192212
 20
2.7999341065660759
 30
0.0
 40
0.0097371079000073
 50
225.9287863921867086
 51
258.3944643358460098
  0
ARC
  5
411F1
  8
0
 10
5014.7947446817770469
 20
430.4934147318386977
 30
0.0
 40
436.6295528104827213
 50
258.3944643358460098
 51
258.4110733837346743
  0
LINE
  5
411F2
  8
0
 10
4927.1907312243629349
 20
2.7424006435387751
 30
0.0
 11
4927.3144817455031443
 21
2.7170045957095121
 31
0.0
  0
LINE
  5
411F3
  8
0
 10
4927.4635996066672305
 20
2.688491286412872
 30
0.0
 11
4927.566753756577782
 21
2.665295213589129
 31
0.0
  0
LINE
  5
411F4
  8
0
 10
4927.7145151832555712
 20
2.6314613973263459
 30
0.0
 11
4927.8907920587180342
 21
2.594415814766073
 31
0.0
  0
ARC
  5
411F5
  8
0
 10
4927.8943641415671664
 20
2.6416190176074599
 30
0.0
 40
0.0473381678390687
 50
265.672413856684102
 51
298.9776704369554068
  0
ARC
  5
411F6
  8
0
 10
4927.0978420040200945
 20
2.7094976188645532
 30
0.0
 40
0.0028026072693604
 50
75.4899418485054525
 51
98.1016681684504164
  0
ARC
  5
411F7
  8
0
 10
4927.091321832867834
 20
2.6649850022088768
 30
0.0
 40
0.0477749062121573
 50
79.5020308069789365
 51
81.3049830339366792
  0
ARC
  5
411F8
  8
0
 10
4927.0499316116447517
 20
2.449445768275738
 30
0.0
 40
0.2672514385720368
 50
77.3702787777907162
 51
79.1963080903328631
  0
ARC
  5
411F9
  8
0
 10
4926.9336720543105912
 20
1.924218515051046
 30
0.0
 40
0.805191311663612
 50
76.0121940157197997
 51
77.4694852461996248
  0
ARC
  5
411FA
  8
0
 10
4927.0455320514047344
 20
2.3672000811368781
 30
0.0
 40
0.3483102024816512
 50
74.0543295336505452
 51
76.2536053387498356
  0
ARC
  5
411FB
  8
0
 10
4927.137581198117914
 20
2.6889636604190081
 30
0.0
 40
0.0136394180232716
 50
64.7504819039437223
 51
74.518944837396532
  0
ARC
  5
411FC
  8
0
 10
4927.1435968636496909
 20
2.713182339609725
 30
0.0
 40
0.0118840316712324
 50
257.7438122870765937
 51
269.0471827916310872
  0
ARC
  5
411FD
  8
0
 10
4927.2358192636884269
 20
3.1801497298583898
 30
0.0
 40
0.487868839714659
 50
256.3778282024902069
 51
258.8018804709080882
  0
ARC
  5
411FE
  8
0
 10
4927.2185060041847464
 20
3.1288266760562382
 30
0.0
 40
0.4339377936363275
 50
253.9669992529032925
 51
257.0035266067175144
  0
ARC
  5
411FF
  8
0
 10
4927.083398775898786
 20
2.6768903556717372
 30
0.0
 40
0.0380687838241833
 50
66.3725233396052801
 51
68.3446246943296245
  0
ATTDEF
  5
41229
  8
DEFPOINTS
 10
4932.4839545466511481
 20
-2.5606479442103298
 30
0.0
 40
0.001
  1
K-72292T-4E2
  3

  2
MODELNUMBER
 70
     0
1001
ACDBATTR
1070
     0
1070
     1
  0
ATTDEF
  5
4122A
  8
DEFPOINTS
 10
4932.4839545466511481
 20
-2.562314610876995
 30
0.0
 40
0.001
  1
ALEO
  3

  2
TRADENAME
 70
     0
1001
ACDBATTR
1070
     0
1070
     1
  0
ATTDEF
  5
4122B
  8
DEFPOINTS
 10
4932.4839545466511481
 20
-2.563981277543661
 30
0.0
 40
0.001
  1
BATH AND SHOWER FAUCET
  3

  2
PRODUCT
 70
     0
1001
ACDBATTR
1070
     0
1070
     1
  0
ENDSEC
  0
EOF
