  0
SECTION
  2
HEADER
  9
$ACADVER
  1
AC1009
  9
$INSBASE
 10
118.7098828493157043
 20
1.8534271134094591
 30
0.0
  9
$EXTMIN
 10
117.7112491812005999
 20
-5.1026794643823514
 30
-0.0000000000112498
  9
$EXTMAX
 10
120.1869848788787039
 20
3.4519127121792499
 30
0.0000000000002956
  9
$LIMMIN
 10
0.0
 20
0.0
  9
$LIMMAX
 10
11.6929133858000007
 20
8.2677165353999982
  9
$ORTHOMODE
 70
     0
  9
$REGENMODE
 70
     1
  9
$FILLMODE
 70
     1
  9
$QTEXTMODE
 70
     0
  9
$MIRRTEXT
 70
     0
  9
$DRAGMODE
 70
     2
  9
$LTSCALE
 40
0.6431102362
  9
$OSMODE
 70
  4095
  9
$ATTMODE
 70
     1
  9
$TEXTSIZE
 40
0.2
  9
$TRACEWID
 40
0.05
  9
$TEXTSTYLE
  7
STANDARD
  9
$CLAYER
  8
0
  9
$CELTYPE
  6
BYLAYER
  9
$CECOLOR
 62
   256
  9
$DIMSCALE
 40
1.0
  9
$DIMASZ
 40
0.1875
  9
$DIMEXO
 40
0.0625
  9
$DIMDLI
 40
0.4443307087
  9
$DIMRND
 40
0.0
  9
$DIMDLE
 40
0.0
  9
$DIMEXE
 40
0.125
  9
$DIMTP
 40
0.01
  9
$DIMTM
 40
0.01
  9
$DIMTXT
 40
1.0
  9
$DIMCEN
 40
0.1052362205
  9
$DIMTSZ
 40
0.0
  9
$DIMTOL
 70
     1
  9
$DIMLIM
 70
     0
  9
$DIMTIH
 70
     1
  9
$DIMTOH
 70
     1
  9
$DIMSE1
 70
     0
  9
$DIMSE2
 70
     0
  9
$DIMTAD
 70
     0
  9
$DIMZIN
 70
     0
  9
$DIMBLK
  1

  9
$DIMASO
 70
     1
  9
$DIMSHO
 70
     1
  9
$DIMPOST
  1
\X
  9
$DIMAPOST
  1

  9
$DIMALT
 70
     1
  9
$DIMALTD
 70
     2
  9
$DIMALTF
 40
25.3999999999999986
  9
$DIMLFAC
 40
1.0
  9
$DIMTOFL
 70
     0
  9
$DIMTVP
 40
0.0
  9
$DIMTIX
 70
     0
  9
$DIMSOXD
 70
     0
  9
$DIMSAH
 70
     0
  9
$DIMBLK1
  1

  9
$DIMBLK2
  1

  9
$DIMSTYLE
  2
STANDARD
  9
$DIMCLRD
 70
     0
  9
$DIMCLRE
 70
     0
  9
$DIMCLRT
 70
     0
  9
$DIMTFAC
 40
1.0
  9
$DIMGAP
 40
0.09
  9
$LUNITS
 70
     2
  9
$LUPREC
 70
     4
  9
$SKETCHINC
 40
0.1
  9
$FILLETRAD
 40
0.0
  9
$AUNITS
 70
     0
  9
$AUPREC
 70
     0
  9
$MENU
  1
.
  9
$ELEVATION
 40
0.0
  9
$PELEVATION
 40
0.0
  9
$THICKNESS
 40
0.0
  9
$LIMCHECK
 70
     0
  9
$BLIPMODE
 70
     0
  9
$CHAMFERA
 40
0.0
  9
$CHAMFERB
 40
0.0
  9
$SKPOLY
 70
     0
  9
$TDCREATE
 40
2458172.4620254631154239
  9
$TDUPDATE
 40
2459202.4873263891786337
  9
$TDINDWG
 40
0.0974133449
  9
$TDUSRTIMER
 40
0.0974133449
  9
$USRTIMER
 70
     1
  9
$ANGBASE
 50
0.0
  9
$ANGDIR
 70
     0
  9
$PDMODE
 70
     0
  9
$PDSIZE
 40
0.3125
  9
$PLINEWID
 40
0.0
  9
$COORDS
 70
     1
  9
$SPLFRAME
 70
     0
  9
$SPLINETYPE
 70
     6
  9
$SPLINESEGS
 70
     8
  9
$ATTDIA
 70
     1
  9
$ATTREQ
 70
     1
  9
$HANDLING
 70
     1
  9
$HANDSEED
  5
7F12
  9
$SURFTAB1
 70
     6
  9
$SURFTAB2
 70
     6
  9
$SURFTYPE
 70
     6
  9
$SURFU
 70
     6
  9
$SURFV
 70
     6
  9
$UCSNAME
  2

  9
$UCSORG
 10
0.0
 20
0.0
 30
0.0
  9
$UCSXDIR
 10
1.0
 20
0.0
 30
0.0
  9
$UCSYDIR
 10
0.0
 20
1.0
 30
0.0
  9
$PUCSNAME
  2

  9
$PUCSORG
 10
0.0
 20
0.0
 30
0.0
  9
$PUCSXDIR
 10
1.0
 20
0.0
 30
0.0
  9
$PUCSYDIR
 10
0.0
 20
1.0
 30
0.0
  9
$USERI1
 70
     0
  9
$USERI2
 70
     0
  9
$USERI3
 70
     0
  9
$USERI4
 70
     0
  9
$USERI5
 70
     0
  9
$USERR1
 40
0.0
  9
$USERR2
 40
0.0
  9
$USERR3
 40
0.0
  9
$USERR4
 40
0.0
  9
$USERR5
 40
0.0
  9
$WORLDVIEW
 70
     1
  9
$SHADEDGE
 70
     3
  9
$SHADEDIF
 70
    70
  9
$TILEMODE
 70
     1
  9
$MAXACTVP
 70
    64
  9
$PLIMCHECK
 70
     0
  9
$PEXTMIN
 10
1.0000000000000000E+20
 20
1.0000000000000000E+20
 30
1.0000000000000000E+20
  9
$PEXTMAX
 10
-1.0000000000000000E+20
 20
-1.0000000000000000E+20
 30
-1.0000000000000000E+20
  9
$PLIMMIN
 10
0.0
 20
0.0
  9
$PLIMMAX
 10
12.0
 20
9.0
  9
$UNITMODE
 70
     0
  9
$VISRETAIN
 70
     1
  9
$PLINEGEN
 70
     0
  9
$PSLTSCALE
 70
     1
  0
ENDSEC
  0
SECTION
  2
TABLES
  0
TABLE
  2
VPORT
 70
     1
  0
VPORT
  2
*ACTIVE
 70
     0
 10
0.0
 20
0.0
 11
1.0
 21
1.0
 12
15.8532613171490802
 22
3.7343702084734591
 13
0.0
 23
0.0
 14
1.0
 24
1.0
 15
0.0
 25
0.0
 16
0.0
 26
0.0
 36
24.7332413121020203
 17
103.0958557128905966
 27
-4.5597535845750086
 37
0.0
 40
8.6635678730783106
 41
2.887234042553191
 42
50.0
 43
0.0
 44
0.0
 50
0.0
 51
0.0
 71
     0
 72
   100
 73
     1
 74
     1
 75
     0
 76
     0
 77
     0
 78
     0
  0
ENDTAB
  0
TABLE
  2
LTYPE
 70
     2
  0
LTYPE
  2
CONTINUOUS
 70
     0
  3
Solid line
 72
    65
 73
     0
 40
0.0
  0
LTYPE
  2
PHANTOM2
 70
     0
  3
___ _ _ ___ _ _ ___ _ _ ___ _ _
 72
    65
 73
     6
 40
1.25
 49
0.625
 49
-0.125
 49
0.125
 49
-0.125
 49
0.125
 49
-0.125
  0
ENDTAB
  0
TABLE
  2
LAYER
 70
     2
  0
LAYER
  2
0
 70
     0
 62
   255
  6
CONTINUOUS
  0
LAYER
  2
DEFPOINTS
 70
     0
 62
     7
  6
CONTINUOUS
  0
ENDTAB
  0
TABLE
  2
STYLE
 70
     1
  0
STYLE
  2
STANDARD
 70
     0
 40
0.0
 41
0.8
 50
0.0
 71
     0
 42
0.2
  3
txt
  4

  0
ENDTAB
  0
TABLE
  2
VIEW
 70
     0
  0
ENDTAB
  0
TABLE
  2
UCS
 70
     0
  0
ENDTAB
  0
TABLE
  2
APPID
 70
     9
  0
APPID
  2
ACAD
 70
     0
  0
APPID
  2
ACAD_MLEADERVER
 70
     0
  0
APPID
  2
ACAD_EXEMPT_FROM_CAD_STANDARDS
 70
     0
  0
APPID
  2
ACAD_DSTYLE_DIMJAG
 70
     0
  0
APPID
  2
ACAD_DSTYLE_DIMTALN
 70
     0
  0
APPID
  2
ACAD_NAV_VCDISPLAY
 70
     0
  0
APPID
  2
ACAECLAYERSTANDARD
 70
     0
  0
APPID
  2
ACCMTRANSPARENCY
 70
     0
  0
APPID
  2
ACDBATTR
 70
     0
  0
ENDTAB
  0
TABLE
  2
DIMSTYLE
 70
     1
  0
DIMSTYLE
  2
STANDARD
 70
     0
  3

  4

  5

  6

  7

 40
1.0
 41
0.1875
 42
0.0625
 43
0.38
 44
0.125
 45
0.0
 46
0.0
 47
0.01
 48
0.01
140
0.15625
141
0.09
142
0.0
143
25.3999999999999986
144
1.0
145
0.0
146
1.0
147
0.09
 71
     1
 72
     0
 73
     1
 74
     1
 75
     0
 76
     0
 77
     0
 78
     4
170
     0
171
     2
172
     0
173
     0
174
     0
175
     0
176
     0
177
     0
178
     0
  0
ENDTAB
  0
ENDSEC
  0
SECTION
  2
BLOCKS
  0
BLOCK
  8
0
  2
$MODEL_SPACE
 70
     0
 10
0.0
 20
0.0
 30
0.0
  3
$MODEL_SPACE
  1

  0
ENDBLK
  5
21
  8
0
  0
BLOCK
 67
     1
  8
0
  2
$PAPER_SPACE
 70
     0
 10
0.0
 20
0.0
 30
0.0
  3
$PAPER_SPACE
  1

  0
ENDBLK
  5
1D
 67
     1
  8
0
  0
ENDSEC
  0
SECTION
  2
ENTITIES
  0
ATTDEF
  5
383D
  8
DEFPOINTS
 10
118.7050391983678992
 20
1.8510186140831411
 30
0.0
 40
0.001
  1
K-72298IN-4
  3

  2
MODELNUMBER
 70
     0
1001
ACDBATTR
1070
     0
1070
     1
  0
ATTDEF
  5
383E
  8
DEFPOINTS
 10
118.7050391983678992
 20
1.8493519474164759
 30
0.0
 40
0.001
  1
ALEO
  3

  2
TRADENAME
 70
     0
1001
ACDBATTR
1070
     0
1070
     1
  0
ATTDEF
  5
383F
  8
DEFPOINTS
 10
118.7050391983678992
 20
1.847685280749811
 30
0.0
 40
0.001
  1
BATHROOM SINK FAUCET
  3

  2
PRODUCT
 70
     0
1001
ACDBATTR
1070
     0
1070
     1
  0
ARC
  5
7E67
  8
0
 10
118.5467882145979956
 20
1.9082041368019269
 30
0.0
 40
1.1565263160794399
 50
1.568614336806643
 51
34.8306063368265271
  0
ARC
  5
7E68
  8
0
 10
113.3127531246195048
 20
-3.824998904363631
 30
0.0
 40
6.1943548222992977
 50
352.7397222120412721
 51
357.0779852604580924
  0
ARC
  5
7E69
  8
0
 10
118.5199422943423002
 20
-4.4824040252005801
 30
0.0
 40
0.9458531393847021
 50
340.6551004679936909
 51
352.3802476431284276
  0
ARC
  5
7E6A
  8
0
 10
119.0401806463909935
 20
-4.6571824906563393
 30
0.0
 40
0.3971598583872093
 50
316.7031655538020232
 51
339.5845695243397131
  0
ARC
  5
7E6B
  8
0
 10
118.9874755631568064
 20
-4.6078215602056778
 30
0.0
 40
0.4693698772591059
 50
287.129728895527478
 51
316.7298479301957173
  0
ARC
  5
7E6C
  8
0
 10
118.8425733801577024
 20
-4.1652179859141176
 30
0.0
 40
0.935053823071258
 50
273.4127489447034804
 51
287.6267756965128797
  0
ARC
  5
7E6D
  8
0
 10
118.8503225645376062
 20
-0.4476216245761436
 30
0.0
 40
1.182567951217433
 50
272.1018284586716049
 51
283.3495747707304986
  0
ARC
  5
7E6E
  8
0
 10
118.9855746908608012
 20
-1.0318783021949109
 30
0.0
 40
0.5828789687444611
 50
283.67420230458589
 51
300.563545461410115
  0
ARC
  5
7E6F
  8
0
 10
119.0722691899801049
 20
-1.1803176572743721
 30
0.0
 40
0.4109801631534254
 50
300.6793707556689128
 51
321.5263485627339151
  0
ARC
  5
7E70
  8
0
 10
118.9703552236168065
 20
-1.115528176065971
 30
0.0
 40
0.5312285323609593
 50
322.8943991623116858
 51
345.4980005565079182
  0
ARC
  5
7E71
  8
0
 10
117.6262998011253984
 20
-0.817942423564574
 30
0.0
 40
1.9075962246322491
 50
346.9538521647564835
 51
355.487626133527101
  0
ARC
  5
7E72
  8
0
 10
894.9085966274949442
 20
-44.2798013275482703
 30
0.0
 40
776.58934192875995
 50
176.5897177142479109
 51
176.8028527385274913
  0
ARC
  5
7E73
  8
0
 10
118.4736267501098013
 20
1.9607041411077679
 30
0.0
 40
1.2216542213400601
 50
357.9036874657824114
 51
6.5353666719391619
  0
ARC
  5
7E74
  8
0
 10
124.1070101953022942
 20
-3.824998904363631
 30
0.0
 40
6.1943548222992977
 50
182.9238127732589021
 51
187.2602777879585858
  0
ARC
  5
7E75
  8
0
 10
118.8998210255793992
 20
-4.4824040252005801
 30
0.0
 40
0.9458531393847021
 50
187.6197523568710892
 51
199.3448995320059112
  0
ARC
  5
7E76
  8
0
 10
118.3795826735308054
 20
-4.6571824906563393
 30
0.0
 40
0.3971598583872093
 50
200.4154304756596048
 51
223.2968344461980053
  0
ARC
  5
7E77
  8
0
 10
118.4322877567648931
 20
-4.6078215602056778
 30
0.0
 40
0.4693698772591059
 50
223.2701520698039985
 51
252.8702711044724936
  0
ARC
  5
7E78
  8
0
 10
118.5771899397640965
 20
-4.1652179859141176
 30
0.0
 40
0.935053823071258
 50
252.3732243034862108
 51
266.5872510552965196
  0
ARC
  5
7E79
  8
0
 10
118.5694407553840932
 20
-0.4476216245761436
 30
0.0
 40
1.182567951217433
 50
256.6504252292693877
 51
267.8981715413283951
  0
ARC
  5
7E7A
  8
0
 10
118.4341886290609978
 20
-1.0318783021949109
 30
0.0
 40
0.5828789687444611
 50
239.4364545385897998
 51
256.3257976954139963
  0
ARC
  5
7E7B
  8
0
 10
118.347494129941694
 20
-1.1803176572743721
 30
0.0
 40
0.4109801631534254
 50
218.4736514372659997
 51
239.3206292443310872
  0
ARC
  5
7E7C
  8
0
 10
118.4494080963050067
 20
-1.115528176065971
 30
0.0
 40
0.5312285323609593
 50
194.5019994434919113
 51
217.1056008376883142
  0
ARC
  5
7E7D
  8
0
 10
119.7934635187964005
 20
-0.817942423564574
 30
0.0
 40
1.9075962246322491
 50
184.5123738664728137
 51
193.0461478352426923
  0
ARC
  5
7E7E
  8
0
 10
-657.4888333075731452
 20
-44.2798013275482703
 30
0.0
 40
776.58934192875995
 50
3.1971472614720602
 51
3.4102822857521118
  0
ARC
  5
7E7F
  8
0
 10
118.9461365698118982
 20
1.9607041411077679
 30
0.0
 40
1.221654221340067
 50
173.5700505796463915
 51
182.0963125342171054
  0
ARC
  5
7E80
  8
0
 10
118.7098816599608995
 20
-0.2599516734087288
 30
0.0
 40
4.8423265488659251
 50
267.7707789783781891
 51
272.2292210216218109
  0
ARC
  5
7E81
  8
0
 10
118.7098816599608995
 20
2.5775390800905451
 30
0.0
 40
4.2109467660646986
 50
267.4981835119849052
 51
272.5018164880150948
  0
ARC
  5
7E82
  8
0
 10
118.7098816599608995
 20
1.9789880207374391
 30
0.0
 40
0.9828487569879026
 50
36.8742210697541992
 51
143.1257789302457866
  0
ARC
  5
7E83
  8
0
 10
118.8696681311565015
 20
1.909836071380375
 30
0.0
 40
1.1528798533372471
 50
145.1420984847866009
 51
179.2594884432789115
  0
ARC
  5
7E84
  8
0
 10
423.6912560066850801
 20
9.0863384654327817
 30
0.0
 40
306.0581718085126113
 50
181.3408139164579893
 51
182.13980178949231
  0
ARC
  5
7E85
  8
0
 10
335.3624607119493248
 20
5.7275787128175821
 30
0.0
 40
217.6655672036548879
 50
182.1244278066037054
 51
182.5985715207320936
  0
ARC
  5
7E86
  8
0
 10
-179.3450710599144031
 20
8.8514442695926974
 30
0.0
 40
299.1278115915965259
 50
357.8556227065479902
 51
358.6760185177963081
  0
ARC
  5
7E87
  8
0
 10
-97.9426962904097564
 20
5.7275787128175821
 30
0.0
 40
217.6655672036548879
 50
357.4014796339765212
 51
357.875572193395783
  0
LINE
  5
7E88
  8
0
 10
119.4589479770040015
 20
2.6152987402637282
 30
0.0
 11
120.1721196234368989
 21
3.328470386696615
 31
0.0
  0
LINE
  5
7E89
  8
0
 10
119.3477051159767939
 20
2.7267666765364669
 30
0.0
 11
120.0607642248369018
 21
3.4398257853965641
 31
0.0
  0
LINE
  5
7E8A
  8
0
 10
120.1164842392194032
 20
3.439825785371549
 30
0.0
 11
120.1721196234619953
 21
3.3841904010290982
 31
0.0
  0
ARC
  5
7E8B
  8
0
 10
120.0886242320156043
 20
3.411965778217819
 30
0.0
 40
0.0394
 50
44.9999999485477389
 51
135.0000000000027001
  0
ARC
  5
7E8C
  8
0
 10
120.1442596162581964
 20
3.3563303938753641
 30
0.0
 40
0.0394
 50
314.9999999999960778
 51
44.9999999485578925
  0
ENDSEC
  0
EOF
