  0
SECTION
  2
HEADER
  9
$ACADVER
  1
AC1009
  9
$INSBASE
 10
160.6280036815290089
 20
2.3299224903526312
 30
0.0
  9
$EXTMIN
 10
159.6270176870044963
 20
-2.3828371512402269
 30
-0.0000000000000058
  9
$EXTMAX
 10
161.6212070493249087
 20
3.3146496829538061
 30
0.0000000000000104
  9
$LIMMIN
 10
0.0
 20
0.0
  9
$LIMMAX
 10
11.6929133858000007
 20
8.2677165353999982
  9
$ORTHOMODE
 70
     0
  9
$REGENMODE
 70
     1
  9
$FILLMODE
 70
     1
  9
$QTEXTMODE
 70
     0
  9
$MIRRTEXT
 70
     0
  9
$DRAGMODE
 70
     2
  9
$LTSCALE
 40
0.6431102362
  9
$OSMODE
 70
  4095
  9
$ATTMODE
 70
     1
  9
$TEXTSIZE
 40
0.2
  9
$TRACEWID
 40
0.05
  9
$TEXTSTYLE
  7
STANDARD
  9
$CLAYER
  8
0
  9
$CELTYPE
  6
BYLAYER
  9
$CECOLOR
 62
   256
  9
$DIMSCALE
 40
1.0
  9
$DIMASZ
 40
0.1875
  9
$DIMEXO
 40
0.0625
  9
$DIMDLI
 40
0.4443307087
  9
$DIMRND
 40
0.0
  9
$DIMDLE
 40
0.0
  9
$DIMEXE
 40
0.125
  9
$DIMTP
 40
0.01
  9
$DIMTM
 40
0.01
  9
$DIMTXT
 40
1.0
  9
$DIMCEN
 40
0.1052362205
  9
$DIMTSZ
 40
0.0
  9
$DIMTOL
 70
     1
  9
$DIMLIM
 70
     0
  9
$DIMTIH
 70
     1
  9
$DIMTOH
 70
     1
  9
$DIMSE1
 70
     0
  9
$DIMSE2
 70
     0
  9
$DIMTAD
 70
     0
  9
$DIMZIN
 70
     0
  9
$DIMBLK
  1

  9
$DIMASO
 70
     1
  9
$DIMSHO
 70
     1
  9
$DIMPOST
  1
\X
  9
$DIMAPOST
  1

  9
$DIMALT
 70
     1
  9
$DIMALTD
 70
     2
  9
$DIMALTF
 40
25.3999999999999986
  9
$DIMLFAC
 40
1.0
  9
$DIMTOFL
 70
     0
  9
$DIMTVP
 40
0.0
  9
$DIMTIX
 70
     0
  9
$DIMSOXD
 70
     0
  9
$DIMSAH
 70
     0
  9
$DIMBLK1
  1

  9
$DIMBLK2
  1

  9
$DIMSTYLE
  2
STANDARD
  9
$DIMCLRD
 70
     0
  9
$DIMCLRE
 70
     0
  9
$DIMCLRT
 70
     0
  9
$DIMTFAC
 40
1.0
  9
$DIMGAP
 40
0.09
  9
$LUNITS
 70
     2
  9
$LUPREC
 70
     4
  9
$SKETCHINC
 40
0.1
  9
$FILLETRAD
 40
0.0
  9
$AUNITS
 70
     0
  9
$AUPREC
 70
     0
  9
$MENU
  1
.
  9
$ELEVATION
 40
0.0
  9
$PELEVATION
 40
0.0
  9
$THICKNESS
 40
0.0
  9
$LIMCHECK
 70
     0
  9
$BLIPMODE
 70
     0
  9
$CHAMFERA
 40
0.0
  9
$CHAMFERB
 40
0.0
  9
$SKPOLY
 70
     0
  9
$TDCREATE
 40
2458172.4620254631154239
  9
$TDUPDATE
 40
2459660.6081944438628852
  9
$TDINDWG
 40
0.1106772338
  9
$TDUSRTIMER
 40
0.1106772338
  9
$USRTIMER
 70
     1
  9
$ANGBASE
 50
0.0
  9
$ANGDIR
 70
     0
  9
$PDMODE
 70
     0
  9
$PDSIZE
 40
0.3125
  9
$PLINEWID
 40
0.0
  9
$COORDS
 70
     1
  9
$SPLFRAME
 70
     0
  9
$SPLINETYPE
 70
     6
  9
$SPLINESEGS
 70
     8
  9
$ATTDIA
 70
     1
  9
$ATTREQ
 70
     1
  9
$HANDLING
 70
     1
  9
$HANDSEED
  5
9A6A
  9
$SURFTAB1
 70
     6
  9
$SURFTAB2
 70
     6
  9
$SURFTYPE
 70
     6
  9
$SURFU
 70
     6
  9
$SURFV
 70
     6
  9
$UCSNAME
  2

  9
$UCSORG
 10
0.0
 20
0.0
 30
0.0
  9
$UCSXDIR
 10
1.0
 20
0.0
 30
0.0
  9
$UCSYDIR
 10
0.0
 20
1.0
 30
0.0
  9
$PUCSNAME
  2

  9
$PUCSORG
 10
0.0
 20
0.0
 30
0.0
  9
$PUCSXDIR
 10
1.0
 20
0.0
 30
0.0
  9
$PUCSYDIR
 10
0.0
 20
1.0
 30
0.0
  9
$USERI1
 70
     0
  9
$USERI2
 70
     0
  9
$USERI3
 70
     0
  9
$USERI4
 70
     0
  9
$USERI5
 70
     0
  9
$USERR1
 40
0.0
  9
$USERR2
 40
0.0
  9
$USERR3
 40
0.0
  9
$USERR4
 40
0.0
  9
$USERR5
 40
0.0
  9
$WORLDVIEW
 70
     1
  9
$SHADEDGE
 70
     3
  9
$SHADEDIF
 70
    70
  9
$TILEMODE
 70
     1
  9
$MAXACTVP
 70
    64
  9
$PLIMCHECK
 70
     0
  9
$PEXTMIN
 10
1.0000000000000000E+20
 20
1.0000000000000000E+20
 30
1.0000000000000000E+20
  9
$PEXTMAX
 10
-1.0000000000000000E+20
 20
-1.0000000000000000E+20
 30
-1.0000000000000000E+20
  9
$PLIMMIN
 10
0.0
 20
0.0
  9
$PLIMMAX
 10
12.0
 20
9.0
  9
$UNITMODE
 70
     0
  9
$VISRETAIN
 70
     1
  9
$PLINEGEN
 70
     0
  9
$PSLTSCALE
 70
     1
  0
ENDSEC
  0
SECTION
  2
TABLES
  0
TABLE
  2
VPORT
 70
     1
  0
VPORT
  2
*ACTIVE
 70
     0
 10
0.0
 20
0.0
 11
1.0
 21
1.0
 12
57.5282566552740988
 22
5.025659850431798
 13
0.0
 23
0.0
 14
1.0
 24
1.0
 15
0.0
 25
0.0
 16
0.0
 26
0.0
 36
24.7332413121020203
 17
103.0958557128905966
 27
-4.5597535845750086
 37
0.0
 40
5.7426452503171053
 41
1.67063492063492
 42
50.0
 43
0.0
 44
0.0
 50
0.0
 51
0.0
 71
     0
 72
   100
 73
     1
 74
     1
 75
     0
 76
     0
 77
     0
 78
     0
  0
ENDTAB
  0
TABLE
  2
LTYPE
 70
     2
  0
LTYPE
  2
CONTINUOUS
 70
     0
  3
Solid line
 72
    65
 73
     0
 40
0.0
  0
LTYPE
  2
PHANTOM2
 70
     0
  3
___ _ _ ___ _ _ ___ _ _ ___ _ _
 72
    65
 73
     6
 40
1.25
 49
0.625
 49
-0.125
 49
0.125
 49
-0.125
 49
0.125
 49
-0.125
  0
ENDTAB
  0
TABLE
  2
LAYER
 70
     2
  0
LAYER
  2
0
 70
     0
 62
   255
  6
CONTINUOUS
  0
LAYER
  2
DEFPOINTS
 70
     0
 62
     7
  6
CONTINUOUS
  0
ENDTAB
  0
TABLE
  2
STYLE
 70
     1
  0
STYLE
  2
STANDARD
 70
     0
 40
0.0
 41
0.8
 50
0.0
 71
     0
 42
0.2
  3
txt
  4

  0
ENDTAB
  0
TABLE
  2
VIEW
 70
     0
  0
ENDTAB
  0
TABLE
  2
UCS
 70
     0
  0
ENDTAB
  0
TABLE
  2
APPID
 70
     9
  0
APPID
  2
ACAD
 70
     0
  0
APPID
  2
ACAD_MLEADERVER
 70
     0
  0
APPID
  2
ACAD_EXEMPT_FROM_CAD_STANDARDS
 70
     0
  0
APPID
  2
ACAD_DSTYLE_DIMJAG
 70
     0
  0
APPID
  2
ACAD_DSTYLE_DIMTALN
 70
     0
  0
APPID
  2
ACAD_NAV_VCDISPLAY
 70
     0
  0
APPID
  2
ACAECLAYERSTANDARD
 70
     0
  0
APPID
  2
ACCMTRANSPARENCY
 70
     0
  0
APPID
  2
ACDBATTR
 70
     0
  0
ENDTAB
  0
TABLE
  2
DIMSTYLE
 70
     1
  0
DIMSTYLE
  2
STANDARD
 70
     0
  3

  4

  5

  6

  7

 40
1.0
 41
0.1875
 42
0.0625
 43
0.38
 44
0.125
 45
0.0
 46
0.0
 47
0.01
 48
0.01
140
0.15625
141
0.09
142
0.0
143
25.3999999999999986
144
1.0
145
0.0
146
1.0
147
0.09
 71
     1
 72
     0
 73
     1
 74
     1
 75
     0
 76
     0
 77
     0
 78
     4
170
     0
171
     2
172
     0
173
     0
174
     0
175
     0
176
     0
177
     0
178
     0
  0
ENDTAB
  0
ENDSEC
  0
SECTION
  2
BLOCKS
  0
BLOCK
  8
0
  2
$MODEL_SPACE
 70
     0
 10
0.0
 20
0.0
 30
0.0
  3
$MODEL_SPACE
  1

  0
ENDBLK
  5
21
  8
0
  0
BLOCK
 67
     1
  8
0
  2
$PAPER_SPACE
 70
     0
 10
0.0
 20
0.0
 30
0.0
  3
$PAPER_SPACE
  1

  0
ENDBLK
  5
1D
 67
     1
  8
0
  0
ENDSEC
  0
SECTION
  2
ENTITIES
  0
ATTDEF
  5
383D
  8
DEFPOINTS
 10
160.6225209466512922
 20
2.3284217347320642
 30
0.0
 40
0.001
  1
K-72312IN-4ND
  3

  2
MODELNUMBER
 70
     0
1001
ACDBATTR
1070
     0
1070
     1
  0
ATTDEF
  5
383E
  8
DEFPOINTS
 10
160.6225209466512922
 20
2.326755068065399
 30
0.0
 40
0.001
  1
ALEO
  3

  2
TRADENAME
 70
     0
1001
ACDBATTR
1070
     0
1070
     1
  0
ATTDEF
  5
383F
  8
DEFPOINTS
 10
160.6225209466512922
 20
2.325088401398733
 30
0.0
 40
0.001
  1
BATHROOM SINK FAUCET
  3

  2
PRODUCT
 70
     0
1001
ACDBATTR
1070
     0
1070
     1
  0
ARC
  5
99B6
  8
0
 10
160.3712397510946062
 20
-13.6303169888781603
 30
0.0
 40
11.2506491316444297
 50
88.692300813248707
 51
89.3882910906470443
  0
ARC
  5
99B7
  8
0
 10
160.5342660084035913
 20
-1.1586794359622961
 30
0.0
 40
1.222383091865044
 50
259.3984527132471953
 51
267.9881673318894855
  0
ARC
  5
99B8
  8
0
 10
160.4416086274478062
 20
-1.653715835843852
 30
0.0
 40
0.7187498647510385
 50
247.8911865505073138
 51
259.3984527132471953
  0
ARC
  5
99B9
  8
0
 10
160.3449204504304078
 20
-1.8917250657598119
 30
0.0
 40
0.4618510576301233
 50
224.2351971417733125
 51
247.8911865505073138
  0
ARC
  5
99BA
  8
0
 10
160.3098089718687049
 20
-1.9259114783970379
 30
0.0
 40
0.4128456830698407
 50
194.5511203003001981
 51
224.2351971417712093
  0
ARC
  5
99BB
  8
0
 10
161.3854943895163103
 20
-1.6466961414472061
 30
0.0
 40
1.5241783614915121
 50
186.6519917052567052
 51
194.5511203003001981
  0
ARC
  5
99BC
  8
0
 10
165.7235139890624964
 20
-1.1407805964085449
 30
0.0
 40
5.8915991775748733
 50
182.6667179598925941
 51
186.6519917052567052
  0
ARC
  5
99BD
  8
0
 10
579.4788957418760447
 20
23.8261890785849317
 30
0.0
 40
420.3990319703262912
 50
182.9447875838885125
 51
183.4421531877283087
  0
ARC
  5
99BE
  8
0
 10
160.6319050193467035
 20
2.3200246640938511
 30
0.0
 40
0.9941559414711644
 50
90.2251486758790406
 51
127.7787303805056069
  0
ARC
  5
99BF
  8
0
 10
160.6021324009504099
 20
2.3570416678567638
 30
0.0
 40
0.9466596223485731
 50
127.7270044300678933
 51
158.0483457099722955
  0
ARC
  5
99C0
  8
0
 10
160.8253785051284979
 20
2.2670634350828189
 30
0.0
 40
1.187356330684606
 50
158.0483457099722955
 51
173.2878636872819129
  0
ARC
  5
99C1
  8
0
 10
161.2725987868182074
 20
2.214435539454557
 30
0.0
 40
1.6376625328834009
 50
173.2880183919257036
 51
179.4984357590466004
  0
ARC
  5
99C2
  8
0
 10
160.6280036815290089
 20
2.3299224903526312
 30
0.0
 40
0.9643602303999996
 50
301.5034861436926121
 51
238.4957586611660076
  0
ARC
  5
99C3
  8
0
 10
160.6278998472691057
 20
0.2067551672555528
 30
0.0
 40
1.704409783746772
 50
265.4339276366536069
 51
270.0033132516308001
  0
ARC
  5
99C4
  8
0
 10
160.5346929497999895
 20
-0.960342314688388
 30
0.0
 40
0.5335963664612869
 50
256.9211447550222829
 51
265.4339276366536069
  0
ARC
  5
99C5
  8
0
 10
160.46331737673421
 20
-1.2855077547595051
 30
0.0
 40
0.2007551775529887
 50
206.0218483258115896
 51
255.7628416755080139
  0
ARC
  5
99C6
  8
0
 10
160.7779856936892031
 20
-1.1724281563126031
 30
0.0
 40
0.5343775693740324
 50
181.0687926281929947
 51
202.1124831928603101
  0
ARC
  5
99C7
  8
0
 10
2278.0014228141740205
 20
94.3468984196779274
 30
0.0
 40
2119.911227848956969
 50
182.4922870005495952
 51
182.5827871705585039
  0
ARC
  5
99C8
  8
0
 10
176.796869474957191
 20
2.613317927100526
 30
0.0
 40
16.70749340299189
 50
180.0508862490895012
 51
181.545254313958992
  0
ARC
  5
99C9
  8
0
 10
168.4298385363786963
 20
2.485200223307559
 30
0.0
 40
8.3412251132975648
 50
176.7897688414805941
 51
179.2218623060153107
  0
ARC
  5
99CA
  8
0
 10
160.4151053617970888
 20
2.9314801237667201
 30
0.0
 40
0.3140939840162477
 50
140.9403501261377869
 51
176.1980353494180918
  0
ARC
  5
99CB
  8
0
 10
160.3777103709761036
 20
2.9296414372678341
 30
0.0
 40
0.2873047544085308
 50
103.7621002142814035
 51
135.9501319901146985
  0
ARC
  5
99CC
  8
0
 10
160.5706399919141916
 20
2.288042224315221
 30
0.0
 40
0.9570125505397866
 50
94.7621537571879884
 51
105.8436353458381944
  0
ARC
  5
99CD
  8
0
 10
160.6261342159241963
 20
1.7587915238735989
 30
0.0
 40
1.489086707173398
 50
89.9282712080436255
 51
95.199430230187744
  0
ARC
  5
99CE
  8
0
 10
170.5560506617908061
 20
-590.9671360610029751
 30
0.0
 40
588.6682636115858713
 50
90.9530531932975066
 51
90.9663549028836513
  0
ARC
  5
99CF
  8
0
 10
160.7217308084545095
 20
-1.1586794359622961
 30
0.0
 40
1.222383091865044
 50
272.0118326681105145
 51
280.6015472867509857
  0
ARC
  5
99D0
  8
0
 10
160.8143881894102094
 20
-1.653715835843852
 30
0.0
 40
0.7187498647510385
 50
280.6015472867528047
 51
292.1088134494926862
  0
ARC
  5
99D1
  8
0
 10
160.9110763664276931
 20
-1.8917250657598119
 30
0.0
 40
0.4618510576301233
 50
292.1088134494909241
 51
315.7648028582264033
  0
ARC
  5
99D2
  8
0
 10
160.9461878449893959
 20
-1.9259114783970379
 30
0.0
 40
0.4128456830698407
 50
315.7648028582286202
 51
345.4488796996978976
  0
ARC
  5
99D3
  8
0
 10
159.8705024273417052
 20
-1.6466961414472061
 30
0.0
 40
1.5241783614915121
 50
345.4488796996978976
 51
353.3480082947430105
  0
ARC
  5
99D4
  8
0
 10
155.5324828277954907
 20
-1.1407805964085449
 30
0.0
 40
5.8915991775748733
 50
353.3480082947430105
 51
357.3332820401063259
  0
ARC
  5
99D5
  8
0
 10
-258.2228989250181144
 20
23.8261890785849317
 30
0.0
 40
420.3990319703262912
 50
356.5578468122712934
 51
357.055212416111317
  0
ARC
  5
99D6
  8
0
 10
160.6240917975113973
 20
2.3200246640938511
 30
0.0
 40
0.9941559414711644
 50
52.2212696194944002
 51
89.7748513241209736
  0
ARC
  5
99D7
  8
0
 10
160.6538644159076057
 20
2.3570416678567638
 30
0.0
 40
0.9466596223485731
 50
21.951654290027701
 51
52.2729955699319504
  0
ARC
  5
99D8
  8
0
 10
160.4306183117294893
 20
2.2670634350828189
 30
0.0
 40
1.187356330684606
 50
6.7121363127180533
 51
21.951654290027701
  0
ARC
  5
99D9
  8
0
 10
159.9833980300398082
 20
2.214435539454557
 30
0.0
 40
1.6376625328834009
 50
0.501564240953414
 51
6.711981608074284
  0
ARC
  5
99DA
  8
0
 10
160.6280969695889098
 20
0.2067551672555528
 30
0.0
 40
1.704409783746772
 50
269.9966867483772717
 51
274.5660723633462794
  0
ARC
  5
99DB
  8
0
 10
160.7213038670581113
 20
-0.960342314688388
 30
0.0
 40
0.5335963664612869
 50
274.5660723633462794
 51
283.0788552449777171
  0
ARC
  5
99DC
  8
0
 10
160.7926794401238055
 20
-1.2855077547595051
 30
0.0
 40
0.2007551775529887
 50
284.2371583244919861
 51
333.9781516741882115
  0
ARC
  5
99DD
  8
0
 10
160.4780111231688124
 20
-1.1724281563126031
 30
0.0
 40
0.5343775693740324
 50
337.8875168071392068
 51
358.9312073718066927
  0
ARC
  5
99DE
  8
0
 10
-1956.7454259973148964
 20
94.3468984196779274
 30
0.0
 40
2119.911227848956969
 50
357.4172128294412119
 51
357.5077129994501206
  0
ARC
  5
99DF
  8
0
 10
144.4591273419007962
 20
2.613317927100526
 30
0.0
 40
16.70749340299189
 50
358.4547456860408943
 51
359.9491137509103851
  0
ARC
  5
99E0
  8
0
 10
152.8261582804792909
 20
2.485200223307559
 30
0.0
 40
8.3412251132975648
 50
0.7781376939838575
 51
3.2102311585193859
  0
ARC
  5
99E1
  8
0
 10
160.8408914550608984
 20
2.9314801237667201
 30
0.0
 40
0.3140939840162477
 50
3.8019646505817821
 51
39.059649873862071
  0
ARC
  5
99E2
  8
0
 10
160.8782864458819972
 20
2.9296414372678341
 30
0.0
 40
0.2873047544085308
 50
44.0498680098853725
 51
76.2378997857169054
  0
ARC
  5
99E3
  8
0
 10
160.6853568249439093
 20
2.288042224315221
 30
0.0
 40
0.9570125505397866
 50
74.1563646541617487
 51
85.2378462428104058
  0
ARC
  5
99E4
  8
0
 10
160.6298626009337909
 20
1.7587915238735989
 30
0.0
 40
1.489086707173398
 50
84.8005697698122844
 51
90.0717287919563887
  0
ENDSEC
  0
EOF
