  0
SECTION
  2
HEADER
  9
$ACADVER
  1
AC1009
  9
$INSBASE
 10
4260.4542759905098137
 20
222.0723130717514096
 30
0.0
  9
$EXTMIN
 10
4252.423330621995774
 20
222.0548330322421009
 30
-0.0015258207003583
  9
$EXTMAX
 10
4268.7066523003550174
 20
230.3867668554237014
 30
0.0000000349246037
  9
$LIMMIN
 10
0.0
 20
0.0
  9
$LIMMAX
 10
11.6929133858000007
 20
8.2677165353999982
  9
$ORTHOMODE
 70
     0
  9
$REGENMODE
 70
     1
  9
$FILLMODE
 70
     1
  9
$QTEXTMODE
 70
     0
  9
$MIRRTEXT
 70
     0
  9
$DRAGMODE
 70
     2
  9
$LTSCALE
 40
0.6431102362
  9
$OSMODE
 70
  4095
  9
$ATTMODE
 70
     1
  9
$TEXTSIZE
 40
0.2
  9
$TRACEWID
 40
0.05
  9
$TEXTSTYLE
  7
STANDARD
  9
$CLAYER
  8
0
  9
$CELTYPE
  6
BYLAYER
  9
$CECOLOR
 62
   256
  9
$DIMSCALE
 40
1.0
  9
$DIMASZ
 40
0.1875
  9
$DIMEXO
 40
0.0625
  9
$DIMDLI
 40
0.4443307087
  9
$DIMRND
 40
0.0
  9
$DIMDLE
 40
0.0
  9
$DIMEXE
 40
0.125
  9
$DIMTP
 40
0.01
  9
$DIMTM
 40
0.01
  9
$DIMTXT
 40
2.0
  9
$DIMCEN
 40
0.1052362205
  9
$DIMTSZ
 40
0.0
  9
$DIMTOL
 70
     1
  9
$DIMLIM
 70
     0
  9
$DIMTIH
 70
     1
  9
$DIMTOH
 70
     1
  9
$DIMSE1
 70
     0
  9
$DIMSE2
 70
     0
  9
$DIMTAD
 70
     0
  9
$DIMZIN
 70
     0
  9
$DIMBLK
  1

  9
$DIMASO
 70
     1
  9
$DIMSHO
 70
     1
  9
$DIMPOST
  1
\X
  9
$DIMAPOST
  1

  9
$DIMALT
 70
     1
  9
$DIMALTD
 70
     2
  9
$DIMALTF
 40
25.3999999999999986
  9
$DIMLFAC
 40
1.0
  9
$DIMTOFL
 70
     0
  9
$DIMTVP
 40
0.0
  9
$DIMTIX
 70
     0
  9
$DIMSOXD
 70
     0
  9
$DIMSAH
 70
     0
  9
$DIMBLK1
  1

  9
$DIMBLK2
  1

  9
$DIMSTYLE
  2
STANDARD
  9
$DIMCLRD
 70
     0
  9
$DIMCLRE
 70
     0
  9
$DIMCLRT
 70
     0
  9
$DIMTFAC
 40
1.0
  9
$DIMGAP
 40
0.09
  9
$LUNITS
 70
     2
  9
$LUPREC
 70
     4
  9
$SKETCHINC
 40
0.1
  9
$FILLETRAD
 40
0.0
  9
$AUNITS
 70
     0
  9
$AUPREC
 70
     0
  9
$MENU
  1
.
  9
$ELEVATION
 40
0.0
  9
$PELEVATION
 40
0.0
  9
$THICKNESS
 40
0.0
  9
$LIMCHECK
 70
     0
  9
$BLIPMODE
 70
     0
  9
$CHAMFERA
 40
0.0
  9
$CHAMFERB
 40
0.0
  9
$SKPOLY
 70
     0
  9
$TDCREATE
 40
2458060.468368056230247
  9
$TDUPDATE
 40
2459214.6151851858012378
  9
$TDINDWG
 40
0.6158519676
  9
$TDUSRTIMER
 40
0.6158519676
  9
$USRTIMER
 70
     1
  9
$ANGBASE
 50
0.0
  9
$ANGDIR
 70
     0
  9
$PDMODE
 70
     0
  9
$PDSIZE
 40
0.3125
  9
$PLINEWID
 40
0.0
  9
$COORDS
 70
     1
  9
$SPLFRAME
 70
     0
  9
$SPLINETYPE
 70
     6
  9
$SPLINESEGS
 70
     8
  9
$ATTDIA
 70
     1
  9
$ATTREQ
 70
     1
  9
$HANDLING
 70
     1
  9
$HANDSEED
  5
12199
  9
$SURFTAB1
 70
     6
  9
$SURFTAB2
 70
     6
  9
$SURFTYPE
 70
     6
  9
$SURFU
 70
     6
  9
$SURFV
 70
     6
  9
$UCSNAME
  2

  9
$UCSORG
 10
0.0
 20
0.0
 30
0.0
  9
$UCSXDIR
 10
1.0
 20
0.0
 30
0.0
  9
$UCSYDIR
 10
0.0
 20
1.0
 30
0.0
  9
$PUCSNAME
  2

  9
$PUCSORG
 10
0.0
 20
0.0
 30
0.0
  9
$PUCSXDIR
 10
1.0
 20
0.0
 30
0.0
  9
$PUCSYDIR
 10
0.0
 20
1.0
 30
0.0
  9
$USERI1
 70
     0
  9
$USERI2
 70
     0
  9
$USERI3
 70
     0
  9
$USERI4
 70
     0
  9
$USERI5
 70
     0
  9
$USERR1
 40
0.0
  9
$USERR2
 40
0.0
  9
$USERR3
 40
0.0
  9
$USERR4
 40
0.0
  9
$USERR5
 40
0.0
  9
$WORLDVIEW
 70
     1
  9
$SHADEDGE
 70
     3
  9
$SHADEDIF
 70
    70
  9
$TILEMODE
 70
     1
  9
$MAXACTVP
 70
    64
  9
$PLIMCHECK
 70
     0
  9
$PEXTMIN
 10
1.0000000000000000E+20
 20
1.0000000000000000E+20
 30
1.0000000000000000E+20
  9
$PEXTMAX
 10
-1.0000000000000000E+20
 20
-1.0000000000000000E+20
 30
-1.0000000000000000E+20
  9
$PLIMMIN
 10
0.0
 20
0.0
  9
$PLIMMAX
 10
12.0
 20
9.0
  9
$UNITMODE
 70
     0
  9
$VISRETAIN
 70
     1
  9
$PLINEGEN
 70
     0
  9
$PSLTSCALE
 70
     1
  0
ENDSEC
  0
SECTION
  2
TABLES
  0
TABLE
  2
VPORT
 70
     1
  0
VPORT
  2
*ACTIVE
 70
     0
 10
0.0
 20
0.0
 11
1.0
 21
1.0
 12
99.0085949768008646
 22
0.1099677294774324
 13
0.0
 23
0.0
 14
1.0
 24
1.0
 15
0.0
 25
0.0
 16
0.0
 26
0.0
 36
202.37134017897489
 17
4161.556396484375
 27
226.1108322143554972
 37
0.0
 40
8.4487366337870071
 41
3.0070257611241211
 42
50.0
 43
0.0
 44
0.0
 50
0.0
 51
0.0
 71
     0
 72
   100
 73
     1
 74
     1
 75
     0
 76
     0
 77
     0
 78
     0
  0
ENDTAB
  0
TABLE
  2
LTYPE
 70
     2
  0
LTYPE
  2
CONTINUOUS
 70
     0
  3
Solid line
 72
    65
 73
     0
 40
0.0
  0
LTYPE
  2
PHANTOM2
 70
     0
  3
___ _ _ ___ _ _ ___ _ _ ___ _ _
 72
    65
 73
     6
 40
1.25
 49
0.625
 49
-0.125
 49
0.125
 49
-0.125
 49
0.125
 49
-0.125
  0
ENDTAB
  0
TABLE
  2
LAYER
 70
     2
  0
LAYER
  2
0
 70
     0
 62
   255
  6
CONTINUOUS
  0
LAYER
  2
DEFPOINTS
 70
     0
 62
     7
  6
CONTINUOUS
  0
ENDTAB
  0
TABLE
  2
STYLE
 70
     1
  0
STYLE
  2
STANDARD
 70
     0
 40
0.0
 41
0.8
 50
0.0
 71
     0
 42
0.2
  3
txt
  4

  0
ENDTAB
  0
TABLE
  2
VIEW
 70
     0
  0
ENDTAB
  0
TABLE
  2
UCS
 70
     0
  0
ENDTAB
  0
TABLE
  2
APPID
 70
     9
  0
APPID
  2
ACAD
 70
     0
  0
APPID
  2
ACAD_MLEADERVER
 70
     0
  0
APPID
  2
ACAD_EXEMPT_FROM_CAD_STANDARDS
 70
     0
  0
APPID
  2
ACAD_NAV_VCDISPLAY
 70
     0
  0
APPID
  2
ACAECLAYERSTANDARD
 70
     0
  0
APPID
  2
ACCMTRANSPARENCY
 70
     0
  0
APPID
  2
ACAD_DSTYLE_DIMJAG
 70
     0
  0
APPID
  2
ACAD_DSTYLE_DIMTALN
 70
     0
  0
APPID
  2
ACDBATTR
 70
     0
  0
ENDTAB
  0
TABLE
  2
DIMSTYLE
 70
     1
  0
DIMSTYLE
  2
STANDARD
 70
     0
  3

  4

  5

  6

  7

 40
1.0
 41
0.1875
 42
0.0625
 43
0.38
 44
0.125
 45
0.0
 46
0.0
 47
0.01
 48
0.01
140
0.15625
141
0.09
142
0.0
143
25.3999999999999986
144
1.0
145
0.0
146
1.0
147
0.09
 71
     1
 72
     0
 73
     1
 74
     1
 75
     0
 76
     0
 77
     0
 78
     4
170
     0
171
     2
172
     0
173
     0
174
     0
175
     0
176
     0
177
     0
178
     0
  0
ENDTAB
  0
ENDSEC
  0
SECTION
  2
BLOCKS
  0
BLOCK
  8
0
  2
$MODEL_SPACE
 70
     0
 10
0.0
 20
0.0
 30
0.0
  3
$MODEL_SPACE
  1

  0
ENDBLK
  5
21
  8
0
  0
BLOCK
 67
     1
  8
0
  2
$PAPER_SPACE
 70
     0
 10
0.0
 20
0.0
 30
0.0
  3
$PAPER_SPACE
  1

  0
ENDBLK
  5
1D
 67
     1
  8
0
  0
ENDSEC
  0
SECTION
  2
ENTITIES
  0
ATTDEF
  5
3930
  8
DEFPOINTS
 10
4260.4506814370288339
 20
222.0771334651122118
 30
0.0
 40
0.001
  1
K-72330IN-4
  3

  2
MODELNUMBER
 70
     0
1001
ACDBATTR
1070
     0
1070
     1
  0
ATTDEF
  5
3931
  8
DEFPOINTS
 10
4260.4506814370288339
 20
222.0754667984454898
 30
0.0
 40
0.001
  1

  3

  2
TRADENAME
 70
     0
1001
ACDBATTR
1070
     0
1070
     1
  0
ATTDEF
  5
3932
  8
DEFPOINTS
 10
4260.4506814370288339
 20
222.0738001317787962
 30
0.0
 40
0.001
  1
BATH AND SHOWER FAUCET
  3

  2
PRODUCT
 70
     0
1001
ACDBATTR
1070
     0
1070
     1
  0
LINE
  5
118B6
  8
0
 10
4252.5408908473600604
 20
222.0723130717514096
 30
0.0
 11
4254.5093947842597117
 21
222.0723130717514096
 31
0.0
  0
LINE
  5
118B7
  8
0
 10
4252.5408908473600604
 20
223.9227067725514075
 30
0.0
 11
4252.5408908473600604
 21
222.0723130717514096
 31
0.0
  0
LINE
  5
118B8
  8
0
 10
4252.5607820488603465
 20
223.9305807882514046
 30
0.0
 11
4254.4895035827594256
 21
223.9305807882514046
 31
0.0
  0
LINE
  5
118B9
  8
0
 10
4252.5607820488603465
 20
223.9305807882514046
 30
0.0
 11
4252.5614599032096521
 21
223.9694150338168015
 31
0.0
  0
LINE
  5
118BA
  8
0
 10
4252.5408908473600604
 20
223.9227067725514075
 30
0.0
 11
4254.5093947842597117
 21
223.9227067725514075
 31
0.0
  0
LINE
  5
118BB
  8
0
 10
4252.9865289168601521
 20
224.4556674024514109
 30
0.0
 11
4254.0637567147587106
 21
224.4556674024514109
 31
0.0
  0
LINE
  5
118BC
  8
0
 10
4253.002080820968331
 20
225.3468296724159075
 30
0.0
 11
4252.9865289168601521
 21
224.4556674024514109
 31
0.0
  0
LINE
  5
118BD
  8
0
 10
4253.1912339159098337
 20
225.3999878686271927
 30
0.0
 11
4253.8590517157099384
 21
225.3999878686271927
 31
0.0
  0
ARC
  5
118BE
  8
0
 10
4253.3853182433604161
 20
224.0515389101838082
 30
0.0
 40
1.364923000371024
 50
100.1192175171867973
 51
105.6691894535769052
  0
ARC
  5
118BF
  8
0
 10
4253.2009333955447801
 20
225.0846623463930882
 30
0.0
 40
0.3154746659835938
 50
91.7618747243887896
 51
100.1192175171867973
  0
ARC
  5
118C0
  8
0
 10
4253.0220777761978752
 20
225.3464807003591943
 30
0.0
 40
0.02
 50
105.6691894535773031
 51
179.0002179636103961
  0
ARC
  5
118C1
  8
0
 10
4252.4775020463594046
 20
224.897956810086697
 30
0.0
 40
0.8820803347398065
 50
278.7003868802806892
 51
294.733046041387297
  0
ARC
  5
118C2
  8
0
 10
4252.6587788449196523
 20
224.5044308069419117
 30
0.0
 40
0.44880906538643
 50
294.733046041387297
 51
316.0817191953694874
  0
ARC
  5
118C3
  8
0
 10
4252.7826589215555941
 20
224.3877591833457075
 30
0.0
 40
0.278653790556389
 50
315.6941097639684131
 51
344.3685531353564215
  0
ARC
  5
118C4
  8
0
 10
4250.2275917552060491
 20
224.9210857939968946
 30
0.0
 40
2.8882232810981812
 50
347.8394478978810866
 51
350.7267250642985914
  0
ARC
  5
118C5
  8
0
 10
4252.6197510238362156
 20
223.9683975584127893
 30
0.0
 40
0.0583
 50
98.7003868802807887
 51
178.9999998931627943
  0
LINE
  5
118C6
  8
0
 10
4252.6000404411097406
 20
223.9227067725514075
 30
0.0
 11
4252.6000404411097406
 21
223.9305807882514046
 31
0.0
  0
ARC
  5
118C7
  8
0
 10
4253.6315001610237232
 20
207.7773173369924109
 30
0.0
 40
17.565246284952341
 50
90.3469273438595195
 51
91.089472584122916
  0
ARC
  5
118C8
  8
0
 10
4253.3370671673128527
 20
223.259794738430088
 30
0.0
 40
2.0799694946003262
 50
91.089472584122916
 51
93.8889329805478638
  0
ARC
  5
118C9
  8
0
 10
4253.2198133450319801
 20
224.9846455484380954
 30
0.0
 40
0.3511378730637524
 50
93.8889329805478638
 51
106.2528627142289963
  0
ARC
  5
118CA
  8
0
 10
4253.3440091859292806
 20
225.0962362132931105
 30
0.0
 40
0.3167809199320677
 50
134.6108117901096932
 51
175.4889749423053047
  0
ARC
  5
118CB
  8
0
 10
4258.1624025084001914
 20
224.3785153595981967
 30
0.0
 40
5.1876242308232259
 50
171.7695280426258932
 51
175.2358392133442919
  0
LINE
  5
118CC
  8
0
 10
4254.5093947842597117
 20
223.9227067725514075
 30
0.0
 11
4254.5093947842597117
 21
222.0723130717514096
 31
0.0
  0
LINE
  5
118CD
  8
0
 10
4254.4895035827594256
 20
223.9305807882514046
 30
0.0
 11
4254.4888257284101201
 21
223.9694150338168015
 31
0.0
  0
LINE
  5
118CE
  8
0
 10
4254.0482048106532602
 20
225.3468296724159075
 30
0.0
 11
4254.0637567147587106
 21
224.4556674024514109
 31
0.0
  0
ARC
  5
118CF
  8
0
 10
4253.6649673882593561
 20
224.0515389101838082
 30
0.0
 40
1.364923000371024
 50
74.3308105464230664
 51
79.8807824828132169
  0
ARC
  5
118D0
  8
0
 10
4253.8493522360749921
 20
225.0846623463930882
 30
0.0
 40
0.3154746659835938
 50
79.8807824828132169
 51
88.2381252756112247
  0
ARC
  5
118D1
  8
0
 10
4254.028207855421897
 20
225.3464807003591943
 30
0.0
 40
0.02
 50
0.999782036387994
 51
74.3308105464226259
  0
ARC
  5
118D2
  8
0
 10
4254.5727835852585486
 20
224.897956810086697
 30
0.0
 40
0.8820803347398065
 50
245.266953958612703
 51
261.2996131197191971
  0
ARC
  5
118D3
  8
0
 10
4254.3915067867001198
 20
224.5044308069419117
 30
0.0
 40
0.44880906538643
 50
223.918280804630399
 51
245.266953958612703
  0
ARC
  5
118D4
  8
0
 10
4254.267626710064178
 20
224.3877591833457075
 30
0.0
 40
0.278653790556389
 50
195.6314468646434932
 51
224.3058902360317006
  0
ARC
  5
118D5
  8
0
 10
4256.822693876413723
 20
224.9210857939968946
 30
0.0
 40
2.8882232810981812
 50
189.2732749357014939
 51
192.1605521021187997
  0
ARC
  5
118D6
  8
0
 10
4254.4305346077835566
 20
223.9683975584127893
 30
0.0
 40
0.0583
 50
1.00000010683719
 51
81.2996131197192256
  0
LINE
  5
118D7
  8
0
 10
4254.4502451905100315
 20
223.9227067725514075
 30
0.0
 11
4254.4502451905100315
 21
223.9305807882514046
 31
0.0
  0
ARC
  5
118D8
  8
0
 10
4253.418785470596049
 20
207.7773173369924109
 30
0.0
 40
17.565246284952341
 50
88.9105274158770982
 51
89.6530726561404947
  0
ARC
  5
118D9
  8
0
 10
4253.7132184643069195
 20
223.259794738430088
 30
0.0
 40
2.0799694946003262
 50
86.1110670194520935
 51
88.9105274158770982
  0
ARC
  5
118DA
  8
0
 10
4253.830472286587792
 20
224.9846455484380954
 30
0.0
 40
0.3511378730637524
 50
73.7471372857709611
 51
86.1110670194520935
  0
ARC
  5
118DB
  8
0
 10
4253.706276445689582
 20
225.0962362132931105
 30
0.0
 40
0.3167809199320677
 50
4.5110250576946651
 51
45.3891882098902428
  0
ARC
  5
118DC
  8
0
 10
4248.8878831232186712
 20
224.3785153595981967
 30
0.0
 40
5.1876242308232259
 50
4.7641607866556814
 51
8.2304719573740872
  0
LINE
  5
118DD
  8
0
 10
4259.4620603783059778
 20
222.0723130717514096
 30
0.0
 11
4261.4464916027136496
 21
222.0723130717514096
 31
0.0
  0
LINE
  5
118DE
  8
0
 10
4259.5092064386435595
 20
227.7362161794212909
 30
0.0
 11
4261.3993455423751584
 21
227.7362161794212909
 31
0.0
  0
ARC
  5
118DF
  8
0
 10
4259.5112087158377108
 20
227.7200188662122002
 30
0.0
 40
0.016320602597766
 50
97.0470306509703846
 51
144.8979007049101995
  0
ARC
  5
118E0
  8
0
 10
4259.8643650946669368
 20
227.6034572247733934
 30
0.0
 40
0.3875450772243242
 50
161.0352984550831081
 51
179.1543098156535052
  0
ARC
  5
118E1
  8
0
 10
4275.2195652012842402
 20
226.8676021805150071
 30
0.0
 40
15.7601595902210292
 50
177.3030213411990985
 51
178.9483368746020915
  0
LINE
  5
118E2
  8
0
 10
4268.3873475402597251
 20
222.0723130717514096
 30
0.0
 11
4266.3794735244600815
 21
222.0723130717514096
 31
0.0
  0
LINE
  5
118E3
  8
0
 10
4266.3794735244600815
 20
222.5329540165512867
 30
0.0
 11
4266.3794735244600815
 21
222.0723130717514096
 31
0.0
  0
LINE
  5
118E4
  8
0
 10
4268.3755475402604134
 20
222.5447540165513942
 30
0.0
 11
4266.3912735244603027
 21
222.5447540165513942
 31
0.0
  0
LINE
  5
118E5
  8
0
 10
4266.7967963591599982
 20
222.6234642528513064
 30
0.0
 11
4266.7967963591599982
 21
222.5447540165513942
 31
0.0
  0
LINE
  5
118E6
  8
0
 10
4267.9306247055592394
 20
222.6628642528513069
 30
0.0
 11
4266.8361963591596577
 21
222.6628642528513069
 31
0.0
  0
ARC
  5
118E7
  8
0
 10
4266.8361963591596577
 20
222.6234642528513064
 30
0.0
 40
0.0394
 50
90.0
 51
179.9999999999984084
  0
ARC
  5
118E8
  8
0
 10
4266.3912735244603027
 20
222.5329540165512867
 30
0.0
 40
0.0118
 50
90.0
 51
179.9999999999917861
  0
LINE
  5
118E9
  8
0
 10
4266.930654626859905
 20
223.0565650402515985
 30
0.0
 11
4266.930654626859905
 21
223.4108957488512885
 31
0.0
  0
LINE
  5
118EA
  8
0
 10
4266.930654626859905
 20
223.5087468213743875
 30
0.0
 11
4266.930654626859905
 21
223.8035929262495074
 31
0.0
  0
LINE
  5
118EB
  8
0
 10
4266.9512876108610726
 20
222.6628642528513069
 30
0.0
 11
4266.930654626859905
 21
223.0565650402515985
 31
0.0
  0
ARC
  5
118EC
  8
0
 10
4267.3832050795599571
 20
223.8707462554777123
 30
0.0
 40
0.6323771388437033
 50
259.0933567873792072
 51
270.0186148072306196
  0
ARC
  5
118ED
  8
0
 10
4267.3649426930296613
 20
223.7759702088397944
 30
0.0
 40
0.5358576393730023
 50
232.6827447984045136
 51
259.0933567873792072
  0
ARC
  5
118EE
  8
0
 10
4267.211052238875709
 20
223.5740862685701984
 30
0.0
 40
0.2820084770372438
 50
209.744261168527288
 51
232.6827447984045136
  0
ARC
  5
118EF
  8
0
 10
4267.2556409826511299
 20
223.5995649105522887
 30
0.0
 40
0.333363294422758
 50
198.741680375405906
 51
209.744261168527288
  0
ARC
  5
118F0
  8
0
 10
4267.383410532360358
 20
223.9636669001023961
 30
0.0
 40
0.6784527228331269
 50
263.0173704304185094
 51
276.9826295695814906
  0
ARC
  5
118F1
  8
0
 10
4267.5624782970844535
 20
224.3421280849287029
 30
0.0
 40
1.083910447994781
 50
239.547895437931686
 51
256.0367959523439936
  0
ARC
  5
118F2
  8
0
 10
4267.2291902154702257
 20
223.6683413103953058
 30
0.0
 40
0.3385172057555831
 50
208.1285664163877982
 51
230.3388685100661064
  0
ARC
  5
118F3
  8
0
 10
4267.383410532360358
 20
223.4108957488512885
 30
0.0
 40
0.4527559055004638
 50
169.3131679158539953
 51
180.0
  0
ARC
  5
118F4
  8
0
 10
4267.383410532360358
 20
223.6354473561513885
 30
0.0
 40
0.4527559055000854
 50
261.7687761181881001
 51
269.999999999426791
  0
ARC
  5
118F5
  8
0
 10
4267.383410532360358
 20
223.6354473561513032
 30
0.0
 40
0.4527559054999616
 50
238.9293095207488875
 51
261.7687761181881001
  0
ARC
  5
118F6
  8
0
 10
4267.383410532360358
 20
223.6354473561513885
 30
0.0
 40
0.4527559055000969
 50
215.9911938375053069
 51
238.9293095207488875
  0
ARC
  5
118F7
  8
0
 10
4267.383410532360358
 20
224.1352674016395952
 30
0.0
 40
0.6792842222420897
 50
263.0259602294696037
 51
276.9740397705302826
  0
ARC
  5
118F8
  8
0
 10
4266.7285179506534405
 20
222.4641533533084043
 30
0.0
 40
1.149512585574455
 50
60.1347091337790971
 51
75.6646787102456955
  0
LINE
  5
118F9
  8
0
 10
4267.3009321024601377
 20
223.2902462249512894
 30
0.0
 11
4267.3009321024601377
 21
223.461009021500189
 31
0.0
  0
LINE
  5
118FA
  8
0
 10
4267.0131330568601697
 20
223.4077396933514024
 30
0.0
 11
4267.0131330568601697
 21
223.5778738863477031
 31
0.0
  0
LINE
  5
118FB
  8
0
 10
4268.3873475402597251
 20
222.5329540165512867
 30
0.0
 11
4268.3873475402597251
 21
222.0723130717514096
 31
0.0
  0
LINE
  5
118FC
  8
0
 10
4267.9700247055598084
 20
222.6234642528513064
 30
0.0
 11
4267.9700247055598084
 21
222.5447540165513942
 31
0.0
  0
ARC
  5
118FD
  8
0
 10
4267.9306247055592394
 20
222.6234642528513064
 30
0.0
 40
0.0394
 50
0.0000000000016284
 51
90.0
  0
ARC
  5
118FE
  8
0
 10
4268.3755475402604134
 20
222.5329540165512867
 30
0.0
 40
0.0118
 50
0.0000000000081422
 51
90.0
  0
LINE
  5
118FF
  8
0
 10
4267.8361664378589921
 20
223.0565650402515985
 30
0.0
 11
4267.8361664378589921
 21
223.4108957488512885
 31
0.0
  0
LINE
  5
11900
  8
0
 10
4267.8361664378589921
 20
223.5087468213743875
 30
0.0
 11
4267.8361664378589921
 21
223.8035929262495074
 31
0.0
  0
LINE
  5
11901
  8
0
 10
4267.815533453858734
 20
222.6628642528513069
 30
0.0
 11
4267.8361664378589921
 21
223.0565650402515985
 31
0.0
  0
ARC
  5
11902
  8
0
 10
4267.38361598515894
 20
223.8707462554777123
 30
0.0
 40
0.6323771388437033
 50
269.9813851927693804
 51
280.9066432126207928
  0
ARC
  5
11903
  8
0
 10
4267.4018783716892358
 20
223.7759702088397944
 30
0.0
 40
0.5358576393730023
 50
280.9066432126207928
 51
307.3172552015955148
  0
ARC
  5
11904
  8
0
 10
4267.5557688258440976
 20
223.5740862685701984
 30
0.0
 40
0.2820084770372438
 50
307.3172552015955148
 51
330.2557388314713194
  0
ARC
  5
11905
  8
0
 10
4267.5111800820686767
 20
223.5995649105522887
 30
0.0
 40
0.333363294422758
 50
330.2557388314713194
 51
341.2583196245939803
  0
ARC
  5
11906
  8
0
 10
4267.2043427676362626
 20
224.3421280849287029
 30
0.0
 40
1.083910447994781
 50
283.9632040476560064
 51
300.4521045620684276
  0
ARC
  5
11907
  8
0
 10
4267.5376308492495809
 20
223.6683413103953058
 30
0.0
 40
0.3385172057555831
 50
309.6611314899338936
 51
331.8714335836120881
  0
ARC
  5
11908
  8
0
 10
4267.3834105323594486
 20
223.4108957488512885
 30
0.0
 40
0.4527559055004638
 50
0.0
 51
10.6868320841460207
  0
ARC
  5
11909
  8
0
 10
4267.383410532360358
 20
223.6354473561513885
 30
0.0
 40
0.4527559055000854
 50
270.000000000573209
 51
278.2312238818118999
  0
ARC
  5
1190A
  8
0
 10
4267.383410532360358
 20
223.6354473561513032
 30
0.0
 40
0.4527559054999616
 50
278.2312238818118999
 51
301.0706904792510272
  0
ARC
  5
1190B
  8
0
 10
4267.383410532360358
 20
223.6354473561513885
 30
0.0
 40
0.4527559055000969
 50
301.0706904792510272
 51
324.0088061624946931
  0
ARC
  5
1190C
  8
0
 10
4268.0383031140663661
 20
222.4641533533084043
 30
0.0
 40
1.1495125855744499
 50
104.3353212897543045
 51
119.8652908662209029
  0
LINE
  5
1190D
  8
0
 10
4267.4658889622587594
 20
223.2902462249512894
 30
0.0
 11
4267.4658889622587594
 21
223.461009021500189
 31
0.0
  0
LINE
  5
1190E
  8
0
 10
4267.7536880078596369
 20
223.4077396933514024
 30
0.0
 11
4267.7536880078596369
 21
223.5778738863477031
 31
0.0
  0
LINE
  5
1190F
  8
0
 10
4267.8361664378589921
 20
223.0565650402515985
 30
0.0
 11
4266.930654626859905
 21
223.0565650402515985
 31
0.0
  0
ARC
  5
11910
  8
0
 10
4261.6824908861290169
 20
228.8887182094321986
 30
0.0
 40
2.335667640742952
 50
209.5666579888745105
 51
223.3374344489805026
  0
ARC
  5
11911
  8
0
 10
4260.1183964310557712
 20
227.4314467028802937
 30
0.0
 40
0.1984082389855007
 50
227.244403747147004
 51
249.9955242695438073
  0
ARC
  5
11912
  8
0
 10
4260.2531896679165584
 20
227.765867504975887
 30
0.0
 40
0.5588983868321461
 50
248.7388483254831897
 51
259.6210184240212016
  0
ARC
  5
11913
  8
0
 10
4260.4591400137060191
 20
224.6608912117094121
 30
0.0
 40
2.766970328586003
 50
90.1007195997926971
 51
91.1073923298121144
  0
ARC
  5
11914
  8
0
 10
4260.4478096344591904
 20
225.5540388763448902
 30
0.0
 40
1.87377989724495
 50
91.2888128919572353
 51
96.5060600407734768
  0
ARC
  5
11915
  8
0
 10
4260.3533858095252072
 20
226.3820075522804132
 30
0.0
 40
1.0404444383536151
 50
96.5060600407734768
 51
104.8387204456558948
  0
ARC
  5
11916
  8
0
 10
4260.2180696901123156
 20
226.8927606583727936
 30
0.0
 40
0.5120703402413247
 50
104.8387204456558948
 51
113.8446991011408045
  0
ARC
  5
11917
  8
0
 10
4260.0514025118682184
 20
227.2698487078139067
 30
0.0
 40
0.0997921024750981
 50
113.8446991011408045
 51
142.0673325294696099
  0
ARC
  5
11918
  8
0
 10
4259.9955484410620556
 20
227.3165487443204995
 30
0.0
 40
0.0271451892501325
 50
147.3483060068703026
 51
183.9701549017624131
  0
ARC
  5
11919
  8
0
 10
4260.0355356670870606
 20
227.3315494269031092
 30
0.0
 40
0.0691589326756335
 50
194.1273150906631884
 51
221.4547842034596954
  0
ARC
  5
1191A
  8
0
 10
4260.4537936260076094
 20
225.9073708210420932
 30
0.0
 40
1.510740458812154
 50
89.9817060234028645
 51
93.0234611265089768
  0
ARC
  5
1191B
  8
0
 10
4260.4428041512092022
 20
226.1154323596582003
 30
0.0
 40
1.302388899164421
 50
93.0234611265089768
 51
98.2164282547494452
  0
ARC
  5
1191C
  8
0
 10
4260.3591604766297678
 20
226.6947026643155141
 30
0.0
 40
0.7171108881687152
 50
98.2164282547494452
 51
105.4032338492674938
  0
ARC
  5
1191D
  8
0
 10
4260.2512341870360615
 20
227.0864402255340053
 30
0.0
 40
0.3107780186455483
 50
105.4032338492674938
 51
115.6158338628220008
  0
ARC
  5
1191E
  8
0
 10
4260.1621792650466887
 20
227.272180441841698
 30
0.0
 40
0.1047920796001863
 50
115.6158338628220008
 51
133.4711257568366989
  0
ARC
  5
1191F
  8
0
 10
4260.1087732882106138
 20
227.3285154296544874
 30
0.0
 40
0.0271658648677432
 50
133.4711257568366989
 51
190.658764411100293
  0
ARC
  5
11920
  8
0
 10
4260.1157157896477656
 20
227.3298220547370079
 30
0.0
 40
0.03423025410602
 50
190.658764411100293
 51
242.5678151569665886
  0
ARC
  5
11921
  8
0
 10
4260.4575236856298943
 20
228.7661587475272995
 30
0.0
 40
1.5958921278647951
 50
268.4080380690729157
 51
269.8834010464973971
  0
ARC
  5
11922
  8
0
 10
4260.4492399400487557
 20
228.4190202626195116
 30
0.0
 40
1.2486582409768039
 50
264.197093892943883
 51
268.3454751543541761
  0
ARC
  5
11923
  8
0
 10
4260.4030626719732027
 20
227.998729354879913
 30
0.0
 40
0.8258594367638428
 50
257.2212467317198161
 51
264.4361949874320885
  0
ARC
  5
11924
  8
0
 10
4260.2957798315974287
 20
227.5319580037358094
 30
0.0
 40
0.3469225347921299
 50
246.7387679157247931
 51
257.4494748526532817
  0
ARC
  5
11925
  8
0
 10
4260.199304490232862
 20
227.3098290521224953
 30
0.0
 40
0.1047531209441482
 50
225.782445644678802
 51
247.2360603349866039
  0
ARC
  5
11926
  8
0
 10
4260.181601667571158
 20
227.300056310468392
 30
0.0
 40
0.0856049920542438
 50
211.6901830989278039
 51
229.715821722307993
  0
ARC
  5
11927
  8
0
 10
4260.159741298548397
 20
227.2863340130882079
 30
0.0
 40
0.0597956114377138
 50
180.1748227512381959
 51
211.5057295129682871
  0
ARC
  5
11928
  8
0
 10
4260.1276420445883559
 20
227.3070968438775878
 30
0.0
 40
0.0277330809251744
 50
135.8162059827411099
 51
177.0399552636590101
  0
ARC
  5
11929
  8
0
 10
4260.2010817520322234
 20
227.2237763441708864
 30
0.0
 40
0.1387331592092858
 50
107.116803794908904
 51
132.2766435801503064
  0
ARC
  5
1192A
  8
0
 10
4260.3784565423793538
 20
226.6700677002264968
 30
0.0
 40
0.7201510919421076
 50
94.715577221777167
 51
107.6379663431543037
  0
ARC
  5
1192B
  8
0
 10
4260.449888566547088
 20
226.0566703403549127
 30
0.0
 40
1.3375057063086511
 50
91.5003281682186156
 51
95.6050608289480266
  0
ARC
  5
1192C
  8
0
 10
4260.4542033403922687
 20
225.938157876591589
 30
0.0
 40
1.4560910163739571
 50
89.9971412877711003
 51
91.5479531567634979
  0
LINE
  5
1192D
  8
0
 10
4260.0999459654603925
 20
227.2861515630513907
 30
0.0
 11
4260.0999459654603925
 21
227.3085289676513128
 31
0.0
  0
ARC
  5
1192E
  8
0
 10
4260.4541043758054002
 20
226.0445425383481108
 30
0.0
 40
1.2828811330810119
 50
89.992335378437744
 51
92.463440303181855
  0
ARC
  5
1192F
  8
0
 10
4260.4490015538822263
 20
226.1631530767874096
 30
0.0
 40
1.164160879457466
 50
92.463440303181855
 51
96.4990333333642809
  0
ARC
  5
11930
  8
0
 10
4260.4054126663850184
 20
226.5457852277087909
 30
0.0
 40
0.7790539410209226
 50
96.4990333333642809
 51
98.8009046204451238
  0
ARC
  5
11931
  8
0
 10
4260.3851513410882035
 20
226.6766517600165969
 30
0.0
 40
0.6466282238016504
 50
98.8009046204451238
 51
106.5953646306037967
  0
ARC
  5
11932
  8
0
 10
4260.2480437696440276
 20
227.1367059067399055
 30
0.0
 40
0.1665779097045996
 50
106.5953646306037967
 51
124.4962223878235932
  0
ARC
  5
11933
  8
0
 10
4260.1750632270277492
 20
227.2429082550320061
 30
0.0
 40
0.037717138391879
 50
124.4962223878235932
 51
154.2827062999579084
  0
ARC
  5
11934
  8
0
 10
4260.1627136089573469
 20
227.2512130275297864
 30
0.0
 40
0.0230849524342564
 50
159.5600216686995054
 51
230.9948376155356868
  0
ARC
  5
11935
  8
0
 10
4260.2575263824182912
 20
227.3772110275025966
 30
0.0
 40
0.1807584050819228
 50
232.7777717815284859
 51
257.4828769114914735
  0
ARC
  5
11936
  8
0
 10
4260.402272834591713
 20
227.9208793137628959
 30
0.0
 40
0.743246336802784
 50
255.6728421227120123
 51
265.0232433873763966
  0
ARC
  5
11937
  8
0
 10
4260.4514286017247287
 20
228.3807132716412127
 30
0.0
 40
1.205645235558447
 50
264.5917733023475193
 51
269.0303903547377899
  0
ARC
  5
11938
  8
0
 10
4260.4542672090801716
 20
228.4719048807176875
 30
0.0
 40
1.2968724687785551
 50
268.9731750898328073
 51
270.0003879632075723
  0
LINE
  5
11939
  8
0
 10
4259.4620603783059778
 20
222.0723130717514096
 30
0.0
 11
4259.4620603783059778
 21
227.9266398434513974
 31
0.0
  0
ARC
  5
1193A
  8
0
 10
4259.4935603783060287
 20
227.9266398434513974
 30
0.0
 40
0.0315
 50
90.0
 51
180.0000000000032117
  0
LINE
  5
1193B
  8
0
 10
4259.4935603783060287
 20
227.9581398434513915
 30
0.0
 11
4261.4149916027126892
 21
227.9581398434513915
 31
0.0
  0
LINE
  5
1193C
  8
0
 10
4260.2206382285303334
 20
227.2582216095836998
 30
0.0
 11
4260.2206382285303334
 21
227.2721029729837028
 31
0.0
  0
ARC
  5
1193D
  8
0
 10
4260.1678625582308086
 20
227.4241935374836885
 30
0.0
 40
0.1609869907
 50
285.4672235723110134
 51
289.1368563853804972
  0
ARC
  5
1193E
  8
0
 10
4260.5407622712309603
 20
227.5592707352838033
 30
0.0
 40
0.4394468819
 50
221.3343849322010897
 51
221.9861955794052051
  0
ARC
  5
1193F
  8
0
 10
4260.5317977079321281
 20
227.5512245431837073
 30
0.0
 40
0.4274009558
 50
221.9883505881012127
 51
222.6417557053947007
  0
ARC
  5
11940
  8
0
 10
4260.5264997164313172
 20
227.5463605353837124
 30
0.0
 40
0.4202087959
 50
222.6432477363838984
 51
222.8476679296850875
  0
ARC
  5
11941
  8
0
 10
4260.5220920475312596
 20
227.5422697566837087
 30
0.0
 40
0.4141953100000001
 50
222.8474229141990861
 51
223.2972253237963116
  0
LINE
  5
11942
  8
0
 10
4260.2135688633088648
 20
227.2963788226516897
 30
0.0
 11
4260.2135688633088648
 21
227.3000998437705107
 31
0.0
  0
LINE
  5
11943
  8
0
 10
4260.2217226735092481
 20
227.2789059251612116
 30
0.0
 11
4260.2217226735092481
 21
227.2962421542517006
 31
0.0
  0
LINE
  5
11944
  8
0
 10
4260.240203621910041
 20
227.2667828185516896
 30
0.0
 11
4260.240203621910041
 21
227.2662199056516954
 31
0.0
  0
LINE
  5
11945
  8
0
 10
4260.2414077129096768
 20
227.2711606827452044
 30
0.0
 11
4260.2414077129096768
 21
227.2883981697517015
 31
0.0
  0
LINE
  5
11946
  8
0
 10
4260.2414077129096768
 20
227.3004248380553918
 30
0.0
 11
4260.2414077129096768
 21
227.3071006708532025
 31
0.0
  0
LINE
  5
11947
  8
0
 10
4260.2495615232101045
 20
227.2820639345281108
 30
0.0
 11
4260.2495615232101045
 21
227.3010286156516884
 31
0.0
  0
LINE
  5
11948
  8
0
 10
4260.2692465626096237
 20
227.2753565646254117
 30
0.0
 11
4260.2692465626096237
 21
227.2942096908516874
 31
0.0
  0
LINE
  5
11949
  8
0
 10
4260.2692465626096237
 20
227.3072804057827057
 30
0.0
 11
4260.2692465626096237
 21
227.3128075130699131
 31
0.0
  0
LINE
  5
1194A
  8
0
 10
4260.2774003729100514
 20
227.2590118499755931
 30
0.0
 11
4260.2774003729100514
 21
227.2760939764517047
 31
0.0
  0
LINE
  5
1194B
  8
0
 10
4260.2774003729100514
 20
227.2879972959883048
 30
0.0
 11
4260.2774003729100514
 21
227.3086043749516989
 31
0.0
  0
LINE
  5
1194C
  8
0
 10
4260.2786044639087777
 20
227.254064634151689
 30
0.0
 11
4260.2786044639087777
 21
227.2533017970517051
 31
0.0
  0
LINE
  5
1194D
  8
0
 10
4260.2970854122104356
 20
227.2534172691516972
 30
0.0
 11
4260.2970854122104356
 21
227.2704247409517109
 31
0.0
  0
LINE
  5
1194E
  8
0
 10
4260.2970854122104356
 20
227.2822671832840911
 30
0.0
 11
4260.2970854122104356
 21
227.302765741451708
 31
0.0
  0
LINE
  5
1194F
  8
0
 10
4260.2970854122104356
 20
227.3169152948516967
 30
0.0
 11
4260.2970854122104356
 21
227.3172709690049089
 31
0.0
  0
LINE
  5
11950
  8
0
 10
4260.3052392225099538
 20
227.2650175839999065
 30
0.0
 11
4260.3052392225099538
 21
227.2837018176516892
 31
0.0
  0
LINE
  5
11951
  8
0
 10
4260.3052392225099538
 20
227.2966406529706944
 30
0.0
 11
4260.3052392225099538
 21
227.3183720022283012
 31
0.0
  0
LINE
  5
11952
  8
0
 10
4260.324924261911292
 20
227.2603655879302949
 30
0.0
 11
4260.324924261911292
 21
227.2789821336517093
 31
0.0
  0
LINE
  5
11953
  8
0
 10
4260.324924261911292
 20
227.2918697366517051
 30
0.0
 11
4260.324924261911292
 21
227.3140655681517046
 31
0.0
  0
LINE
  5
11954
  8
0
 10
4260.3330780722099007
 20
227.2449960828064945
 30
0.0
 11
4260.3330780722099007
 21
227.2619018735516931
 31
0.0
  0
LINE
  5
11955
  8
0
 10
4260.3330780722099007
 20
227.2736652575271137
 30
0.0
 11
4260.3330780722099007
 21
227.2939952483517061
 31
0.0
  0
LINE
  5
11956
  8
0
 10
4260.3330780722099007
 20
227.3080170774516944
 30
0.0
 11
4260.3330780722099007
 21
227.3215279296119036
 31
0.0
  0
LINE
  5
11957
  8
0
 10
4260.3527631115111944
 20
227.2413523842517122
 30
0.0
 11
4260.3527631115111944
 21
227.2582151547516958
 31
0.0
  0
LINE
  5
11958
  8
0
 10
4260.3527631115111944
 20
227.2699395520762096
 30
0.0
 11
4260.3527631115111944
 21
227.2902039426516865
 31
0.0
  0
LINE
  5
11959
  8
0
 10
4260.3527631115111944
 20
227.3041719089517017
 30
0.0
 11
4260.3527631115111944
 21
227.323329233872613
 31
0.0
  0
LINE
  5
1195A
  8
0
 10
4260.3609169218088937
 20
227.2536428039344116
 30
0.0
 11
4260.3609169218088937
 21
227.2721535414517007
 31
0.0
  0
LINE
  5
1195B
  8
0
 10
4260.3609169218088937
 20
227.2849607426516911
 30
0.0
 11
4260.3609169218088937
 21
227.3070006331516879
 31
0.0
  0
LINE
  5
1195C
  8
0
 10
4260.3609169218088937
 20
227.3221543055516918
 30
0.0
 11
4260.3609169218088937
 21
227.3239767717782058
 31
0.0
  0
LINE
  5
1195D
  8
0
 10
4260.3806019612102318
 20
227.2509075295517107
 30
0.0
 11
4260.3806019612102318
 21
227.2693776402516903
 31
0.0
  0
LINE
  5
1195E
  8
0
 10
4260.3806019612102318
 20
227.2821527520517009
 30
0.0
 11
4260.3806019612102318
 21
227.3041304629516901
 31
0.0
  0
LINE
  5
1195F
  8
0
 10
4260.3806019612102318
 20
227.3192364872516862
 30
0.0
 11
4260.3806019612102318
 21
227.3253028300385097
 31
0.0
  0
LINE
  5
11960
  8
0
 10
4260.38875577150975
 20
227.2363948740517117
 30
0.0
 11
4260.38875577150975
 21
227.2532000555517016
 31
0.0
  0
LINE
  5
11961
  8
0
 10
4260.38875577150975
 20
227.2648813019517036
 30
0.0
 11
4260.38875577150975
 21
227.2850489412516879
 31
0.0
  0
LINE
  5
11962
  8
0
 10
4260.38875577150975
 20
227.2989449330517004
 30
0.0
 11
4260.38875577150975
 21
227.3227882739516872
 31
0.0
  0
LINE
  5
11963
  8
0
 10
4260.4084408108101343
 20
227.2345983675517118
 30
0.0
 11
4260.4084408108101343
 21
227.2513829394517018
 31
0.0
  0
LINE
  5
11964
  8
0
 10
4260.4084408108101343
 20
227.2630473661517101
 30
0.0
 11
4260.4084408108101343
 21
227.2831817946517106
 31
0.0
  0
LINE
  5
11965
  8
0
 10
4260.4084408108101343
 20
227.2970520685516931
 30
0.0
 11
4260.4084408108101343
 21
227.3208461545517025
 31
0.0
  0
LINE
  5
11966
  8
0
 10
4260.416594621108743
 20
227.2475918015516925
 30
0.0
 11
4260.416594621108743
 21
227.2660132336517051
 31
0.0
  0
LINE
  5
11967
  8
0
 10
4260.416594621108743
 20
227.2787499021517021
 30
0.0
 11
4260.416594621108743
 21
227.3006531657516973
 31
0.0
  0
LINE
  5
11968
  8
0
 10
4260.416594621108743
 20
227.3157021810517051
 30
0.0
 11
4260.416594621108743
 21
227.3268751862667045
 31
0.0
  0
LINE
  5
11969
  8
0
 10
4260.4362796605100812
 20
227.246688571051692
 30
0.0
 11
4260.4362796605100812
 21
227.2650968467517032
 31
0.0
  0
LINE
  5
1196A
  8
0
 10
4260.4362796605100812
 20
227.2778231284517005
 30
0.0
 11
4260.4362796605100812
 21
227.2997062854516912
 31
0.0
  0
LINE
  5
1196B
  8
0
 10
4260.4362796605100812
 20
227.314739911351694
 30
0.0
 11
4260.4362796605100812
 21
227.3272998346203906
 31
0.0
  0
LINE
  5
1196C
  8
0
 10
4260.4444334708095994
 20
227.2329610711516921
 30
0.0
 11
4260.4444334708095994
 21
227.2497269780517115
 31
0.0
  0
LINE
  5
1196D
  8
0
 10
4260.4444334708095994
 20
227.2613761753516997
 30
0.0
 11
4260.4444334708095994
 21
227.2814805408517032
 31
0.0
  0
LINE
  5
1196E
  8
0
 10
4260.4444334708095994
 20
227.2953275417517034
 30
0.0
 11
4260.4444334708095994
 21
227.3190770736516981
 31
0.0
  0
LINE
  5
1196F
  8
0
 10
4260.4067521014103477
 20
227.2298244896516906
 30
0.0
 11
4260.4072367198086795
 21
227.2294138801516965
 31
0.0
  0
ARC
  5
11970
  8
0
 10
4260.0354224049096956
 20
227.6447605564517005
 30
0.0
 40
0.51923249
 50
320.5359921956469975
 51
322.2766944487141814
  0
ARC
  5
11971
  8
0
 10
4260.0347608236097585
 20
227.6274440191517101
 30
0.0
 40
0.4632494716
 50
318.2933278690799739
 51
319.3421370053005148
  0
ARC
  5
11972
  8
0
 10
4260.1483119059103046
 20
227.5240399688516959
 30
0.0
 40
0.3261400271
 50
308.8204308577224992
 51
311.076072316294983
  0
ARC
  5
11973
  8
0
 10
4260.132240724010444
 20
227.5129540378516992
 30
0.0
 40
0.2835316492
 50
305.5489193787232125
 51
308.0327535147039271
  0
ARC
  5
11974
  8
0
 10
4260.1078318318086531
 20
227.5235090495517056
 30
0.0
 40
0.273747163
 50
305.6956882857850246
 51
308.2748781452065145
  0
ARC
  5
11975
  8
0
 10
4260.1455163140099103
 20
227.4978488030517099
 30
0.0
 40
0.2671522766
 50
304.1270453652027186
 51
306.7176538156908236
  0
ARC
  5
11976
  8
0
 10
4260.113319883508666
 20
227.50661780985169
 30
0.0
 40
0.2427386118
 50
301.8487016471462994
 51
304.6265999036853032
  0
ARC
  5
11977
  8
0
 10
4260.1491773082098007
 20
227.4812781754517061
 30
0.0
 40
0.2383701652
 50
300.245706169864718
 51
303.0246733881126033
  0
ARC
  5
11978
  8
0
 10
4260.1246188600098321
 20
227.4922349668516972
 30
0.0
 40
0.2284087079
 50
300.2598099089157131
 51
303.1623717967938205
  0
ARC
  5
11979
  8
0
 10
4260.134118594811298
 20
227.4656273115517138
 30
0.0
 40
0.1906982069
 50
294.0650078543170025
 51
297.3474916927044092
  0
ARC
  5
1197A
  8
0
 10
4260.0809665085089364
 20
227.6025854107516864
 30
0.0
 40
0.4478751662
 50
316.9854009241051926
 51
318.8639124660069228
  0
ARC
  5
1197B
  8
0
 10
4260.0560575083100048
 20
227.6104832202516945
 30
0.0
 40
0.4398369203
 50
317.225747174901187
 51
319.1489680620990157
  0
ARC
  5
1197C
  8
0
 10
4260.1263669636100531
 20
227.5796590192516931
 30
0.0
 40
0.4326117613
 50
315.7567236551843166
 51
317.6571384200158832
  0
ARC
  5
1197D
  8
0
 10
4260.1015778806104208
 20
227.585709066851706
 30
0.0
 40
0.4248439873
 50
315.9160059577096717
 51
317.8583295006903882
  0
ARC
  5
1197E
  8
0
 10
4260.1463399831100105
 20
227.5628954858516977
 30
0.0
 40
0.4099440189
 50
314.6800486958904912
 51
316.6485461230967076
  0
ARC
  5
1197F
  8
0
 10
4260.0752495278102288
 20
227.5867961562516939
 30
0.0
 40
0.3960962916
 50
314.4775137662842894
 51
316.5079869718144892
  0
ARC
  5
11980
  8
0
 10
4260.1185954627089814
 20
227.5620902309516964
 30
0.0
 40
0.3834246193
 50
313.1053104084663232
 51
315.153814779814013
  0
ARC
  5
11981
  8
0
 10
4260.0938714405101564
 20
227.570192994851709
 30
0.0
 40
0.3749446736999999
 50
313.3123944041074083
 51
315.4163482647884962
  0
ARC
  5
11982
  8
0
 10
4260.1365396750088621
 20
227.5456616473516931
 30
0.0
 40
0.3626733267
 50
311.9357792392083866
 51
314.0619729046039197
  0
ARC
  5
11983
  8
0
 10
4260.0665944694092104
 20
227.5748865487516923
 30
0.0
 40
0.3459438883
 50
311.7802952489424797
 51
311.8854013761477972
  0
ARC
  5
11984
  8
0
 10
4260.1077067309088307
 20
227.5483735713517035
 30
0.0
 40
0.3361244118
 50
310.2596113166861755
 51
312.4948419751115125
  0
ARC
  5
11985
  8
0
 10
4260.0832188253098138
 20
227.5586580860517074
 30
0.0
 40
0.3267290464
 50
310.496387738088913
 51
312.6318550988750076
  0
ARC
  5
11986
  8
0
 10
4260.1236314614097864
 20
227.5323913955517128
 30
0.0
 40
0.3173335875
 50
308.9766765155025041
 51
311.3014212761127055
  0
ARC
  5
11987
  8
0
 10
4260.0939163942102823
 20
227.5389475376516941
 30
0.0
 40
0.2905345555
 50
307.1191410447141266
 51
309.3818450070796757
  0
ARC
  5
11988
  8
0
 10
4260.2032543782097491
 20
227.5190207055516964
 30
0.0
 40
0.3584241695000001
 50
310.5530389241166063
 51
312.656291782413291
  0
ARC
  5
11989
  8
0
 10
4260.1786671058098364
 20
227.5231433215516859
 30
0.0
 40
0.35032183
 50
310.6225311723890172
 51
312.7786926745865799
  0
ARC
  5
1198A
  8
0
 10
4260.2203908443098044
 20
227.5025341470517048
 30
0.0
 40
0.3377966299000001
 50
309.3539810054974737
 51
311.5479858455933027
  0
ARC
  5
1198B
  8
0
 10
4260.1881546657086801
 20
227.5022172878516926
 30
0.0
 40
0.3165355586
 50
307.4447137967486015
 51
309.7228445292935248
  0
ARC
  5
1198C
  8
0
 10
4260.1635873240111323
 20
227.5083200730516921
 30
0.0
 40
0.3077557486
 50
307.5322145433127048
 51
309.8805367664822938
  0
ARC
  5
1198D
  8
0
 10
4260.2283642836100626
 20
227.4815540357517136
 30
0.0
 40
0.3056415446
 50
306.0997493263781735
 51
308.4168608735831754
  0
ARC
  5
1198E
  8
0
 10
4260.2032131134101292
 20
227.4862948466517025
 30
0.0
 40
0.2979249227
 50
306.1390111228824935
 51
308.5196698098865795
  0
ARC
  5
1198F
  8
0
 10
4260.2425998804101255
 20
227.4662098108516943
 30
0.0
 40
0.2877915422
 50
304.7771360489991821
 51
307.1990574735975201
  0
ARC
  5
11990
  8
0
 10
4260.1703167278101319
 20
227.4891661232516924
 30
0.0
 40
0.2761397736
 50
304.0480997642230818
 51
306.5505618577989821
  0
ARC
  5
11991
  8
0
 10
4260.2081112213090819
 20
227.4675963788517095
 30
0.0
 40
0.2685376853
 50
302.5941835036704788
 51
305.121864768594321
  0
ARC
  5
11992
  8
0
 10
4260.1829919571100618
 20
227.47440728385169
 30
0.0
 40
0.2601622405
 50
302.6198125607018028
 51
305.2323997999021117
  0
ARC
  5
11993
  8
0
 10
4260.2203319192103663
 20
227.4530308713517002
 30
0.0
 40
0.2527561397
 50
301.1491244337125863
 51
303.793963444790279
  0
ARC
  5
11994
  8
0
 10
4260.1870104217287007
 20
227.4548691901169093
 30
0.0
 40
0.2295634552579838
 50
298.6525561213127276
 51
301.491492228612401
  0
ARC
  5
11995
  8
0
 10
4260.1599171540101452
 20
227.4673087336516915
 30
0.0
 40
0.2244223476
 50
298.6615329665133913
 51
301.5667554059937743
  0
ARC
  5
11996
  8
0
 10
4260.1591035856099552
 20
227.4539657478516972
 30
0.0
 40
0.2004785804
 50
294.2386518540799898
 51
297.3634525455793778
  0
ARC
  5
11997
  8
0
 10
4260.1674465536098069
 20
227.4414908040517105
 30
0.0
 40
0.1890666211
 50
292.4736913070851756
 51
295.7418824990098756
  0
ARC
  5
11998
  8
0
 10
4260.1613554261102763
 20
227.5393780084517061
 30
0.0
 40
0.3706910839
 50
311.8024044305856819
 51
313.8764149320011256
  0
ARC
  5
11999
  8
0
 10
4260.0586299767101082
 20
227.6277045304516946
 30
0.0
 40
0.494059959
 50
319.5491006521123154
 51
321.3415807463939018
  0
ARC
  5
1199A
  8
0
 10
4260.4542725801102279
 20
227.8422648903516858
 30
0.0
 40
0.6146533437000001
 50
265.611195282114295
 51
269.1950480956887191
  0
ARC
  5
1199B
  8
0
 10
4260.4541336867087011
 20
227.84076756095169
 30
0.0
 40
0.6131493498000001
 50
260.3696224657171001
 51
263.9922703571932061
  0
ARC
  5
1199C
  8
0
 10
4260.4542759905098137
 20
227.8458866241516887
 30
0.0
 40
0.6130045749000002
 50
269.0794342102756218
 51
270.9205657897243782
  0
ARC
  5
1199D
  8
0
 10
4260.4542311045088354
 20
227.8450875895516958
 30
0.0
 40
0.6122040846
 50
263.8598869508386997
 51
265.7110057679115016
  0
ARC
  5
1199E
  8
0
 10
4260.4542717105096017
 20
227.847514536751703
 30
0.0
 40
0.6117036000000001
 50
266.4687055823122819
 51
268.314515021805903
  0
ARC
  5
1199F
  8
0
 10
4260.4541161578090396
 20
227.8459115817516931
 30
0.0
 40
0.6100926436
 50
261.2129523665178112
 51
263.0792262069036269
  0
ARC
  5
119A0
  8
0
 10
4260.4535769236099441
 20
227.8377189249517016
 30
0.0
 40
0.6100497504
 50
255.0191434830026083
 51
258.7231900016845998
  0
ARC
  5
119A1
  8
0
 10
4260.4538912165089641
 20
227.8426917640516933
 30
0.0
 40
0.6097835216
 50
258.572685188132084
 51
260.4543264954619985
  0
ARC
  5
119A2
  8
0
 10
4260.4535347222099517
 20
227.8428151484517059
 30
0.0
 40
0.6069411392000001
 50
255.8576047687143102
 51
257.7663150799103278
  0
ARC
  5
119A3
  8
0
 10
4260.4529727187091339
 20
227.838812429351691
 30
0.0
 40
0.6057956305
 50
253.1527551630778987
 51
255.0885113038933127
  0
ARC
  5
119A4
  8
0
 10
4260.4523126201102059
 20
227.8332079441516953
 30
0.0
 40
0.6053640747
 50
249.4892856421807039
 51
253.3246604479994062
  0
ARC
  5
119A5
  8
0
 10
4260.4535100639095617
 20
227.8489770205517004
 30
0.0
 40
0.6024888928000001
 50
255.7533147346073008
 51
257.6768960432813174
  0
ARC
  5
119A6
  8
0
 10
4260.4522354734099281
 20
227.8382643256516928
 30
0.0
 40
0.6022069422000002
 50
250.3330581343946903
 51
252.3101774504789887
  0
ARC
  5
119A7
  8
0
 10
4260.4511889159111888
 20
227.8335569142516874
 30
0.0
 40
0.6002436806000001
 50
247.5237744563773106
 51
249.5436678505888892
  0
ARC
  5
119A8
  8
0
 10
4260.4529686182086152
 20
227.8487015824516959
 30
0.0
 40
0.5989187585
 50
252.9538427867917108
 51
254.9136567521242966
  0
ARC
  5
119A9
  8
0
 10
4260.4521729465095632
 20
227.8443589562517104
 30
0.0
 40
0.5976794865999999
 50
250.1842355311443953
 51
252.177992142693796
  0
ARC
  5
119AA
  8
0
 10
4260.4511642353099887
 20
227.8434196399516907
 30
0.0
 40
0.593335176
 50
247.2508015383801023
 51
249.2971648973048104
  0
ARC
  5
119AB
  8
0
 10
4260.4496926086103485
 20
227.8381751408516891
 30
0.0
 40
0.5910141060000002
 50
245.9048544500302
 51
246.4516359457857106
  0
ARC
  5
119AC
  8
0
 10
4260.4510701273102313
 20
227.8493710144516911
 30
0.0
 40
0.5876184032000001
 50
247.9866320921451006
 51
249.0961798400147131
  0
ARC
  5
119AD
  8
0
 10
4260.4542716490086605
 20
227.8537664468516937
 30
0.0
 40
0.6073444319
 50
266.4428220454162783
 51
268.3028723097363013
  0
ARC
  5
119AE
  8
0
 10
4260.4542759905098137
 20
227.8557654588516925
 30
0.0
 40
0.6061184004
 50
269.0695553467887748
 51
270.9304446490418172
  0
ARC
  5
119AF
  8
0
 10
4260.4541202882101061
 20
227.8522009248517008
 30
0.0
 40
0.6057711545000001
 50
261.1493698638345222
 51
263.0296870834458218
  0
ARC
  5
119B0
  8
0
 10
4260.4542300792099923
 20
227.8549573880517016
 30
0.0
 40
0.6053088236999999
 50
263.790350638178893
 51
265.6616518571137817
  0
ARC
  5
119B1
  8
0
 10
4260.4538912142097615
 20
227.852580271751691
 30
0.0
 40
0.6029069459
 50
258.4405618555193769
 51
260.3438944154094088
  0
ARC
  5
119B2
  8
0
 10
4260.4542759905098137
 20
227.8619093503517092
 30
0.0
 40
0.6006138272000001
 50
269.0605110281269958
 51
270.9394889718730042
  0
ARC
  5
119B3
  8
0
 10
4260.4542292341102439
 20
227.8610939082516893
 30
0.0
 40
0.5997968374
 50
263.7326141126479229
 51
265.622156423198021
  0
ARC
  5
119B4
  8
0
 10
4260.4542715220095488
 20
227.8634693797517059
 30
0.0
 40
0.5986429615
 50
266.3915802190776958
 51
268.2777497610205728
  0
ARC
  5
119B5
  8
0
 10
4260.4538759987099183
 20
227.8586543540517084
 30
0.0
 40
0.5973310490000001
 50
258.332638730645499
 51
260.2543630337112859
  0
ARC
  5
119B6
  8
0
 10
4260.4541125524101517
 20
227.8618562691517013
 30
0.0
 40
0.5970215513000001
 50
261.0193467570236976
 51
262.9272865914052772
  0
ARC
  5
119B7
  8
0
 10
4260.4535044077101702
 20
227.8586805493517033
 30
0.0
 40
0.5937870890000001
 50
255.5405834280261104
 51
257.4939613571085033
  0
ARC
  5
119B8
  8
0
 10
4260.4529229356103315
 20
227.8547115218516979
 30
0.0
 40
0.5932732792000001
 50
252.7912166771382942
 51
254.771207001107598
  0
ARC
  5
119B9
  8
0
 10
4260.4542714205099401
 20
227.8694975653517076
 30
0.0
 40
0.5919479223
 50
266.3502338485640735
 51
268.2586010969022823
  0
ARC
  5
119BA
  8
0
 10
4260.4540928916103439
 20
227.8677546499517064
 30
0.0
 40
0.5901953064
 50
260.9160328282862906
 51
262.8473173467710922
  0
ARC
  5
119BB
  8
0
 10
4260.4542759905098137
 20
227.871436008651699
 30
0.0
 40
0.590037566
 50
269.0441947647191228
 51
270.9558052525839003
  0
ARC
  5
119BC
  8
0
 10
4260.4542279751103706
 20
227.8706105688517027
 30
0.0
 40
0.5892105134000002
 50
263.6202023187969985
 51
265.5430890018949981
  0
ARC
  5
119BD
  8
0
 10
4260.4521447259103297
 20
227.8540276820517079
 30
0.0
 40
0.5889379606000001
 50
249.8804229184983967
 51
251.9072647030139933
  0
ARC
  5
119BE
  8
0
 10
4260.4534717933111096
 20
227.8645963892516875
 30
0.0
 40
0.5869755416000001
 50
255.3718359564566924
 51
257.3500606946871017
  0
ARC
  5
119BF
  8
0
 10
4260.4538729655087081
 20
227.8681813030516992
 30
0.0
 40
0.5867546605000001
 50
258.1195960479155929
 51
260.077234930797772
  0
ARC
  5
119C0
  8
0
 10
4260.4528984310099986
 20
227.8641951528516927
 30
0.0
 40
0.5826497067999999
 50
252.4698987983024949
 51
254.4891155493129133
  0
ARC
  5
119C1
  8
0
 10
4260.4542759905098137
 20
227.8773480652517094
 30
0.0
 40
0.5821037407000001
 50
269.0306989560635884
 51
270.9693010439364116
  0
ARC
  5
119C2
  8
0
 10
4260.4520694115099104
 20
227.8598821399517078
 30
0.0
 40
0.5820553238000001
 50
250.613700084947908
 51
251.6935853446892111
  0
ARC
  5
119C3
  8
0
 10
4260.4542268149098163
 20
227.8765130636516858
 30
0.0
 40
0.5812670668
 50
263.5322912252407264
 51
265.482469474995014
  0
ARC
  5
119C4
  8
0
 10
4260.4542712208112789
 20
227.8788325565517141
 30
0.0
 40
0.5794056732000001
 50
266.2716375228043262
 51
268.2205797256755773
  0
ARC
  5
119C5
  8
0
 10
4260.4538300890098981
 20
227.8738869956517021
 30
0.0
 40
0.5786102435
 50
257.9542192324780103
 51
259.940741701744912
  0
ARC
  5
119C6
  8
0
 10
4260.4541029075098777
 20
227.877176030151702
 30
0.0
 40
0.5777400897
 50
260.7179898676840821
 51
262.6909386897963827
  0
ARC
  5
119C7
  8
0
 10
4260.4528400684102962
 20
227.8699475017517102
 30
0.0
 40
0.5745468953000001
 50
254.1837408743681124
 51
254.2711150238509958
  0
ARC
  5
119C8
  8
0
 10
4260.4534549937097836
 20
227.873900670351702
 30
0.0
 40
0.5744001138
 50
255.1983587426950066
 51
257.0697243976229061
  0
ARC
  5
119C9
  8
0
 10
4260.4542710651103334
 20
227.8846163661517039
 30
0.0
 40
0.5701603849
 50
266.2106574867152062
 51
268.1920026422519072
  0
ARC
  5
119CA
  8
0
 10
4260.4540775675086479
 20
227.8828005225516904
 30
0.0
 40
0.568333605
 50
260.5650967941797944
 51
262.5721418003990948
  0
ARC
  5
119CB
  8
0
 10
4260.4542759905098137
 20
227.8864902413517086
 30
0.0
 40
0.5674985269000001
 50
269.0062298189939156
 51
270.9937701879899237
  0
ARC
  5
119CC
  8
0
 10
4260.4542244182102877
 20
227.8856355423517073
 30
0.0
 40
0.5666420311
 50
263.3653470661898268
 51
265.3655571866830769
  0
ARC
  5
119CD
  8
0
 10
4260.6504507781100983
 20
227.5230853469516887
 30
0.0
 40
0.3881733297999999
 50
225.6109735671026044
 51
227.6090073614570883
  0
ARC
  5
119CE
  8
0
 10
4260.6276480074093342
 20
227.5018849368516953
 30
0.0
 40
0.3598293143
 50
226.6412264081199908
 51
228.7602552331134973
  0
ARC
  5
119CF
  8
0
 10
4260.6439439399100593
 20
227.4803416560517064
 30
0.0
 40
0.3206093603
 50
229.6302718616047116
 51
231.901298393422195
  0
ARC
  5
119D0
  8
0
 10
4260.6364252098101133
 20
227.6128941370517111
 30
0.0
 40
0.5324755006000002
 50
217.1265435851869938
 51
218.8461524166177128
  0
ARC
  5
119D1
  8
0
 10
4260.6520449316103623
 20
227.602152319651708
 30
0.0
 40
0.5167829253000001
 50
217.3822339971875124
 51
219.1444258521952122
  0
ARC
  5
119D2
  8
0
 10
4260.6358565210102824
 20
227.5791654963516919
 30
0.0
 40
0.4806133242000001
 50
219.9763472533838922
 51
221.7695048154699862
  0
ARC
  5
119D3
  8
0
 10
4260.6537118105097761
 20
227.5708855048517023
 30
0.0
 40
0.4663250568
 50
220.114421877593486
 51
221.9564954278862103
  0
ARC
  5
119D4
  8
0
 10
4260.606947545010371
 20
227.5568695714516991
 30
0.0
 40
0.4466575236
 50
220.8817087375981885
 51
222.7749787251948987
  0
ARC
  5
119D5
  8
0
 10
4260.6408952750098251
 20
227.5492633381516896
 30
0.0
 40
0.4328198726
 50
222.7830748427903984
 51
224.6681732585635132
  0
ARC
  5
119D6
  8
0
 10
4260.6151165608089286
 20
227.5274200250516969
 30
0.0
 40
0.4017013968
 50
223.7463518495889048
 51
225.7407645351152894
  0
ARC
  5
119D7
  8
0
 10
4260.6708511725100834
 20
227.5191741393516907
 30
0.0
 40
0.3749284261
 50
225.5814557373842035
 51
227.6511541906037053
  0
ARC
  5
119D8
  8
0
 10
4260.6639467724089627
 20
227.5007783559516952
 30
0.0
 40
0.3462872095
 50
228.5223146046002114
 51
230.6598452547391105
  0
ARC
  5
119D9
  8
0
 10
4260.7005706826103051
 20
227.6159618204517017
 30
0.0
 40
0.5381123762
 50
216.7216017927906933
 51
218.4400165834047982
  0
ARC
  5
119DA
  8
0
 10
4260.7319183364097626
 20
227.609863412051709
 30
0.0
 40
0.5216381738
 50
218.4215046266988054
 51
220.1293106350242113
  0
ARC
  5
119DB
  8
0
 10
4260.7532236302104138
 20
227.6080609056517119
 30
0.0
 40
0.5112745602000001
 50
218.4400362016125996
 51
220.1811549900129137
  0
ARC
  5
119DC
  8
0
 10
4260.6837987138087556
 20
227.5937570870516993
 30
0.0
 40
0.5013785791000001
 50
219.2250453793116094
 51
220.9713774394379016
  0
ARC
  5
119DD
  8
0
 10
4260.7008267898099803
 20
227.5866407932516893
 30
0.0
 40
0.4857536014
 50
219.2987226371924976
 51
221.0975100883111963
  0
ARC
  5
119DE
  8
0
 10
4260.7337408597086323
 20
227.5836027243516924
 30
0.0
 40
0.4696822787
 50
220.9341532809814055
 51
222.7334133510838114
  0
ARC
  5
119DF
  8
0
 10
4260.7514745087100891
 20
227.5798960896516974
 30
0.0
 40
0.4535542864
 50
220.8588639878857975
 51
222.7246735679802896
  0
ARC
  5
119E0
  8
0
 10
4260.6872692774104507
 20
227.5657171037516946
 30
0.0
 40
0.4515523472
 50
221.8811394170986091
 51
223.7193093756395115
  0
ARC
  5
119E1
  8
0
 10
4260.7056140100103221
 20
227.5606670478516946
 30
0.0
 40
0.436442838
 50
221.8680259721921004
 51
223.7691800117979994
  0
ARC
  5
119E2
  8
0
 10
4260.7395590581099896
 20
227.5606463237517119
 30
0.0
 40
0.4203152078000001
 50
223.4837138779959957
 51
225.3989679978336085
  0
ARC
  5
119E3
  8
0
 10
4260.660198359109927
 20
227.5431785683516921
 30
0.0
 40
0.4191903846000001
 50
222.8276044667861129
 51
224.7713817651049055
  0
ARC
  5
119E4
  8
0
 10
4260.6945106041102918
 20
227.5406959684517005
 30
0.0
 40
0.4039185013
 50
224.5680697422168919
 51
226.5230233641296138
  0
ARC
  5
119E5
  8
0
 10
4260.7143734550099907
 20
227.5382306624516957
 30
0.0
 40
0.38979256
 50
224.4844630837147008
 51
226.5130116675144052
  0
ARC
  5
119E6
  8
0
 10
4260.7806981571102369
 20
227.6031796842516997
 30
0.0
 40
0.4876776946
 50
219.9335569876076875
 51
221.7018024415162927
  0
ARC
  5
119E7
  8
0
 10
4260.7979207204089107
 20
227.6009025815517077
 30
0.0
 40
0.4706415462
 50
219.7895549068873038
 51
221.6268206955861899
  0
ARC
  5
119E8
  8
0
 10
4260.8262629934251891
 20
227.6662802502453928
 30
0.0
 40
0.6095767937623821
 50
214.5467293153537014
 51
215.995692492879698
  0
ARC
  5
119E9
  8
0
 10
4260.7555594969089725
 20
227.6617844150516987
 30
0.0
 40
0.6166754720000001
 50
214.9002235575082977
 51
215.1361134555100989
  0
ARC
  5
119EA
  8
0
 10
4260.8494338779100872
 20
227.6675859584516957
 30
0.0
 40
0.6015782923
 50
214.8778262006080126
 51
215.9771166718869893
  0
ARC
  5
119EB
  8
0
 10
4260.7845713059095942
 20
227.6549833606516984
 30
0.0
 40
0.5984720063000001
 50
215.1773635262015034
 51
216.7805058711768993
  0
ARC
  5
119EC
  8
0
 10
4260.7051661039104147
 20
227.6481303186517096
 30
0.0
 40
0.5935109169000001
 50
215.6123560524162031
 51
215.7373242627074887
  0
ARC
  5
119ED
  8
0
 10
4260.7991415304104521
 20
227.6487108810516986
 30
0.0
 40
0.580404603
 50
215.2098274493968972
 51
216.8614949597958912
  0
ARC
  5
119EE
  8
0
 10
4260.7346386116096255
 20
227.6392060637516863
 30
0.0
 40
0.5765572845
 50
215.8923135960928903
 51
217.5286248450956066
  0
ARC
  5
119EF
  8
0
 10
4260.8297635607086704
 20
227.6470445152517073
 30
0.0
 40
0.5618407331
 50
216.6350916080070874
 51
218.2846598300112078
  0
ARC
  5
119F0
  8
0
 10
4260.7495653989089988
 20
227.6314951788517078
 30
0.0
 40
0.5592863143
 50
215.9986311662962919
 51
217.6803999931939018
  0
ARC
  5
119F1
  8
0
 10
4260.6853028944087782
 20
227.6251637875517133
 30
0.0
 40
0.5546062132000001
 50
216.5416833538039896
 51
218.2166598467933909
  0
ARC
  5
119F2
  8
0
 10
4260.845428298310253
 20
227.6441789562516931
 30
0.0
 40
0.5436011082
 50
216.4982267284864008
 51
218.2081309177958133
  0
ARC
  5
119F3
  8
0
 10
4260.7805158580104035
 20
227.6276182408516888
 30
0.0
 40
0.5417390065
 50
217.5605905391904002
 51
219.2357329504951053
  0
ARC
  5
119F4
  8
0
 10
4260.7965446676089414
 20
227.6232821020516894
 30
0.0
 40
0.5242767435
 50
217.4989227302968118
 51
219.2320099301059884
  0
ARC
  5
119F5
  8
0
 10
4260.8283831580101833
 20
227.6245553731517077
 30
0.0
 40
0.5057785286000001
 50
218.8686847629051897
 51
220.6119556222876099
  0
ARC
  5
119F6
  8
0
 10
4260.8864654076096485
 20
227.6913954216516913
 30
0.0
 40
0.6422962121
 50
214.9026490536078029
 51
215.0909145345198112
  0
ARC
  5
119F7
  8
0
 10
4260.879850053210248
 20
227.6681685058516962
 30
0.0
 40
0.5821014112
 50
215.9276968820271065
 51
217.2652782044125104
  0
ARC
  5
119F8
  8
0
 10
4260.8952318993096924
 20
227.6668260346517059
 30
0.0
 40
0.5631469976
 50
217.0660756474482866
 51
217.107973180898199
  0
LINE
  5
119F9
  8
0
 10
4260.3052392225099538
 20
227.2542694907517102
 30
0.0
 11
4260.2953967028097395
 21
227.2489105854517106
 31
0.0
  0
LINE
  5
119FA
  8
0
 10
4260.4456375618101447
 20
227.2276722046516966
 30
0.0
 11
4260.4461221802102955
 21
227.2280384391517032
 31
0.0
  0
LINE
  5
119FB
  8
0
 10
4260.3510744021086794
 20
227.2367161253517054
 30
0.0
 11
4260.3515590205088301
 21
227.236259030751711
 31
0.0
  0
LINE
  5
119FC
  8
0
 10
4260.3899598625102954
 20
227.2309857594516984
 30
0.0
 11
4260.3904444809086272
 21
227.2313084736516942
 31
0.0
  0
LINE
  5
119FD
  8
0
 10
4260.2953967028097395
 20
227.2489105854517106
 30
0.0
 11
4260.2958813212089808
 21
227.2484033940517065
 31
0.0
  0
LINE
  5
119FE
  8
0
 10
4260.334282163208627
 20
227.2394468646517112
 30
0.0
 11
4260.3347667816096873
 21
227.2397257195517
 31
0.0
  0
LINE
  5
119FF
  8
0
 10
4260.2397190035098902
 20
227.2667828185516896
 30
0.0
 11
4260.240203621910041
 21
227.2662199056516954
 31
0.0
  0
LINE
  5
11A00
  8
0
 10
4260.2135688633088648
 20
227.2963788226516897
 30
0.0
 11
4260.2168489480100106
 21
227.2979722288517053
 31
0.0
  0
LINE
  5
11A01
  8
0
 10
4260.2168489480100106
 20
227.2979722288517053
 30
0.0
 11
4260.2199175922087306
 21
227.2996143821517023
 31
0.0
  0
LINE
  5
11A02
  8
0
 10
4260.2199175922087306
 20
227.2996143821517023
 30
0.0
 11
4260.2234113829090347
 21
227.3014783356516944
 31
0.0
  0
LINE
  5
11A03
  8
0
 10
4260.2786044639087777
 20
227.2533017970517051
 30
0.0
 11
4260.279089082309838
 21
227.2535351490516859
 31
0.0
  0
LINE
  5
11A04
  8
0
 10
4260.2206382286231019
 20
227.2721029730055875
 30
0.0
 11
4260.2267712991042572
 21
227.2696206693860006
 31
0.0
  0
LINE
  5
11A05
  8
0
 10
4260.2267712991042572
 20
227.2696206693860006
 30
0.0
 11
4260.2209511251103322
 21
227.2629631018421037
 31
0.0
  0
ARC
  5
11A06
  8
0
 10
4260.4508065437748883
 20
227.8256384420224947
 30
0.0
 40
0.6078133364259353
 50
247.7797633212011021
 51
257.2540985114068235
  0
ARC
  5
11A07
  8
0
 10
4260.4531898348313916
 20
227.8342638823837092
 30
0.0
 40
0.616752193599992
 50
257.214936717724072
 51
267.8414892337877973
  0
ARC
  5
11A08
  8
0
 10
4260.2457264493359617
 20
220.3770589606178874
 30
0.0
 40
6.8433707207913637
 50
88.2536590067559246
 51
88.4573244740032862
  0
LINE
  5
11A09
  8
0
 10
4260.1855181313676439
 20
227.2911039137210878
 30
0.0
 11
4260.1938845074710116
 21
227.2815632955598915
 31
0.0
  0
LINE
  5
11A0A
  8
0
 10
4260.1938845074710116
 20
227.2815632955598915
 30
0.0
 11
4260.2135695469596612
 21
227.2725425575513043
 31
0.0
  0
LINE
  5
11A0B
  8
0
 10
4260.2135695469596612
 20
227.2725425575513043
 30
0.0
 11
4260.2234120665680166
 21
227.2747804584872995
 31
0.0
  0
LINE
  5
11A0C
  8
0
 10
4260.2234120665680166
 20
227.2747804584872995
 30
0.0
 11
4260.2135695469596612
 21
227.2859798147019887
 31
0.0
  0
LINE
  5
11A0D
  8
0
 10
4260.2135695469596612
 20
227.2859798147019887
 30
0.0
 11
4260.1948805314032143
 21
227.294572527978687
 31
0.0
  0
LINE
  5
11A0E
  8
0
 10
4260.170306987697586
 20
227.2840327296007104
 30
0.0
 11
4260.1857306972451624
 21
227.2761097259192127
 31
0.0
  0
LINE
  5
11A0F
  8
0
 10
4260.1857306972451624
 20
227.2761097259192127
 30
0.0
 11
4260.1955732168707982
 21
227.2769319079168042
 31
0.0
  0
LINE
  5
11A10
  8
0
 10
4260.1955732168707982
 20
227.2769319079168042
 30
0.0
 11
4260.1857306972588049
 21
227.2877362230653091
 31
0.0
  0
LINE
  5
11A11
  8
0
 10
4260.1857306972588049
 20
227.2877362230653091
 30
0.0
 11
4260.1821797841257649
 21
227.2897096171961095
 31
0.0
  0
LINE
  5
11A12
  8
0
 10
4260.1595233172947701
 20
227.2778169605857101
 30
0.0
 11
4260.1660456578601952
 21
227.2717472429513066
 31
0.0
  0
LINE
  5
11A13
  8
0
 10
4260.1660456578601952
 20
227.2717472429513066
 30
0.0
 11
4260.1857306972588049
 21
227.2615298747512895
 31
0.0
  0
LINE
  5
11A14
  8
0
 10
4260.1857306972588049
 20
227.2615298747512895
 30
0.0
 11
4260.195573216822595
 21
227.2606214083214979
 31
0.0
  0
LINE
  5
11A15
  8
0
 10
4260.195573216822595
 20
227.2606214083214979
 30
0.0
 11
4260.1857306972588049
 21
227.2697783198931916
 31
0.0
  0
LINE
  5
11A16
  8
0
 10
4260.1857306972588049
 20
227.2697783198931916
 30
0.0
 11
4260.1660456578511003
 21
227.2799956881287073
 31
0.0
  0
LINE
  5
11A17
  8
0
 10
4260.1660456578511003
 20
227.2799956881287073
 30
0.0
 11
4260.1634325406666903
 21
227.2801950698589053
 31
0.0
  0
LINE
  5
11A18
  8
0
 10
4260.1562031381718043
 20
227.2705485409948096
 30
0.0
 11
4260.1660456579511447
 21
227.26300719551881
 31
0.0
  0
LINE
  5
11A19
  8
0
 10
4260.1660456579511447
 20
227.26300719551881
 30
0.0
 11
4260.1857306972151491
 21
227.2526942092740114
 31
0.0
  0
LINE
  5
11A1A
  8
0
 10
4260.1857306972151491
 20
227.2526942092740114
 30
0.0
 11
4260.1955732170254123
 21
227.2499925987218887
 31
0.0
  0
LINE
  5
11A1B
  8
0
 10
4260.1955732170254123
 20
227.2499925987218887
 30
0.0
 11
4260.1857306972724473
 21
227.2574188620365874
 31
0.0
  0
LINE
  5
11A1C
  8
0
 10
4260.1857306972724473
 20
227.2574188620365874
 30
0.0
 11
4260.1660456578601952
 21
227.267658974451308
 31
0.0
  0
LINE
  5
11A1D
  8
0
 10
4260.1660456578601952
 20
227.267658974451308
 30
0.0
 11
4260.1562031381718043
 21
227.2705485409948096
 31
0.0
  0
LINE
  5
11A1E
  8
0
 10
4260.1835216823437804
 20
227.2753353092282964
 30
0.0
 11
4260.193176847678842
 21
227.26635017165151
 31
0.0
  0
LINE
  5
11A1F
  8
0
 10
4260.193176847678842
 20
227.26635017165151
 30
0.0
 11
4260.2128618870801802
 21
227.2561328034514929
 31
0.0
  0
LINE
  5
11A20
  8
0
 10
4260.2128618870801802
 20
227.2561328034514929
 30
0.0
 11
4260.2227044066421513
 21
227.2552243370215876
 31
0.0
  0
LINE
  5
11A21
  8
0
 10
4260.2227044066421513
 20
227.2552243370215876
 30
0.0
 11
4260.2128618870801802
 21
227.2643812485933097
 31
0.0
  0
LINE
  5
11A22
  8
0
 10
4260.2128618870801802
 20
227.2643812485933097
 30
0.0
 11
4260.1931768476697471
 21
227.274598616828797
 31
0.0
  0
LINE
  5
11A23
  8
0
 10
4260.1931768476697471
 20
227.274598616828797
 30
0.0
 11
4260.1835216823437804
 21
227.2753353092282964
 31
0.0
  0
LINE
  5
11A24
  8
0
 10
4260.1840419879054025
 20
227.260207608399412
 30
0.0
 11
4260.1938845075683275
 21
227.2524115498464141
 31
0.0
  0
LINE
  5
11A25
  8
0
 10
4260.1938845075683275
 20
227.2524115498464141
 30
0.0
 11
4260.2135695469596612
 21
227.2434290852513072
 31
0.0
  0
LINE
  5
11A26
  8
0
 10
4260.2135695469596612
 20
227.2434290852513072
 30
0.0
 11
4260.2234120665880255
 21
227.2422706257054017
 31
0.0
  0
LINE
  5
11A27
  8
0
 10
4260.2234120665880255
 20
227.2422706257054017
 30
0.0
 11
4260.2135695469032726
 21
227.2499665508939017
 31
0.0
  0
LINE
  5
11A28
  8
0
 10
4260.2135695469032726
 20
227.2499665508939017
 30
0.0
 11
4260.1938845076083453
 21
227.258919125428406
 31
0.0
  0
LINE
  5
11A29
  8
0
 10
4260.1938845076083453
 20
227.258919125428406
 30
0.0
 11
4260.1840419879054025
 21
227.260207608399412
 31
0.0
  0
LINE
  5
11A2A
  8
0
 10
4260.1840419891777856
 20
227.2525070779290104
 30
0.0
 11
4260.1938845075474092
 21
227.2464358301859875
 31
0.0
  0
LINE
  5
11A2B
  8
0
 10
4260.1938845075474092
 20
227.2464358301859875
 30
0.0
 11
4260.2135695468678023
 21
227.2373224059919892
 31
0.0
  0
LINE
  5
11A2C
  8
0
 10
4260.2135695468678023
 20
227.2373224059919892
 30
0.0
 11
4260.223412066581659
 21
227.2343714948667071
 31
0.0
  0
LINE
  5
11A2D
  8
0
 10
4260.223412066581659
 20
227.2343714948667071
 30
0.0
 11
4260.2135695469596612
 21
227.2403820389513101
 31
0.0
  0
LINE
  5
11A2E
  8
0
 10
4260.2135695469596612
 20
227.2403820389513101
 30
0.0
 11
4260.193884507567418
 21
227.2494027770673881
 31
0.0
  0
LINE
  5
11A2F
  8
0
 10
4260.193884507567418
 20
227.2494027770673881
 30
0.0
 11
4260.1840419891777856
 21
227.2525070779290104
 31
0.0
  0
LINE
  5
11A30
  8
0
 10
4260.2118808372943022
 20
227.2425375041275117
 30
0.0
 11
4260.2217233572091573
 21
227.2361666807302925
 31
0.0
  0
LINE
  5
11A31
  8
0
 10
4260.2217233572091573
 20
227.2361666807302925
 30
0.0
 11
4260.2278564276639372
 21
227.2336341617844937
 31
0.0
  0
LINE
  5
11A32
  8
0
 10
4260.2278564276639372
 20
227.2336341617844937
 30
0.0
 11
4260.2220362536600078
 21
227.2388462096513138
 31
0.0
  0
LINE
  5
11A33
  8
0
 10
4260.2220362536600078
 20
227.2388462096513138
 30
0.0
 11
4260.2271613988850731
 21
227.2388462096513138
 31
0.0
  0
LINE
  5
11A34
  8
0
 10
4260.2118808372943022
 20
227.2425375041275117
 30
0.0
 11
4260.2217233571536781
 21
227.2410021750843043
 31
0.0
  0
LINE
  5
11A35
  8
0
 10
4260.2217233571536781
 20
227.2410021750843043
 30
0.0
 11
4260.2411157459882816
 21
227.2333138707163869
 31
0.0
  0
LINE
  5
11A36
  8
0
 10
4260.2411157459882816
 20
227.2333138707163869
 30
0.0
 11
4260.2486548047099859
 21
227.2338862241701918
 31
0.0
  0
LINE
  5
11A37
  8
0
 10
4260.2486548047099859
 20
227.2338862241701918
 30
0.0
 11
4260.2701546482339836
 21
227.2433147826529876
 31
0.0
  0
LINE
  5
11A38
  8
0
 10
4260.2701546482339836
 20
227.2433147826529876
 30
0.0
 11
4260.2718943742920601
 21
227.244753352226212
 31
0.0
  0
LINE
  5
11A39
  8
0
 10
4260.2397219104996111
 20
227.2352489305750112
 30
0.0
 11
4260.2495622068599914
 21
227.235832519611904
 31
0.0
  0
LINE
  5
11A3A
  8
0
 10
4260.2495622068599914
 20
227.235832519611904
 30
0.0
 11
4260.2692472461858415
 21
227.2444646899797931
 31
0.0
  0
LINE
  5
11A3B
  8
0
 10
4260.2692472461858415
 20
227.2444646899797931
 30
0.0
 11
4260.270219477268256
 21
227.2452718653252077
 31
0.0
  0
LINE
  5
11A3C
  8
0
 10
4260.2397219104996111
 20
227.2352489305750112
 30
0.0
 11
4260.2495622068108787
 21
227.2440809647756907
 31
0.0
  0
LINE
  5
11A3D
  8
0
 10
4260.2495622068108787
 20
227.2440809647756907
 30
0.0
 11
4260.2596672292720541
 21
227.248661133640212
 31
0.0
  0
LINE
  5
11A3E
  8
0
 10
4260.2118728955147162
 20
227.2532065868026905
 30
0.0
 11
4260.2217233572273472
 21
227.2451478067519872
 31
0.0
  0
LINE
  5
11A3F
  8
0
 10
4260.2217233572273472
 20
227.2451478067519872
 30
0.0
 11
4260.2398946680359586
 21
227.2379352907011025
 31
0.0
  0
LINE
  5
11A40
  8
0
 10
4260.2398946680359586
 20
227.2379352907011025
 30
0.0
 11
4260.2414083965040845
 21
227.2386781904070858
 31
0.0
  0
LINE
  5
11A41
  8
0
 10
4260.2414083965040845
 20
227.2386781904070858
 30
0.0
 11
4260.2512509162288552
 21
227.2474736229690961
 31
0.0
  0
LINE
  5
11A42
  8
0
 10
4260.2512509162288552
 20
227.2474736229690961
 30
0.0
 11
4260.2414083965768441
 21
227.2469266355693094
 31
0.0
  0
LINE
  5
11A43
  8
0
 10
4260.2414083965768441
 20
227.2469266355693094
 30
0.0
 11
4260.2398946680041263
 21
227.2461837358835055
 31
0.0
  0
LINE
  5
11A44
  8
0
 10
4260.2398946680041263
 20
227.2461837358835055
 30
0.0
 11
4260.2217233571600445
 21
227.2533962519459863
 31
0.0
  0
LINE
  5
11A45
  8
0
 10
4260.2217233571600445
 20
227.2533962519459863
 30
0.0
 11
4260.2118808374725631
 21
227.2532068443011042
 31
0.0
  0
LINE
  5
11A46
  8
0
 10
4260.2206382285303334
 20
227.2582216095836998
 30
0.0
 11
4260.2411157460073809
 21
227.2520047347755963
 31
0.0
  0
LINE
  5
11A47
  8
0
 10
4260.2411157460073809
 20
227.2520047347755963
 30
0.0
 11
4260.2436825997319829
 21
227.2542045230599115
 31
0.0
  0
LINE
  5
11A48
  8
0
 10
4260.245226969597752
 20
227.2536471041352968
 30
0.0
 11
4260.2397196871588676
 21
227.2492880364513042
 31
0.0
  0
LINE
  5
11A49
  8
0
 10
4260.2397196871588676
 20
227.2492880364513042
 30
0.0
 11
4260.2493774811409821
 21
227.2492880364513042
 31
0.0
  0
LINE
  5
11A4A
  8
0
 10
4260.2493774811409821
 20
227.2492880364513042
 30
0.0
 11
4260.2530729984109712
 21
227.250887629082996
 31
0.0
  0
LINE
  5
11A4B
  8
0
 10
4260.2118808374589207
 20
227.2375608195513053
 30
0.0
 11
4260.2217233571600445
 21
227.2328960432512872
 31
0.0
  0
LINE
  5
11A4C
  8
0
 10
4260.2217233571600445
 20
227.2328960432512872
 30
0.0
 11
4260.2414083965586542
 21
227.2248933803512898
 31
0.0
  0
LINE
  5
11A4D
  8
0
 10
4260.2414083965586542
 20
227.2248933803512898
 30
0.0
 11
4260.2512509162243077
 21
227.221660564930005
 31
0.0
  0
LINE
  5
11A4E
  8
0
 10
4260.2512509162243077
 20
227.221660564930005
 30
0.0
 11
4260.2414083965149985
 21
227.2263095740543122
 31
0.0
  0
LINE
  5
11A4F
  8
0
 10
4260.2414083965149985
 20
227.2263095740543122
 30
0.0
 11
4260.2217233571600445
 21
227.2341880444514004
 31
0.0
  0
LINE
  5
11A50
  8
0
 10
4260.2217233571600445
 20
227.2341880444514004
 30
0.0
 11
4260.2118808374589207
 21
227.2375608195513053
 31
0.0
  0
LINE
  5
11A51
  8
0
 10
4260.2397196871588676
 20
227.2278511308512918
 30
0.0
 11
4260.2495622068599914
 21
227.2228457715112881
 31
0.0
  0
LINE
  5
11A52
  8
0
 10
4260.2495622068599914
 20
227.2228457715112881
 30
0.0
 11
4260.2692472465569153
 21
227.2160564095543975
 31
0.0
  0
LINE
  5
11A53
  8
0
 10
4260.2692472465569153
 20
227.2160564095543975
 30
0.0
 11
4260.2790897658596805
 21
227.2143354702513136
 31
0.0
  0
LINE
  5
11A54
  8
0
 10
4260.2790897658596805
 20
227.2143354702513136
 30
0.0
 11
4260.2692472462604201
 21
227.2175118447513
 31
0.0
  0
LINE
  5
11A55
  8
0
 10
4260.2692472462604201
 20
227.2175118447513
 30
0.0
 11
4260.2495622068599914
 21
227.2242619173796072
 31
0.0
  0
LINE
  5
11A56
  8
0
 10
4260.2495622068599914
 20
227.2242619173796072
 30
0.0
 11
4260.2397196871588676
 21
227.2278511308512918
 31
0.0
  0
LINE
  5
11A57
  8
0
 10
4260.2675585368406246
 20
227.2160148759020899
 30
0.0
 11
4260.2774010564598939
 21
227.2123402818513114
 31
0.0
  0
LINE
  5
11A58
  8
0
 10
4260.2774010564598939
 20
227.2123402818513114
 30
0.0
 11
4260.2970860958603225
 21
227.2065563617512964
 31
0.0
  0
LINE
  5
11A59
  8
0
 10
4260.2970860958603225
 20
227.2065563617512964
 30
0.0
 11
4260.3069286155023292
 21
227.2045180534395001
 31
0.0
  0
LINE
  5
11A5A
  8
0
 10
4260.3069286155023292
 20
227.2045180534395001
 30
0.0
 11
4260.2970860958603225
 21
227.2082055437145129
 31
0.0
  0
LINE
  5
11A5B
  8
0
 10
4260.2970860958603225
 20
227.2082055437145129
 30
0.0
 11
4260.2774010564598939
 21
227.2139155749381132
 31
0.0
  0
LINE
  5
11A5C
  8
0
 10
4260.2774010564598939
 20
227.2139155749381132
 30
0.0
 11
4260.2675585367924214
 21
227.2160148759203082
 31
0.0
  0
LINE
  5
11A5D
  8
0
 10
4260.2953973864587169
 20
227.2096173550513072
 30
0.0
 11
4260.3052399061480173
 21
227.2055858331181923
 31
0.0
  0
LINE
  5
11A5E
  8
0
 10
4260.3052399061480173
 20
227.2055858331181923
 30
0.0
 11
4260.3249249455593599
 21
227.2008797709513885
 31
0.0
  0
LINE
  5
11A5F
  8
0
 10
4260.3249249455593599
 20
227.2008797709513885
 30
0.0
 11
4260.3347674651586203
 21
227.2002466856513081
 31
0.0
  0
LINE
  5
11A60
  8
0
 10
4260.3347674651586203
 20
227.2002466856513081
 30
0.0
 11
4260.3249249455593599
 21
227.2024138973513061
 31
0.0
  0
LINE
  5
11A61
  8
0
 10
4260.3249249455593599
 20
227.2024138973513061
 30
0.0
 11
4260.3052399061589313
 21
227.2070962758513986
 31
0.0
  0
LINE
  5
11A62
  8
0
 10
4260.3052399061589313
 20
227.2070962758513986
 30
0.0
 11
4260.2953973864587169
 21
227.2096173550513072
 31
0.0
  0
LINE
  5
11A63
  8
0
 10
4260.323236236118646
 20
227.2006055798948978
 30
0.0
 11
4260.3330787557588337
 21
227.1978610825514124
 31
0.0
  0
LINE
  5
11A64
  8
0
 10
4260.3330787557588337
 20
227.1978610825514124
 30
0.0
 11
4260.3527637951992801
 21
227.1940997841064984
 31
0.0
  0
LINE
  5
11A65
  8
0
 10
4260.3527637951992801
 20
227.1940997841064984
 30
0.0
 11
4260.3626063146193701
 21
227.1931271209165004
 31
0.0
  0
LINE
  5
11A66
  8
0
 10
4260.3626063146193701
 20
227.1931271209165004
 30
0.0
 11
4260.3527637951601719
 21
227.1958935596514095
 31
0.0
  0
LINE
  5
11A67
  8
0
 10
4260.3527637951601719
 20
227.1958935596514095
 30
0.0
 11
4260.3330787558106749
 21
227.199610977676997
 31
0.0
  0
LINE
  5
11A68
  8
0
 10
4260.3330787558106749
 20
227.199610977676997
 30
0.0
 11
4260.323236236118646
 21
227.2006055798948978
 31
0.0
  0
LINE
  5
11A69
  8
0
 10
4260.3510750857822131
 20
227.1971762094356961
 30
0.0
 11
4260.3609176055433636
 21
227.1940675882052005
 31
0.0
  0
LINE
  5
11A6A
  8
0
 10
4260.3609176055433636
 20
227.1940675882052005
 30
0.0
 11
4260.3806026449310593
 21
227.1912972708423979
 31
0.0
  0
LINE
  5
11A6B
  8
0
 10
4260.3806026449310593
 20
227.1912972708423979
 30
0.0
 11
4260.3904451645603331
 21
227.1916591647513997
 31
0.0
  0
LINE
  5
11A6C
  8
0
 10
4260.3904451645603331
 20
227.1916591647513997
 30
0.0
 11
4260.3806026448601187
 21
227.192876502082612
 31
0.0
  0
LINE
  5
11A6D
  8
0
 10
4260.3806026448601187
 20
227.192876502082612
 30
0.0
 11
4260.3513173949586417
 21
227.1971768869013033
 31
0.0
  0
LINE
  5
11A6E
  8
0
 10
4260.4067527850565966
 20
227.1901451607512001
 30
0.0
 11
4260.4165953047840958
 21
227.1879388088524934
 31
0.0
  0
LINE
  5
11A6F
  8
0
 10
4260.4165953047840958
 20
227.1879388088524934
 30
0.0
 11
4260.4362803441599681
 21
227.1870238867514047
 31
0.0
  0
LINE
  5
11A70
  8
0
 10
4260.4362803441599681
 20
227.1870238867514047
 30
0.0
 11
4260.445880554660107
 21
227.1883700062514038
 31
0.0
  0
LINE
  5
11A71
  8
0
 10
4260.445880554660107
 20
227.1883700062514038
 30
0.0
 11
4260.4067527850565966
 21
227.1901451607512001
 31
0.0
  0
LINE
  5
11A72
  8
0
 10
4260.3789139353812061
 20
227.1908242675594067
 30
0.0
 11
4260.3887564551587275
 21
227.1889832329513013
 31
0.0
  0
LINE
  5
11A73
  8
0
 10
4260.3887564551587275
 20
227.1889832329513013
 30
0.0
 11
4260.4084414944600212
 21
227.1871293577709139
 31
0.0
  0
LINE
  5
11A74
  8
0
 10
4260.4084414944600212
 20
227.1871293577709139
 30
0.0
 11
4260.418284013995617
 21
227.1871377087967971
 31
0.0
  0
LINE
  5
11A75
  8
0
 10
4260.418284013995617
 20
227.1871377087967971
 30
0.0
 11
4260.4084414944145465
 21
227.1890029139005946
 31
0.0
  0
LINE
  5
11A76
  8
0
 10
4260.4084414944145465
 20
227.1890029139005946
 30
0.0
 11
4260.3887564551587275
 21
227.1908357623975974
 31
0.0
  0
LINE
  5
11A77
  8
0
 10
4260.3887564551587275
 20
227.1908357623975974
 30
0.0
 11
4260.3789139399168562
 21
227.1908242667107913
 31
0.0
  0
ARC
  5
11A78
  8
0
 10
4260.4541065565035751
 20
227.796045992409006
 30
0.0
 40
0.6035584718397881
 50
262.0728205292891744
 51
270.0160843629849978
  0
ARC
  5
11A79
  8
0
 10
4260.4541339159168274
 20
227.7967054742850905
 30
0.0
 40
0.6042154284385407
 50
247.410219756328388
 51
262.0788756032283118
  0
LINE
  5
11A7A
  8
0
 10
4260.270154648260359
 20
227.2433147826739912
 30
0.0
 11
4260.270154648260359
 21
227.2388462096513138
 31
0.0
  0
LINE
  5
11A7B
  8
0
 10
4260.270154648260359
 20
227.2388462096513138
 30
0.0
 11
4260.2923391087424534
 21
227.2388462096513138
 31
0.0
  0
LINE
  5
11A7C
  8
0
 10
4260.2774010564598939
 20
227.2388462096513138
 30
0.0
 11
4260.2774010564598939
 21
227.2430857929805086
 31
0.0
  0
ARC
  5
11A7D
  8
0
 10
4261.3973432651819166
 20
227.7200188662122002
 30
0.0
 40
0.016320602597766
 50
35.1020992950897579
 51
82.9529693489775184
  0
ARC
  5
11A7E
  8
0
 10
4261.0441868863517811
 20
227.6034572247733934
 30
0.0
 40
0.3875450772243242
 50
0.8456901843465288
 51
18.9647015449168386
  0
ARC
  5
11A7F
  8
0
 10
4245.6889867797362967
 20
226.8676021805150071
 30
0.0
 40
15.7601595902210292
 50
1.0516631253979041
 51
2.6969786588009201
  0
LINE
  5
11A80
  8
0
 10
4261.4464916027136496
 20
222.0723130717514096
 30
0.0
 11
4261.4464916027136496
 21
227.9266398434513974
 31
0.0
  0
ARC
  5
11A81
  8
0
 10
4261.4149916027126892
 20
227.9266398434513974
 30
0.0
 40
0.0315
 50
359.9999999999968168
 51
90.0
  0
ARC
  5
11A82
  8
0
 10
4260.4542766718768689
 20
227.7880684103313058
 30
0.0
 40
0.6008165392799893
 50
269.061344188612793
 51
270.9386562343702849
  0
LINE
  5
11A83
  8
0
 10
4260.434591634748358
 20
227.1863772181831962
 30
0.0
 11
4260.444434154427654
 21
227.1873324960372997
 31
0.0
  0
LINE
  5
11A84
  8
0
 10
4260.2128618870801802
 20
227.2561328034514929
 30
0.0
 11
4260.2128618870801802
 21
227.2643812485933097
 31
0.0
  0
LINE
  5
11A85
  8
0
 10
4260.193176847678842
 20
227.26635017165151
 30
0.0
 11
4260.1931768476697471
 21
227.274598616828797
 31
0.0
  0
LINE
  5
11A86
  8
0
 10
4260.1857306972451624
 20
227.2761097259192127
 30
0.0
 11
4260.1857306972588049
 21
227.2877362230653091
 31
0.0
  0
LINE
  5
11A87
  8
0
 10
4260.1938845074710116
 20
227.2815632955598915
 30
0.0
 11
4260.1938845074710116
 21
227.2942336005673098
 31
0.0
  0
LINE
  5
11A88
  8
0
 10
4260.2135695469596612
 20
227.2725425575513043
 30
0.0
 11
4260.2135695469596612
 21
227.2859798147019887
 31
0.0
  0
LINE
  5
11A89
  8
0
 10
4260.2135695469596612
 20
227.2434290852513072
 30
0.0
 11
4260.2135695469032726
 21
227.2499665508939017
 31
0.0
  0
LINE
  5
11A8A
  8
0
 10
4260.1938845075683275
 20
227.2524115498464141
 30
0.0
 11
4260.1938845076083453
 21
227.258919125428406
 31
0.0
  0
LINE
  5
11A8B
  8
0
 10
4260.1857306972588049
 20
227.2615298747512895
 30
0.0
 11
4260.1857306972588049
 21
227.2697783198931916
 31
0.0
  0
LINE
  5
11A8C
  8
0
 10
4260.1660456578601952
 20
227.2717472429513066
 30
0.0
 11
4260.1660456578511003
 21
227.2799956881287073
 31
0.0
  0
LINE
  5
11A8D
  8
0
 10
4260.1660456578601952
 20
227.267658974451308
 30
0.0
 11
4260.1660456579511447
 21
227.26300719551881
 31
0.0
  0
LINE
  5
11A8E
  8
0
 10
4260.1857306972151491
 20
227.2526942092740114
 30
0.0
 11
4260.1857306972724473
 21
227.2574188620365874
 31
0.0
  0
LINE
  5
11A8F
  8
0
 10
4260.1938845075474092
 20
227.2464358301859875
 30
0.0
 11
4260.193884507567418
 21
227.2494027770673881
 31
0.0
  0
LINE
  5
11A90
  8
0
 10
4260.2135695468678023
 20
227.2373224059919892
 30
0.0
 11
4260.2135695469596612
 21
227.2403820389513101
 31
0.0
  0
LINE
  5
11A91
  8
0
 10
4260.4165953047840958
 20
227.1879388088524934
 30
0.0
 11
4260.4165953047840958
 21
227.189698623845004
 31
0.0
  0
LINE
  5
11A92
  8
0
 10
4260.4362803441599681
 20
227.1870238867514047
 30
0.0
 11
4260.4362803441599681
 21
227.1888055500363066
 31
0.0
  0
LINE
  5
11A93
  8
0
 10
4260.4084414944600212
 20
227.1871293577709139
 30
0.0
 11
4260.4087842339240524
 21
227.1889379631043084
 31
0.0
  0
LINE
  5
11A94
  8
0
 10
4260.3890638310058421
 20
227.1889542852595127
 30
0.0
 11
4260.3892348654553643
 21
227.1907912182348923
 31
0.0
  0
LINE
  5
11A95
  8
0
 10
4260.3806026449310593
 20
227.1912972708423979
 30
0.0
 11
4260.3806026449310593
 21
227.1928765020738012
 31
0.0
  0
LINE
  5
11A96
  8
0
 10
4260.3609176055433636
 20
227.1940675882052005
 30
0.0
 11
4260.3609176055433636
 21
227.1957671465034991
 31
0.0
  0
LINE
  5
11A97
  8
0
 10
4260.3527637951992801
 20
227.1940997841064984
 30
0.0
 11
4260.3527637951601719
 21
227.1958935596514095
 31
0.0
  0
LINE
  5
11A98
  8
0
 10
4260.3330787557588337
 20
227.1978610825514124
 30
0.0
 11
4260.3330787557588337
 21
227.1999063656492979
 31
0.0
  0
LINE
  5
11A99
  8
0
 10
4260.3249249455593599
 20
227.2008797709513885
 30
0.0
 11
4260.3249249455593599
 21
227.2024138973513061
 31
0.0
  0
LINE
  5
11A9A
  8
0
 10
4260.3052399061480173
 20
227.2055858331181923
 30
0.0
 11
4260.3052399061480173
 21
227.2070962758544965
 31
0.0
  0
LINE
  5
11A9B
  8
0
 10
4260.2970860958603225
 20
227.2065563617512964
 30
0.0
 11
4260.2970860958603225
 21
227.2082055437145129
 31
0.0
  0
LINE
  5
11A9C
  8
0
 10
4260.2774010564598939
 20
227.2123402818513114
 30
0.0
 11
4260.2774010564598939
 21
227.2139155749381132
 31
0.0
  0
LINE
  5
11A9D
  8
0
 10
4260.2692472465569153
 20
227.2160564095543975
 30
0.0
 11
4260.2692472465569153
 21
227.2175118446556041
 31
0.0
  0
LINE
  5
11A9E
  8
0
 10
4260.2495622068599914
 20
227.2228457715112881
 30
0.0
 11
4260.2495622068599914
 21
227.2242619173796072
 31
0.0
  0
LINE
  5
11A9F
  8
0
 10
4260.2414083965586542
 20
227.2248933803512898
 30
0.0
 11
4260.2414083965149985
 21
227.2263095740543122
 31
0.0
  0
LINE
  5
11AA0
  8
0
 10
4260.2218826746320701
 20
227.2328312750790928
 30
0.0
 11
4260.2217233571600445
 21
227.2341880444514004
 31
0.0
  0
ARC
  5
11AA1
  8
0
 10
4259.2260610948897011
 20
228.8887182094321986
 30
0.0
 40
2.335667640742952
 50
316.6625655510193837
 51
330.4333420111256032
  0
ARC
  5
11AA2
  8
0
 10
4260.7901555499638562
 20
227.4314467028802937
 30
0.0
 40
0.1984082389855007
 50
290.004475730456079
 51
312.7555962528530245
  0
ARC
  5
11AA3
  8
0
 10
4260.6553623131021595
 20
227.765867504975887
 30
0.0
 40
0.5588983868321461
 50
280.3789815759789121
 51
291.2611516745167819
  0
ARC
  5
11AA4
  8
0
 10
4260.4496399457793814
 20
224.682514572326312
 30
0.0
 40
2.7453466071909221
 50
88.8886430383413852
 51
89.9032450320562049
  0
ARC
  5
11AA5
  8
0
 10
4260.460742346560437
 20
225.5540388763448902
 30
0.0
 40
1.87377989724495
 50
83.4939399592265517
 51
88.7111871080427647
  0
ARC
  5
11AA6
  8
0
 10
4260.5551661714953298
 20
226.3820075522804132
 30
0.0
 40
1.0404444383536151
 50
75.1612795543440768
 51
83.4939399592265517
  0
ARC
  5
11AA7
  8
0
 10
4260.6904822909073118
 20
226.8927606583727936
 30
0.0
 40
0.5120703402413247
 50
66.1553008988591671
 51
75.1612795543440768
  0
ARC
  5
11AA8
  8
0
 10
4260.857149469153228
 20
227.2698487078139067
 30
0.0
 40
0.0997921024750981
 50
37.9326674705304328
 51
66.1553008988591671
  0
ARC
  5
11AA9
  8
0
 10
4260.9130035399566623
 20
227.3165487443204995
 30
0.0
 40
0.0271451892501325
 50
356.0298450982376153
 51
32.651693993129669
  0
ARC
  5
11AAA
  8
0
 10
4260.8730163139316574
 20
227.3315494269031092
 30
0.0
 40
0.0691589326756335
 50
318.5452157965403899
 51
345.8726849093367832
  0
ARC
  5
11AAB
  8
0
 10
4260.4547583550111085
 20
225.9073708210420932
 30
0.0
 40
1.510740458812154
 50
86.9765388734910232
 51
90.0182939765971639
  0
ARC
  5
11AAC
  8
0
 10
4260.4657478298086062
 20
226.1154323596582003
 30
0.0
 40
1.302388899164421
 50
81.7835717452505833
 51
86.9765388734910232
  0
ARC
  5
11AAD
  8
0
 10
4260.5493915043898596
 20
226.6947026643155141
 30
0.0
 40
0.7171108881687152
 50
74.5967661507324635
 51
81.7835717452505833
  0
ARC
  5
11AAE
  8
0
 10
4260.6573177939835659
 20
227.0864402255340053
 30
0.0
 40
0.3107780186455483
 50
64.3841661371779708
 51
74.5967661507324635
  0
ARC
  5
11AAF
  8
0
 10
4260.7463727159729387
 20
227.272180441841698
 30
0.0
 40
0.1047920796001863
 50
46.5288742431633509
 51
64.3841661371779708
  0
ARC
  5
11AB0
  8
0
 10
4260.7997786928090136
 20
227.3285154296544874
 30
0.0
 40
0.0271658648677432
 50
349.3412355888996785
 51
46.5288742431633509
  0
ARC
  5
11AB1
  8
0
 10
4260.7928361913718618
 20
227.3298220547370079
 30
0.0
 40
0.03423025410602
 50
297.432184843033383
 51
349.3412355888996785
  0
ARC
  5
11AB2
  8
0
 10
4260.4510282953879141
 20
228.7661587475296869
 30
0.0
 40
1.5958921278671501
 50
270.1165989535026029
 51
271.5919619309270274
  0
ARC
  5
11AB3
  8
0
 10
4260.4593120409699623
 20
228.4190202626195116
 30
0.0
 40
1.2486582409768039
 50
271.6545248456458239
 51
275.8029061070560033
  0
ARC
  5
11AB4
  8
0
 10
4260.5054893090473342
 20
227.998729354879913
 30
0.0
 40
0.8258594367638428
 50
275.5638050125677978
 51
282.7787532682801839
  0
ARC
  5
11AB5
  8
0
 10
4260.6127721494231082
 20
227.5319580037358094
 30
0.0
 40
0.3469225347921299
 50
282.5505251473466046
 51
293.2612320842752069
  0
ARC
  5
11AB6
  8
0
 10
4260.7092474907858559
 20
227.3098290521224953
 30
0.0
 40
0.1047531209441482
 50
292.7639396650134245
 51
314.2175543553211128
  0
ARC
  5
11AB7
  8
0
 10
4260.7269503134466504
 20
227.300056310468392
 30
0.0
 40
0.0856049920542438
 50
310.2841782776919786
 51
328.3098169010722245
  0
ARC
  5
11AB8
  8
0
 10
4260.7488106824703209
 20
227.2863340130882079
 30
0.0
 40
0.0597956114377138
 50
328.4942704870317129
 51
359.8251772487618041
  0
ARC
  5
11AB9
  8
0
 10
4260.7809099364312715
 20
227.3070968438775878
 30
0.0
 40
0.0277330809251744
 50
2.9600447363410098
 51
44.1837940172588475
  0
ARC
  5
11ABA
  8
0
 10
4260.707470228989223
 20
227.2237763441708864
 30
0.0
 40
0.1387331592092858
 50
47.7233564198496865
 51
72.8831962050911244
  0
ARC
  5
11ABB
  8
0
 10
4260.5300954386402736
 20
226.6700677002264968
 30
0.0
 40
0.7201510919421076
 50
72.3620336568456537
 51
85.284422778222833
  0
ARC
  5
11ABC
  8
0
 10
4260.4586634144707205
 20
226.0566703403549127
 30
0.0
 40
1.3375057063086511
 50
84.394939171052016
 51
88.4996718317813844
  0
ARC
  5
11ABD
  8
0
 10
4260.4543486406282682
 20
225.938157876591589
 30
0.0
 40
1.4560910163739571
 50
88.4520468432365163
 51
90.0028587121767885
  0
LINE
  5
11ABE
  8
0
 10
4260.8086060155601444
 20
227.2861515630513907
 30
0.0
 11
4260.8086060155601444
 21
227.3085289676513128
 31
0.0
  0
ARC
  5
11ABF
  8
0
 10
4260.4544476052151367
 20
226.0445425383481108
 30
0.0
 40
1.2828811330810119
 50
87.536559696818145
 51
90.0076646215101306
  0
ARC
  5
11AC0
  8
0
 10
4260.4595504271374011
 20
226.1631530767874096
 30
0.0
 40
1.164160879457466
 50
83.5009666666357191
 51
87.536559696818145
  0
ARC
  5
11AC1
  8
0
 10
4260.503139314634609
 20
226.5457852277087909
 30
0.0
 40
0.7790539410209226
 50
81.1990953795548762
 51
83.5009666666357191
  0
ARC
  5
11AC2
  8
0
 10
4260.5234006399314239
 20
226.6766517600165969
 30
0.0
 40
0.6466282238016504
 50
73.4046353693962033
 51
81.1990953795548762
  0
ARC
  5
11AC3
  8
0
 10
4260.6605082113746903
 20
227.1367059067399055
 30
0.0
 40
0.1665779097045996
 50
55.5037776121764068
 51
73.4046353693962033
  0
ARC
  5
11AC4
  8
0
 10
4260.7334887539918782
 20
227.2429082550320061
 30
0.0
 40
0.037717138391879
 50
25.7172937000420383
 51
55.5037776121764068
  0
ARC
  5
11AC5
  8
0
 10
4260.74583837206319
 20
227.2512130275297864
 30
0.0
 40
0.0230849524342564
 50
309.0051623844641995
 51
20.4399783313020009
  0
ARC
  5
11AC6
  8
0
 10
4260.6510255986013362
 20
227.3772110275025966
 30
0.0
 40
0.1807584050819228
 50
282.5171230885085265
 51
307.2222282184715141
  0
ARC
  5
11AC7
  8
0
 10
4260.5062791464279144
 20
227.9208793137628959
 30
0.0
 40
0.743246336802784
 50
274.9767566126234897
 51
284.3271578772879025
  0
ARC
  5
11AC8
  8
0
 10
4260.4571233792939893
 20
228.3807132716412127
 30
0.0
 40
1.205645235558447
 50
270.9696096452620964
 51
275.4082266976524807
  0
ARC
  5
11AC9
  8
0
 10
4260.4542847719376368
 20
228.4719048807176875
 30
0.0
 40
1.2968724687785551
 50
269.9996120368444963
 51
271.026824910167079
  0
LINE
  5
11ACA
  8
0
 10
4260.6879137524883845
 20
227.2582216095836998
 30
0.0
 11
4260.6879137524883845
 21
227.2721029729837028
 31
0.0
  0
ARC
  5
11ACB
  8
0
 10
4260.7406894227879093
 20
227.4241935374836885
 30
0.0
 40
0.1609869907
 50
250.8631436146195028
 51
254.5327764276889866
  0
ARC
  5
11ACC
  8
0
 10
4260.3677897097877576
 20
227.5592707352838033
 30
0.0
 40
0.4394468819
 50
318.0138044205946812
 51
318.6656150677989103
  0
ARC
  5
11ACD
  8
0
 10
4260.3767542730884088
 20
227.5512245431837073
 30
0.0
 40
0.4274009558
 50
317.3582442946051856
 51
318.0116494118987021
  0
ARC
  5
11ACE
  8
0
 10
4260.3820522645883102
 20
227.5463605353837124
 30
0.0
 40
0.4202087959
 50
317.1523320703149125
 51
317.3567522636161016
  0
ARC
  5
11ACF
  8
0
 10
4260.3864599334883678
 20
227.5422697566837087
 30
0.0
 40
0.4141953100000001
 50
316.7027746762037168
 51
317.1525770857996918
  0
LINE
  5
11AD0
  8
0
 10
4260.6949831177089436
 20
227.2963788226516897
 30
0.0
 11
4260.6949831177089436
 21
227.3000998437705107
 31
0.0
  0
LINE
  5
11AD1
  8
0
 10
4260.6868293075103793
 20
227.2789059251612116
 30
0.0
 11
4260.6868293075103793
 21
227.2962421542517006
 31
0.0
  0
LINE
  5
11AD2
  8
0
 10
4260.6683483591095865
 20
227.2667828185516896
 30
0.0
 11
4260.6683483591095865
 21
227.2662199056516954
 31
0.0
  0
LINE
  5
11AD3
  8
0
 10
4260.6671442681099506
 20
227.2711606827452044
 30
0.0
 11
4260.6671442681099506
 21
227.2883981697517015
 31
0.0
  0
LINE
  5
11AD4
  8
0
 10
4260.6671442681099506
 20
227.3004248380553918
 30
0.0
 11
4260.6671442681099506
 21
227.3071006708532025
 31
0.0
  0
LINE
  5
11AD5
  8
0
 10
4260.6589904578086134
 20
227.2820639345281108
 30
0.0
 11
4260.6589904578086134
 21
227.3010286156516884
 31
0.0
  0
LINE
  5
11AD6
  8
0
 10
4260.6393054184100038
 20
227.2753565646254117
 30
0.0
 11
4260.6393054184100038
 21
227.2942096908516874
 31
0.0
  0
LINE
  5
11AD7
  8
0
 10
4260.6393054184100038
 20
227.3072804057827057
 30
0.0
 11
4260.6393054184100038
 21
227.3128075130699131
 31
0.0
  0
LINE
  5
11AD8
  8
0
 10
4260.631151608109576
 20
227.2590118499755931
 30
0.0
 11
4260.631151608109576
 21
227.2760939764517047
 31
0.0
  0
LINE
  5
11AD9
  8
0
 10
4260.631151608109576
 20
227.2879972959883048
 30
0.0
 11
4260.631151608109576
 21
227.3086043749516989
 31
0.0
  0
LINE
  5
11ADA
  8
0
 10
4260.6299475171090307
 20
227.254064634151689
 30
0.0
 11
4260.6299475171090307
 21
227.2533017970517051
 31
0.0
  0
LINE
  5
11ADB
  8
0
 10
4260.6114665688101013
 20
227.2534172691516972
 30
0.0
 11
4260.6114665688101013
 21
227.2704247409517109
 31
0.0
  0
LINE
  5
11ADC
  8
0
 10
4260.6114665688101013
 20
227.2822671832840911
 30
0.0
 11
4260.6114665688101013
 21
227.302765741451708
 31
0.0
  0
LINE
  5
11ADD
  8
0
 10
4260.6114665688101013
 20
227.3169152948516967
 30
0.0
 11
4260.6114665688101013
 21
227.3172709690049089
 31
0.0
  0
LINE
  5
11ADE
  8
0
 10
4260.6033127585096736
 20
227.2650175839999065
 30
0.0
 11
4260.6033127585096736
 21
227.2837018176516892
 31
0.0
  0
LINE
  5
11ADF
  8
0
 10
4260.6033127585096736
 20
227.2966406529706944
 30
0.0
 11
4260.6033127585096736
 21
227.3183720022283012
 31
0.0
  0
LINE
  5
11AE0
  8
0
 10
4260.5836277191101544
 20
227.2603655879302949
 30
0.0
 11
4260.5836277191101544
 21
227.2789821336517093
 31
0.0
  0
LINE
  5
11AE1
  8
0
 10
4260.5836277191101544
 20
227.2918697366517051
 30
0.0
 11
4260.5836277191101544
 21
227.3140655681517046
 31
0.0
  0
LINE
  5
11AE2
  8
0
 10
4260.5754739088097267
 20
227.2449960828064945
 30
0.0
 11
4260.5754739088097267
 21
227.2619018735516931
 31
0.0
  0
LINE
  5
11AE3
  8
0
 10
4260.5754739088097267
 20
227.2736652575271137
 30
0.0
 11
4260.5754739088097267
 21
227.2939952483517061
 31
0.0
  0
LINE
  5
11AE4
  8
0
 10
4260.5754739088097267
 20
227.3080170774516944
 30
0.0
 11
4260.5754739088097267
 21
227.3215279296119036
 31
0.0
  0
LINE
  5
11AE5
  8
0
 10
4260.555788869510252
 20
227.2413523842517122
 30
0.0
 11
4260.555788869510252
 21
227.2582151547516958
 31
0.0
  0
LINE
  5
11AE6
  8
0
 10
4260.555788869510252
 20
227.2699395520762096
 30
0.0
 11
4260.555788869510252
 21
227.2902039426516865
 31
0.0
  0
LINE
  5
11AE7
  8
0
 10
4260.555788869510252
 20
227.3041719089517017
 30
0.0
 11
4260.555788869510252
 21
227.323329233872613
 31
0.0
  0
LINE
  5
11AE8
  8
0
 10
4260.5476350592098242
 20
227.2536428039344116
 30
0.0
 11
4260.5476350592098242
 21
227.2721535414517007
 31
0.0
  0
LINE
  5
11AE9
  8
0
 10
4260.5476350592098242
 20
227.2849607426516911
 30
0.0
 11
4260.5476350592098242
 21
227.3070006331516879
 31
0.0
  0
LINE
  5
11AEA
  8
0
 10
4260.5476350592098242
 20
227.3221543055516918
 30
0.0
 11
4260.5476350592098242
 21
227.3239767717782058
 31
0.0
  0
LINE
  5
11AEB
  8
0
 10
4260.5279500198103051
 20
227.2509075295517107
 30
0.0
 11
4260.5279500198103051
 21
227.2693776402516903
 31
0.0
  0
LINE
  5
11AEC
  8
0
 10
4260.5279500198103051
 20
227.2821527520517009
 30
0.0
 11
4260.5279500198103051
 21
227.3041304629516901
 31
0.0
  0
LINE
  5
11AED
  8
0
 10
4260.5279500198103051
 20
227.3192364872516862
 30
0.0
 11
4260.5279500198103051
 21
227.3253028300385097
 31
0.0
  0
LINE
  5
11AEE
  8
0
 10
4260.5197962095098774
 20
227.2363948740517117
 30
0.0
 11
4260.5197962095098774
 21
227.2532000555517016
 31
0.0
  0
LINE
  5
11AEF
  8
0
 10
4260.5197962095098774
 20
227.2648813019517036
 30
0.0
 11
4260.5197962095098774
 21
227.2850489412516879
 31
0.0
  0
LINE
  5
11AF0
  8
0
 10
4260.5197962095098774
 20
227.2989449330517004
 30
0.0
 11
4260.5197962095098774
 21
227.3227882739516872
 31
0.0
  0
LINE
  5
11AF1
  8
0
 10
4260.5001111702104026
 20
227.2345983675517118
 30
0.0
 11
4260.5001111702104026
 21
227.2513829394517018
 31
0.0
  0
LINE
  5
11AF2
  8
0
 10
4260.5001111702104026
 20
227.2630473661517101
 30
0.0
 11
4260.5001111702104026
 21
227.2831817946517106
 31
0.0
  0
LINE
  5
11AF3
  8
0
 10
4260.5001111702104026
 20
227.2970520685516931
 30
0.0
 11
4260.5001111702104026
 21
227.3208461545517025
 31
0.0
  0
LINE
  5
11AF4
  8
0
 10
4260.4919573599090654
 20
227.2475918015516925
 30
0.0
 11
4260.4919573599090654
 21
227.2660132336517051
 31
0.0
  0
LINE
  5
11AF5
  8
0
 10
4260.4919573599090654
 20
227.2787499021517021
 30
0.0
 11
4260.4919573599090654
 21
227.3006531657516973
 31
0.0
  0
LINE
  5
11AF6
  8
0
 10
4260.4919573599090654
 20
227.3157021810517051
 30
0.0
 11
4260.4919573599090654
 21
227.3268751862667045
 31
0.0
  0
LINE
  5
11AF7
  8
0
 10
4260.4722723205086368
 20
227.246688571051692
 30
0.0
 11
4260.4722723205086368
 21
227.2650968467517032
 31
0.0
  0
LINE
  5
11AF8
  8
0
 10
4260.4722723205086368
 20
227.2778231284517005
 30
0.0
 11
4260.4722723205086368
 21
227.2997062854516912
 31
0.0
  0
LINE
  5
11AF9
  8
0
 10
4260.4722723205086368
 20
227.314739911351694
 30
0.0
 11
4260.4722723205086368
 21
227.3272998346203906
 31
0.0
  0
LINE
  5
11AFA
  8
0
 10
4260.464118510210028
 20
227.2329610711516921
 30
0.0
 11
4260.464118510210028
 21
227.2497269780517115
 31
0.0
  0
LINE
  5
11AFB
  8
0
 10
4260.464118510210028
 20
227.2613761753516997
 30
0.0
 11
4260.464118510210028
 21
227.2814805408517032
 31
0.0
  0
LINE
  5
11AFC
  8
0
 10
4260.464118510210028
 20
227.2953275417517034
 30
0.0
 11
4260.464118510210028
 21
227.3190770736516981
 31
0.0
  0
LINE
  5
11AFD
  8
0
 10
4260.5017998796101892
 20
227.2298244896516906
 30
0.0
 11
4260.5013152612100384
 21
227.2294138801516965
 31
0.0
  0
ARC
  5
11AFE
  8
0
 10
4260.8731295761099318
 20
227.6447605564517005
 30
0.0
 40
0.51923249
 50
217.7233055512857902
 51
219.4640078043530025
  0
ARC
  5
11AFF
  8
0
 10
4260.8737911574098689
 20
227.6274440191517101
 30
0.0
 40
0.4632494716
 50
220.6578629946995136
 51
221.7066721309199124
  0
ARC
  5
11B00
  8
0
 10
4260.7602400751102323
 20
227.5240399688516959
 30
0.0
 40
0.3261400271
 50
228.9239276837049886
 51
231.1795691422773871
  0
ARC
  5
11B01
  8
0
 10
4260.776311257010093
 20
227.5129540378516992
 30
0.0
 40
0.2835316492
 50
231.9672464852961014
 51
234.4510806212769012
  0
ARC
  5
11B02
  8
0
 10
4260.8007201492100648
 20
227.5235090495517056
 30
0.0
 40
0.273747163
 50
231.7251218547935139
 51
234.3043117142150038
  0
ARC
  5
11B03
  8
0
 10
4260.7630356670097171
 20
227.4978488030517099
 30
0.0
 40
0.2671522766
 50
233.2823461843092048
 51
235.8729546347964003
  0
ARC
  5
11B04
  8
0
 10
4260.7952320975091425
 20
227.50661780985169
 30
0.0
 40
0.2427386118
 50
235.3734000963146968
 51
238.1512983528537006
  0
ARC
  5
11B05
  8
0
 10
4260.7593746728098267
 20
227.4812781754517061
 30
0.0
 40
0.2383701652
 50
236.9753266118873114
 51
239.7542938301353956
  0
ARC
  5
11B06
  8
0
 10
4260.7839331210097953
 20
227.4922349668516972
 30
0.0
 40
0.2284087079
 50
236.8376282032062079
 51
239.7401900910842869
  0
ARC
  5
11B07
  8
0
 10
4260.7744333862101485
 20
227.4656273115517138
 30
0.0
 40
0.1906982069
 50
242.6525083072955908
 51
245.9349921456829975
  0
ARC
  5
11B08
  8
0
 10
4260.8275854725097815
 20
227.6025854107516864
 30
0.0
 40
0.4478751662
 50
221.1360875339929919
 51
223.0145990758948074
  0
ARC
  5
11B09
  8
0
 10
4260.8524944727087131
 20
227.6104832202516945
 30
0.0
 40
0.4398369203
 50
220.8510319379010127
 51
222.7742528250988983
  0
ARC
  5
11B0A
  8
0
 10
4260.7821850174095744
 20
227.5796590192516931
 30
0.0
 40
0.4326117613
 50
222.3428615799840031
 51
224.2432763448155981
  0
ARC
  5
11B0B
  8
0
 10
4260.8069741004101161
 20
227.585709066851706
 30
0.0
 40
0.4248439873
 50
222.1416704993094982
 51
224.0839940422901861
  0
ARC
  5
11B0C
  8
0
 10
4260.7622119979087074
 20
227.5628954858516977
 30
0.0
 40
0.4099440189
 50
223.3514538769032072
 51
225.3199513041095088
  0
ARC
  5
11B0D
  8
0
 10
4260.8333024532093987
 20
227.5867961562516939
 30
0.0
 40
0.3960962916
 50
223.4920130281853972
 51
225.5224862337155969
  0
ARC
  5
11B0E
  8
0
 10
4260.7899565183088271
 20
227.5620902309516964
 30
0.0
 40
0.3834246193
 50
224.846185220185987
 51
226.8946895915337905
  0
ARC
  5
11B0F
  8
0
 10
4260.8146805405103805
 20
227.570192994851709
 30
0.0
 40
0.3749446736999999
 50
224.5836517352115038
 51
226.6876055958925917
  0
ARC
  5
11B10
  8
0
 10
4260.7720123060089463
 20
227.5456616473516931
 30
0.0
 40
0.3626733267
 50
225.9380270953961087
 51
228.0642207607914997
  0
ARC
  5
11B11
  8
0
 10
4260.841957511608598
 20
227.5748865487516923
 30
0.0
 40
0.3459438883
 50
228.1145986238520891
 51
228.2197047510574919
  0
ARC
  5
11B12
  8
0
 10
4260.8008452501098873
 20
227.5483735713517035
 30
0.0
 40
0.3361244118
 50
227.5051580248884875
 51
229.740388683313796
  0
ARC
  5
11B13
  8
0
 10
4260.8253331557098136
 20
227.5586580860517074
 30
0.0
 40
0.3267290464
 50
227.3681449011249924
 51
229.503612261911087
  0
ARC
  5
11B14
  8
0
 10
4260.7849205196089315
 20
227.5323913955517128
 30
0.0
 40
0.3173335875
 50
228.6985787238872945
 51
231.0233234844974106
  0
ARC
  5
11B15
  8
0
 10
4260.8146355868102546
 20
227.5389475376516941
 30
0.0
 40
0.2905345555
 50
230.6181549929202959
 51
232.8808589552859019
  0
ARC
  5
11B16
  8
0
 10
4260.7052976028098783
 20
227.5190207055516964
 30
0.0
 40
0.3584241695000001
 50
227.343708217586709
 51
229.4469610758833937
  0
ARC
  5
11B17
  8
0
 10
4260.7298848752088816
 20
227.5231433215516859
 30
0.0
 40
0.35032183
 50
227.2213073254133917
 51
229.3774688276108975
  0
ARC
  5
11B18
  8
0
 10
4260.688161136709823
 20
227.5025341470517048
 30
0.0
 40
0.3377966299000001
 50
228.4520141544055889
 51
230.6460189945024979
  0
ARC
  5
11B19
  8
0
 10
4260.7203973153091283
 20
227.5022172878516926
 30
0.0
 40
0.3165355586
 50
230.2771554707065036
 51
232.5552862032515122
  0
ARC
  5
11B1A
  8
0
 10
4260.7449646570103141
 20
227.5083200730516921
 30
0.0
 40
0.3077557486
 50
230.1194632335175925
 51
232.4677854566874089
  0
ARC
  5
11B1B
  8
0
 10
4260.6801876974086554
 20
227.4815540357517136
 30
0.0
 40
0.3056415446
 50
231.5831391264167962
 51
233.9002506736217981
  0
ARC
  5
11B1C
  8
0
 10
4260.7053388676113173
 20
227.4862948466517025
 30
0.0
 40
0.2979249227
 50
231.4803301901133921
 51
233.8609888771175065
  0
ARC
  5
11B1D
  8
0
 10
4260.6659521006085924
 20
227.4662098108516943
 30
0.0
 40
0.2877915422
 50
232.8009425264025083
 51
235.2228639510007895
  0
ARC
  5
11B1E
  8
0
 10
4260.7382352532104051
 20
227.4891661232516924
 30
0.0
 40
0.2761397736
 50
233.4494381422009894
 51
235.9519002357768898
  0
ARC
  5
11B1F
  8
0
 10
4260.7004407597087265
 20
227.4675963788517095
 30
0.0
 40
0.2685376853
 50
234.8781352314057074
 51
237.4058164963294928
  0
ARC
  5
11B20
  8
0
 10
4260.7255600239086561
 20
227.47440728385169
 30
0.0
 40
0.2601622405
 50
234.7676002000978031
 51
237.3801874392983109
  0
ARC
  5
11B21
  8
0
 10
4260.6882200618101706
 20
227.4530308713517002
 30
0.0
 40
0.2527561397
 50
236.2060365552096073
 51
238.8508755662873
  0
ARC
  5
11B22
  8
0
 10
4260.7215415592900172
 20
227.4548691901169093
 30
0.0
 40
0.2295634552579838
 50
238.508507771387599
 51
241.3474438786871872
  0
ARC
  5
11B23
  8
0
 10
4260.7486348270103917
 20
227.4673087336516915
 30
0.0
 40
0.2244223476
 50
238.4332445940061973
 51
241.3384670334866087
  0
ARC
  5
11B24
  8
0
 10
4260.7494483954096722
 20
227.4539657478516972
 30
0.0
 40
0.2004785804
 50
242.6365474544205085
 51
245.7613481459200102
  0
ARC
  5
11B25
  8
0
 10
4260.7411054274098205
 20
227.4414908040517105
 30
0.0
 40
0.1890666211
 50
244.258117500990096
 51
247.526308692914796
  0
ARC
  5
11B26
  8
0
 10
4260.7471965549102606
 20
227.5393780084517061
 30
0.0
 40
0.3706910839
 50
226.1235850679987891
 51
228.1975955694142897
  0
ARC
  5
11B27
  8
0
 10
4260.8499220043086098
 20
227.6277045304516946
 30
0.0
 40
0.494059959
 50
218.6584192536060982
 51
220.4508993478877983
  0
ARC
  5
11B28
  8
0
 10
4260.4542794009103091
 20
227.8422648903516858
 30
0.0
 40
0.6146533437000001
 50
270.8049519043112809
 51
274.388804717885705
  0
ARC
  5
11B29
  8
0
 10
4260.4544182943100168
 20
227.84076756095169
 30
0.0
 40
0.6131493498000001
 50
276.0077296428069076
 51
279.6303775342828999
  0
ARC
  5
11B2A
  8
0
 10
4260.4543208765098825
 20
227.8450875895516958
 30
0.0
 40
0.6122040846
 50
274.2889942320884984
 51
276.1401130491611866
  0
ARC
  5
11B2B
  8
0
 10
4260.4542802705100257
 20
227.847514536751703
 30
0.0
 40
0.6117036000000001
 50
271.6854849781939834
 51
273.531294417687775
  0
ARC
  5
11B2C
  8
0
 10
4260.4544358232087689
 20
227.8459115817516931
 30
0.0
 40
0.6100926436
 50
276.9207737930963731
 51
278.7870476334821888
  0
ARC
  5
11B2D
  8
0
 10
4260.4549750574096834
 20
227.8377189249517016
 30
0.0
 40
0.6100497504
 50
281.2768099983154002
 51
284.980856516997278
  0
ARC
  5
11B2E
  8
0
 10
4260.4546607645088443
 20
227.8426917640516933
 30
0.0
 40
0.6097835216
 50
279.5456735045893879
 51
281.427314811867916
  0
ARC
  5
11B2F
  8
0
 10
4260.4550172588087662
 20
227.8428151484517059
 30
0.0
 40
0.6069411392000001
 50
282.2336849200897859
 51
284.1423952312857182
  0
ARC
  5
11B30
  8
0
 10
4260.4555792623086745
 20
227.838812429351691
 30
0.0
 40
0.6057956305
 50
284.9114886961066873
 51
286.8472448369216181
  0
ARC
  5
11B31
  8
0
 10
4260.4562393609112405
 20
227.8332079441516953
 30
0.0
 40
0.6053640747
 50
286.6753395520007075
 51
290.5107143578192108
  0
ARC
  5
11B32
  8
0
 10
4260.4550419171100657
 20
227.8489770205517004
 30
0.0
 40
0.6024888928000001
 50
282.3231039567186258
 51
284.2466852653926139
  0
ARC
  5
11B33
  8
0
 10
4260.4563165076087898
 20
227.8382643256516928
 30
0.0
 40
0.6022069422000002
 50
287.6898225495210113
 51
289.6669418656052244
  0
ARC
  5
11B34
  8
0
 10
4260.4573630651102576
 20
227.8335569142516874
 30
0.0
 40
0.6002436806000001
 50
290.4563321494110824
 51
292.4762255436227179
  0
ARC
  5
11B35
  8
0
 10
4260.4555833628101027
 20
227.8487015824516959
 30
0.0
 40
0.5989187585
 50
285.0863432478756749
 51
287.0461572132082892
  0
ARC
  5
11B36
  8
0
 10
4260.4563790345100642
 20
227.8443589562517104
 30
0.0
 40
0.5976794865999999
 50
287.8220078573061187
 51
289.8157644688556047
  0
ARC
  5
11B37
  8
0
 10
4260.4573877457087292
 20
227.8434196399516907
 30
0.0
 40
0.593335176
 50
290.7028351026950759
 51
292.7491984616199261
  0
ARC
  5
11B38
  8
0
 10
4260.4588593724101884
 20
227.8381751408516891
 30
0.0
 40
0.5910141060000002
 50
293.5483640542142894
 51
294.0951455499698
  0
ARC
  5
11B39
  8
0
 10
4260.4574818537103056
 20
227.8493710144516911
 30
0.0
 40
0.5876184032000001
 50
290.9038201599852869
 51
292.0133679078548994
  0
ARC
  5
11B3A
  8
0
 10
4260.4542803320100575
 20
227.8537664468516937
 30
0.0
 40
0.6073444319
 50
271.697127690263585
 51
273.5571779545837217
  0
ARC
  5
11B3B
  8
0
 10
4260.4544316928086118
 20
227.8522009248517008
 30
0.0
 40
0.6057711545000001
 50
276.9703129165541782
 51
278.8506301361655915
  0
ARC
  5
11B3C
  8
0
 10
4260.4543219018096352
 20
227.8549573880517016
 30
0.0
 40
0.6053088236999999
 50
274.3383481428862183
 51
276.209649361821107
  0
ARC
  5
11B3D
  8
0
 10
4260.4546607668098659
 20
227.852580271751691
 30
0.0
 40
0.6029069459
 50
279.6561055845905912
 51
281.5594381444806231
  0
ARC
  5
11B3E
  8
0
 10
4260.4543227469102931
 20
227.8610939082516893
 30
0.0
 40
0.5997968374
 50
274.377843576801979
 51
276.2673858873004065
  0
ARC
  5
11B3F
  8
0
 10
4260.4542804590100786
 20
227.8634693797517059
 30
0.0
 40
0.5986429615
 50
271.7222502389794272
 51
273.6084197809223042
  0
ARC
  5
11B40
  8
0
 10
4260.4546759823097091
 20
227.8586543540517084
 30
0.0
 40
0.5973310490000001
 50
279.7456369662886004
 51
281.667361269354501
  0
ARC
  5
11B41
  8
0
 10
4260.4544394286103852
 20
227.8618562691517013
 30
0.0
 40
0.5970215513000001
 50
277.0727134085946091
 51
278.9806532429761887
  0
ARC
  5
11B42
  8
0
 10
4260.4550475733103667
 20
227.8586805493517033
 30
0.0
 40
0.5937870890000001
 50
282.5060386428914967
 51
284.4594165719739181
  0
ARC
  5
11B43
  8
0
 10
4260.4556290454102054
 20
227.8547115218516979
 30
0.0
 40
0.5932732792000001
 50
285.228792998892402
 51
287.2087833228616773
  0
ARC
  5
11B44
  8
0
 10
4260.4542805605096873
 20
227.8694975653517076
 30
0.0
 40
0.5919479223
 50
271.7413989030977177
 51
273.6497661514359265
  0
ARC
  5
11B45
  8
0
 10
4260.454459089410193
 20
227.8677546499517064
 30
0.0
 40
0.5901953064
 50
277.1526826532289078
 51
279.0839671717137094
  0
ARC
  5
11B46
  8
0
 10
4260.4543240059101663
 20
227.8706105688517027
 30
0.0
 40
0.5892105134000002
 50
274.4569109981051156
 51
276.3797976812030015
  0
ARC
  5
11B47
  8
0
 10
4260.4564072551102072
 20
227.8540276820517079
 30
0.0
 40
0.5889379606000001
 50
288.0927352969860067
 51
290.1195770815015749
  0
ARC
  5
11B48
  8
0
 10
4260.4550801877103368
 20
227.8645963892516875
 30
0.0
 40
0.5869755416000001
 50
282.6499393053128983
 51
284.6281640435432791
  0
ARC
  5
11B49
  8
0
 10
4260.4546790155091003
 20
227.8681813030516992
 30
0.0
 40
0.5867546605000001
 50
279.922765069202228
 51
281.8804039520844071
  0
ARC
  5
11B4A
  8
0
 10
4260.4556535500087193
 20
227.8641951528516927
 30
0.0
 40
0.5826497067999999
 50
285.5108844506871151
 51
287.5301012016975051
  0
ARC
  5
11B4B
  8
0
 10
4260.456482569509717
 20
227.8598821399517078
 30
0.0
 40
0.5820553238000001
 50
288.3064146553107889
 51
289.3862999150521205
  0
ARC
  5
11B4C
  8
0
 10
4260.4543251661098111
 20
227.8765130636516858
 30
0.0
 40
0.5812670668
 50
274.517530525004986
 51
276.4677087747592736
  0
ARC
  5
11B4D
  8
0
 10
4260.454280760209258
 20
227.8788325565517141
 30
0.0
 40
0.5794056732000001
 50
271.7794202743244227
 51
273.7283624771956738
  0
ARC
  5
11B4E
  8
0
 10
4260.4547218920088199
 20
227.8738869956517021
 30
0.0
 40
0.5786102435
 50
280.0592582982038152
 51
282.045780767521876
  0
ARC
  5
11B4F
  8
0
 10
4260.4544490735097497
 20
227.877176030151702
 30
0.0
 40
0.5777400897
 50
277.3090613102036173
 51
279.2820101323159179
  0
ARC
  5
11B50
  8
0
 10
4260.4557119126102407
 20
227.8699475017517102
 30
0.0
 40
0.5745468953000001
 50
285.7288849761490042
 51
285.816259125631916
  0
ARC
  5
11B51
  8
0
 10
4260.4550969873098438
 20
227.873900670351702
 30
0.0
 40
0.5744001138
 50
282.9302756023770939
 51
284.8016412573048797
  0
ARC
  5
11B52
  8
0
 10
4260.454280915911113
 20
227.8846163661517039
 30
0.0
 40
0.5701603849
 50
271.8079973577480928
 51
273.7893425132849075
  0
ARC
  5
11B53
  8
0
 10
4260.45447441351007
 20
227.8828005225516904
 30
0.0
 40
0.568333605
 50
277.4278581996007915
 51
279.4349032058203193
  0
ARC
  5
11B54
  8
0
 10
4260.4543275628102492
 20
227.8856355423517073
 30
0.0
 40
0.5666420311
 50
274.6344428133169231
 51
276.6346529338101163
  0
ARC
  5
11B55
  8
0
 10
4260.2581012029104386
 20
227.5230853469516887
 30
0.0
 40
0.3881733297999999
 50
312.3909926385429117
 51
314.389026432897424
  0
ARC
  5
11B56
  8
0
 10
4260.2809039736102932
 20
227.5018849368516953
 30
0.0
 40
0.3598293143
 50
311.2397447668864743
 51
313.3587735918799808
  0
ARC
  5
11B57
  8
0
 10
4260.2646080411095681
 20
227.4803416560517064
 30
0.0
 40
0.3206093603
 50
308.0987016065777766
 51
310.3697281383952031
  0
ARC
  5
11B58
  8
0
 10
4260.2721267712104236
 20
227.6128941370517111
 30
0.0
 40
0.5324755006000002
 50
321.1538475833822872
 51
322.8734564148130062
  0
ARC
  5
11B59
  8
0
 10
4260.2565070494101747
 20
227.602152319651708
 30
0.0
 40
0.5167829253000001
 50
320.8555741478047025
 51
322.617766002812516
  0
ARC
  5
11B5A
  8
0
 10
4260.2726954600102545
 20
227.5791654963516919
 30
0.0
 40
0.4806133242000001
 50
318.2304951845300138
 51
320.0236527466159941
  0
ARC
  5
11B5B
  8
0
 10
4260.2548401705089418
 20
227.5708855048517023
 30
0.0
 40
0.4663250568
 50
318.0435045721138181
 51
319.8855781224064003
  0
ARC
  5
11B5C
  8
0
 10
4260.301604436010166
 20
227.5568695714516991
 30
0.0
 40
0.4466575236
 50
317.2250212748049876
 51
319.1182912624017831
  0
ARC
  5
11B5D
  8
0
 10
4260.2676567060098023
 20
227.5492633381516896
 30
0.0
 40
0.4328198726
 50
315.3318267414364868
 51
317.2169251572095732
  0
ARC
  5
11B5E
  8
0
 10
4260.2934354202088798
 20
227.5274200250516969
 30
0.0
 40
0.4017013968
 50
314.2592354648846822
 51
316.2536481504099015
  0
ARC
  5
11B5F
  8
0
 10
4260.2377008085086345
 20
227.5191741393516907
 30
0.0
 40
0.3749284261
 50
312.3488458093963231
 51
314.4185442626157965
  0
ARC
  5
11B60
  8
0
 10
4260.2446052086097552
 20
227.5007783559516952
 30
0.0
 40
0.3462872095
 50
309.3401547452609179
 51
311.477685395399817
  0
ARC
  5
11B61
  8
0
 10
4260.2079812984093223
 20
227.6159618204517017
 30
0.0
 40
0.5381123762
 50
321.5599834165952871
 51
323.2783982072093067
  0
ARC
  5
11B62
  8
0
 10
4260.1766336446098649
 20
227.609863412051709
 30
0.0
 40
0.5216381738
 50
319.8706893649758172
 51
321.5784953733012799
  0
ARC
  5
11B63
  8
0
 10
4260.1553283508101231
 20
227.6080609056517119
 30
0.0
 40
0.5112745602000001
 50
319.8188450099871147
 51
321.5599637983874004
  0
ARC
  5
11B64
  8
0
 10
4260.2247532672099624
 20
227.5937570870516993
 30
0.0
 40
0.5013785791000001
 50
319.0286225605620984
 51
320.7749546206883906
  0
ARC
  5
11B65
  8
0
 10
4260.2077251912096472
 20
227.5866407932516893
 30
0.0
 40
0.4857536014
 50
318.9024899116888037
 51
320.7012773628075024
  0
ARC
  5
11B66
  8
0
 10
4260.1748111213100856
 20
227.5836027243516924
 30
0.0
 40
0.4696822787
 50
317.2665866489161886
 51
319.0658467190186229
  0
ARC
  5
11B67
  8
0
 10
4260.1570774723086288
 20
227.5798960896516974
 30
0.0
 40
0.4535542864
 50
317.2753264320195967
 51
319.1411360121142025
  0
ARC
  5
11B68
  8
0
 10
4260.2212827036100862
 20
227.5657171037516946
 30
0.0
 40
0.4515523472
 50
316.2806906243603748
 51
318.1188605829015046
  0
ARC
  5
11B69
  8
0
 10
4260.2029379710102148
 20
227.5606670478516946
 30
0.0
 40
0.436442838
 50
316.2308199882019721
 51
318.131974027807928
  0
ARC
  5
11B6A
  8
0
 10
4260.1689929229087284
 20
227.5606463237517119
 30
0.0
 40
0.4203152078000001
 50
314.6010320021662778
 51
316.5162861220028958
  0
ARC
  5
11B6B
  8
0
 10
4260.2483536219097005
 20
227.5431785683516921
 30
0.0
 40
0.4191903846000001
 50
315.2286182348951229
 51
317.1723955332138871
  0
ARC
  5
11B6C
  8
0
 10
4260.2140413769111547
 20
227.5406959684517005
 30
0.0
 40
0.4039185013
 50
313.4769766358703009
 51
315.4319302577831081
  0
ARC
  5
11B6D
  8
0
 10
4260.1941785260087272
 20
227.5382306624516957
 30
0.0
 40
0.38979256
 50
313.4869883324856232
 51
315.5155369162853845
  0
ARC
  5
11B6E
  8
0
 10
4260.1278538239103
 20
227.6031796842516997
 30
0.0
 40
0.4876776946
 50
318.2981975584825136
 51
320.0664430123921989
  0
ARC
  5
11B6F
  8
0
 10
4260.1106312606098072
 20
227.6009025815517077
 30
0.0
 40
0.4706415462
 50
318.3731793044137817
 51
320.2104450931126962
  0
ARC
  5
11B70
  8
0
 10
4260.0822889875962574
 20
227.6662802502453928
 30
0.0
 40
0.6095767937623821
 50
324.004307507120302
 51
325.453270684646327
  0
ARC
  5
11B71
  8
0
 10
4260.1529924841088359
 20
227.6617844150516987
 30
0.0
 40
0.6166754720000001
 50
324.8638865444899011
 51
325.0997764424917023
  0
ARC
  5
11B72
  8
0
 10
4260.0591181031104497
 20
227.6675859584516957
 30
0.0
 40
0.6015782923
 50
324.0228833281129823
 51
325.1221737993919874
  0
ARC
  5
11B73
  8
0
 10
4260.1239806751100332
 20
227.6549833606516984
 30
0.0
 40
0.5984720063000001
 50
323.2194941288231007
 51
324.822636473798525
  0
ARC
  5
11B74
  8
0
 10
4260.2033858771101222
 20
227.6481303186517096
 30
0.0
 40
0.5935109169000001
 50
324.2626757372926249
 51
324.3876439475837969
  0
ARC
  5
11B75
  8
0
 10
4260.1094104506100848
 20
227.6487108810516986
 30
0.0
 40
0.580404603
 50
323.1385050402041088
 51
324.7901725506030743
  0
ARC
  5
11B76
  8
0
 10
4260.1739133694100019
 20
227.6392060637516863
 30
0.0
 40
0.5765572845
 50
322.4713751549044218
 51
324.1076864039072234
  0
ARC
  5
11B77
  8
0
 10
4260.0787884203100475
 20
227.6470445152517073
 30
0.0
 40
0.5618407331
 50
321.7153401699874848
 51
323.3649083919929126
  0
ARC
  5
11B78
  8
0
 10
4260.1589865821088097
 20
227.6314951788517078
 30
0.0
 40
0.5592863143
 50
322.319600006806013
 51
324.0013688337036228
  0
ARC
  5
11B79
  8
0
 10
4260.2232490866090302
 20
227.6251637875517133
 30
0.0
 40
0.5546062132000001
 50
321.7833401532066091
 51
323.4583166461958967
  0
ARC
  5
11B7A
  8
0
 10
4260.0631236827102839
 20
227.6441789562516931
 30
0.0
 40
0.5436011082
 50
321.7918690822041867
 51
323.5017732715136276
  0
ARC
  5
11B7B
  8
0
 10
4260.1280361230101335
 20
227.6276182408516888
 30
0.0
 40
0.5417390065
 50
320.7642670495048947
 51
322.4394094608095998
  0
ARC
  5
11B7C
  8
0
 10
4260.112007313408867
 20
227.6232821020516894
 30
0.0
 40
0.5242767435
 50
320.7679900698939832
 51
322.5010772697032166
  0
ARC
  5
11B7D
  8
0
 10
4260.0801688230103537
 20
227.6245553731517077
 30
0.0
 40
0.5057785286000001
 50
319.3880443777122764
 51
321.1313152370947819
  0
ARC
  5
11B7E
  8
0
 10
4260.0220865734090694
 20
227.6913954216516913
 30
0.0
 40
0.6422962121
 50
324.9090854654803024
 51
325.0973509463922255
  0
ARC
  5
11B7F
  8
0
 10
4260.0287019278111984
 20
227.6681685058516962
 30
0.0
 40
0.5821014112
 50
322.734721795587518
 51
324.0723031179729219
  0
ARC
  5
11B80
  8
0
 10
4260.013320081709935
 20
227.6668260346517059
 30
0.0
 40
0.5631469976
 50
322.8920268191017158
 51
322.9339243525516849
  0
LINE
  5
11B81
  8
0
 10
4260.6033127585096736
 20
227.2542694907517102
 30
0.0
 11
4260.6131552782098879
 21
227.2489105854517106
 31
0.0
  0
LINE
  5
11B82
  8
0
 10
4260.4629144192103922
 20
227.2276722046516966
 30
0.0
 11
4260.4624298008102414
 21
227.2280384391517032
 31
0.0
  0
LINE
  5
11B83
  8
0
 10
4260.5574775789100386
 20
227.2367161253517054
 30
0.0
 11
4260.5569929605098878
 21
227.236259030751711
 31
0.0
  0
LINE
  5
11B84
  8
0
 10
4260.5185921185102416
 20
227.2309857594516984
 30
0.0
 11
4260.5181075001100908
 21
227.2313084736516942
 31
0.0
  0
LINE
  5
11B85
  8
0
 10
4260.6131552782098879
 20
227.2489105854517106
 30
0.0
 11
4260.6126706598088276
 21
227.2484033940517065
 31
0.0
  0
LINE
  5
11B86
  8
0
 10
4260.5742698178100909
 20
227.2394468646517112
 30
0.0
 11
4260.5737851994099401
 21
227.2397257195517
 31
0.0
  0
LINE
  5
11B87
  8
0
 10
4260.6688329775088278
 20
227.2667828185516896
 30
0.0
 11
4260.6683483591095865
 21
227.2662199056516954
 31
0.0
  0
LINE
  5
11B88
  8
0
 10
4260.6949831177089436
 20
227.2963788226516897
 30
0.0
 11
4260.6917030330096168
 21
227.2979722288517053
 31
0.0
  0
LINE
  5
11B89
  8
0
 10
4260.6917030330096168
 20
227.2979722288517053
 30
0.0
 11
4260.6886343888090778
 21
227.2996143821517023
 31
0.0
  0
LINE
  5
11B8A
  8
0
 10
4260.6886343888090778
 20
227.2996143821517023
 30
0.0
 11
4260.6851405981087737
 21
227.3014783356516944
 31
0.0
  0
LINE
  5
11B8B
  8
0
 10
4260.6299475171090307
 20
227.2533017970517051
 30
0.0
 11
4260.6294628987097894
 21
227.2535351490516859
 31
0.0
  0
LINE
  5
11B8C
  8
0
 10
4260.687913752397435
 20
227.2721029730055875
 30
0.0
 11
4260.6817806819162797
 21
227.2696206693860006
 31
0.0
  0
LINE
  5
11B8D
  8
0
 10
4260.6817806819162797
 20
227.2696206693860006
 30
0.0
 11
4260.6876008559102047
 21
227.2629631018421037
 31
0.0
  0
ARC
  5
11B8E
  8
0
 10
4260.4577454372438297
 20
227.8256384420224947
 30
0.0
 40
0.6078133364259353
 50
282.7459014885931765
 51
292.2202366787989263
  0
ARC
  5
11B8F
  8
0
 10
4260.4553621461882358
 20
227.8342638823837092
 30
0.0
 40
0.616752193599992
 50
272.1585107662122027
 51
282.785063282275928
  0
ARC
  5
11B90
  8
0
 10
4260.6628255316836658
 20
220.3770589606222075
 30
0.0
 40
6.8433707207870702
 50
91.5426755259967564
 51
91.7463409932440896
  0
LINE
  5
11B91
  8
0
 10
4260.7230338496519835
 20
227.2911039137210878
 30
0.0
 11
4260.7146674735467968
 21
227.2815632955598915
 31
0.0
  0
LINE
  5
11B92
  8
0
 10
4260.7146674735467968
 20
227.2815632955598915
 30
0.0
 11
4260.6949824340599662
 21
227.2725425575513043
 31
0.0
  0
LINE
  5
11B93
  8
0
 10
4260.6949824340599662
 20
227.2725425575513043
 30
0.0
 11
4260.6851399144516108
 21
227.2747804584872995
 31
0.0
  0
LINE
  5
11B94
  8
0
 10
4260.6851399144516108
 20
227.2747804584872995
 30
0.0
 11
4260.6949824340599662
 21
227.2859798147019887
 31
0.0
  0
LINE
  5
11B95
  8
0
 10
4260.6949824340599662
 20
227.2859798147019887
 30
0.0
 11
4260.7136714496164132
 21
227.294572527978687
 31
0.0
  0
LINE
  5
11B96
  8
0
 10
4260.7382449933220414
 20
227.2840327296007104
 30
0.0
 11
4260.7228212837753745
 21
227.2761097259192127
 31
0.0
  0
LINE
  5
11B97
  8
0
 10
4260.7228212837753745
 20
227.2761097259192127
 30
0.0
 11
4260.7129787641488292
 21
227.2769319079168042
 31
0.0
  0
LINE
  5
11B98
  8
0
 10
4260.7129787641488292
 20
227.2769319079168042
 30
0.0
 11
4260.7228212837590036
 21
227.2877362230653091
 31
0.0
  0
LINE
  5
11B99
  8
0
 10
4260.7228212837590036
 20
227.2877362230653091
 30
0.0
 11
4260.7263721968920436
 21
227.2897096171961095
 31
0.0
  0
LINE
  5
11B9A
  8
0
 10
4260.7490286637248573
 20
227.2778169605857101
 30
0.0
 11
4260.7425063231603417
 21
227.2717472429513066
 31
0.0
  0
LINE
  5
11B9B
  8
0
 10
4260.7425063231603417
 20
227.2717472429513066
 30
0.0
 11
4260.7228212837590036
 21
227.2615298747512895
 31
0.0
  0
LINE
  5
11B9C
  8
0
 10
4260.7228212837590036
 20
227.2615298747512895
 30
0.0
 11
4260.7129787641970324
 21
227.2606214083214979
 31
0.0
  0
LINE
  5
11B9D
  8
0
 10
4260.7129787641970324
 20
227.2606214083214979
 30
0.0
 11
4260.7228212837590036
 21
227.2697783198931916
 31
0.0
  0
LINE
  5
11B9E
  8
0
 10
4260.7228212837590036
 20
227.2697783198931916
 30
0.0
 11
4260.7425063231694367
 21
227.2799956881287073
 31
0.0
  0
LINE
  5
11B9F
  8
0
 10
4260.7425063231694367
 20
227.2799956881287073
 30
0.0
 11
4260.7451194403529371
 21
227.2801950698589053
 31
0.0
  0
LINE
  5
11BA0
  8
0
 10
4260.7523488428469136
 20
227.2705485409948096
 30
0.0
 11
4260.7425063230693922
 21
227.26300719551881
 31
0.0
  0
LINE
  5
11BA1
  8
0
 10
4260.7425063230693922
 20
227.26300719551881
 30
0.0
 11
4260.7228212838053878
 21
227.2526942092740114
 31
0.0
  0
LINE
  5
11BA2
  8
0
 10
4260.7228212838053878
 20
227.2526942092740114
 30
0.0
 11
4260.7129787639951246
 21
227.2499925987218887
 31
0.0
  0
LINE
  5
11BA3
  8
0
 10
4260.7129787639951246
 20
227.2499925987218887
 30
0.0
 11
4260.7228212837471801
 21
227.2574188620365874
 31
0.0
  0
LINE
  5
11BA4
  8
0
 10
4260.7228212837471801
 20
227.2574188620365874
 30
0.0
 11
4260.7425063231603417
 21
227.267658974451308
 31
0.0
  0
LINE
  5
11BA5
  8
0
 10
4260.7425063231603417
 20
227.267658974451308
 30
0.0
 11
4260.7523488428469136
 21
227.2705485409948096
 31
0.0
  0
LINE
  5
11BA6
  8
0
 10
4260.7250302986749375
 20
227.2753353092282964
 30
0.0
 11
4260.7153751333389664
 21
227.26635017165151
 31
0.0
  0
LINE
  5
11BA7
  8
0
 10
4260.7153751333389664
 20
227.26635017165151
 30
0.0
 11
4260.6956900939403567
 21
227.2561328034514929
 31
0.0
  0
LINE
  5
11BA8
  8
0
 10
4260.6956900939403567
 20
227.2561328034514929
 30
0.0
 11
4260.6858475743756571
 21
227.2552243370215876
 31
0.0
  0
LINE
  5
11BA9
  8
0
 10
4260.6858475743756571
 20
227.2552243370215876
 30
0.0
 11
4260.6956900939403567
 21
227.2643812485933097
 31
0.0
  0
LINE
  5
11BAA
  8
0
 10
4260.6956900939403567
 20
227.2643812485933097
 30
0.0
 11
4260.7153751333489708
 21
227.274598616828797
 31
0.0
  0
LINE
  5
11BAB
  8
0
 10
4260.7153751333489708
 20
227.274598616828797
 30
0.0
 11
4260.7250302986749375
 21
227.2753353092282964
 31
0.0
  0
LINE
  5
11BAC
  8
0
 10
4260.7245099931142249
 20
227.260207608399412
 30
0.0
 11
4260.7146674734512999
 21
227.2524115498464141
 31
0.0
  0
LINE
  5
11BAD
  8
0
 10
4260.7146674734512999
 20
227.2524115498464141
 30
0.0
 11
4260.6949824340599662
 21
227.2434290852513072
 31
0.0
  0
LINE
  5
11BAE
  8
0
 10
4260.6949824340599662
 20
227.2434290852513072
 30
0.0
 11
4260.6851399144306924
 21
227.2422706257054017
 31
0.0
  0
LINE
  5
11BAF
  8
0
 10
4260.6851399144306924
 20
227.2422706257054017
 30
0.0
 11
4260.6949824341163549
 21
227.2499665508939017
 31
0.0
  0
LINE
  5
11BB0
  8
0
 10
4260.6949824341163549
 20
227.2499665508939017
 30
0.0
 11
4260.7146674734103726
 21
227.258919125428406
 31
0.0
  0
LINE
  5
11BB1
  8
0
 10
4260.7146674734103726
 20
227.258919125428406
 30
0.0
 11
4260.7245099931142249
 21
227.260207608399412
 31
0.0
  0
LINE
  5
11BB2
  8
0
 10
4260.7245099918418418
 20
227.2525070779290104
 30
0.0
 11
4260.7146674734722183
 21
227.2464358301859875
 31
0.0
  0
LINE
  5
11BB3
  8
0
 10
4260.7146674734722183
 20
227.2464358301859875
 30
0.0
 11
4260.6949824341509157
 21
227.2373224059919892
 31
0.0
  0
LINE
  5
11BB4
  8
0
 10
4260.6949824341509157
 20
227.2373224059919892
 30
0.0
 11
4260.6851399144361494
 21
227.2343714948667071
 31
0.0
  0
LINE
  5
11BB5
  8
0
 10
4260.6851399144361494
 20
227.2343714948667071
 30
0.0
 11
4260.6949824340599662
 21
227.2403820389513101
 31
0.0
  0
LINE
  5
11BB6
  8
0
 10
4260.6949824340599662
 20
227.2403820389513101
 30
0.0
 11
4260.7146674734522094
 21
227.2494027770673881
 31
0.0
  0
LINE
  5
11BB7
  8
0
 10
4260.7146674734522094
 20
227.2494027770673881
 30
0.0
 11
4260.7245099918418418
 21
227.2525070779290104
 31
0.0
  0
LINE
  5
11BB8
  8
0
 10
4260.6966711437262347
 20
227.2425375041275117
 30
0.0
 11
4260.6868286238095607
 21
227.2361666807302925
 31
0.0
  0
LINE
  5
11BB9
  8
0
 10
4260.6868286238095607
 20
227.2361666807302925
 30
0.0
 11
4260.6806955533556902
 21
227.2336341617844937
 31
0.0
  0
LINE
  5
11BBA
  8
0
 10
4260.6806955533556902
 20
227.2336341617844937
 30
0.0
 11
4260.6865157273596196
 21
227.2388462096513138
 31
0.0
  0
LINE
  5
11BBB
  8
0
 10
4260.6865157273596196
 20
227.2388462096513138
 30
0.0
 11
4260.6813905821336448
 21
227.2388462096513138
 31
0.0
  0
LINE
  5
11BBC
  8
0
 10
4260.6966711437262347
 20
227.2425375041275117
 30
0.0
 11
4260.6868286238650398
 21
227.2410021750843043
 31
0.0
  0
LINE
  5
11BBD
  8
0
 10
4260.6868286238650398
 20
227.2410021750843043
 30
0.0
 11
4260.6674362350304364
 21
227.2333138707163869
 31
0.0
  0
LINE
  5
11BBE
  8
0
 10
4260.6674362350304364
 20
227.2333138707163869
 30
0.0
 11
4260.659897176308732
 21
227.2338862241701918
 31
0.0
  0
LINE
  5
11BBF
  8
0
 10
4260.659897176308732
 20
227.2338862241701918
 30
0.0
 11
4260.6383973327856438
 21
227.2433147826529876
 31
0.0
  0
LINE
  5
11BC0
  8
0
 10
4260.6383973327856438
 20
227.2433147826529876
 30
0.0
 11
4260.6366576067275673
 21
227.244753352226212
 31
0.0
  0
LINE
  5
11BC1
  8
0
 10
4260.6688300705191068
 20
227.2352489305750112
 30
0.0
 11
4260.6589897741587265
 21
227.235832519611904
 31
0.0
  0
LINE
  5
11BC2
  8
0
 10
4260.6589897741587265
 20
227.235832519611904
 30
0.0
 11
4260.6393047348337859
 21
227.2444646899797931
 31
0.0
  0
LINE
  5
11BC3
  8
0
 10
4260.6393047348337859
 20
227.2444646899797931
 30
0.0
 11
4260.6383325037513714
 21
227.2452718653252077
 31
0.0
  0
LINE
  5
11BC4
  8
0
 10
4260.6688300705191068
 20
227.2352489305750112
 30
0.0
 11
4260.6589897742087487
 21
227.2440809647756907
 31
0.0
  0
LINE
  5
11BC5
  8
0
 10
4260.6589897742087487
 20
227.2440809647756907
 30
0.0
 11
4260.6488847517475733
 21
227.248661133640212
 31
0.0
  0
LINE
  5
11BC6
  8
0
 10
4260.6966790855040017
 20
227.2532065868026905
 30
0.0
 11
4260.6868286237940993
 21
227.2451478067519872
 31
0.0
  0
LINE
  5
11BC7
  8
0
 10
4260.6868286237940993
 20
227.2451478067519872
 30
0.0
 11
4260.6686573129818498
 21
227.2379352907011025
 31
0.0
  0
LINE
  5
11BC8
  8
0
 10
4260.6686573129818498
 20
227.2379352907011025
 30
0.0
 11
4260.6671435845164524
 21
227.2386781904070858
 31
0.0
  0
LINE
  5
11BC9
  8
0
 10
4260.6671435845164524
 20
227.2386781904070858
 30
0.0
 11
4260.6573010647907722
 21
227.2474736229690961
 31
0.0
  0
LINE
  5
11BCA
  8
0
 10
4260.6573010647907722
 20
227.2474736229690961
 30
0.0
 11
4260.6671435844418738
 21
227.2469266355693094
 31
0.0
  0
LINE
  5
11BCB
  8
0
 10
4260.6671435844418738
 20
227.2469266355693094
 30
0.0
 11
4260.6686573130145916
 21
227.2461837358835055
 31
0.0
  0
LINE
  5
11BCC
  8
0
 10
4260.6686573130145916
 20
227.2461837358835055
 30
0.0
 11
4260.6868286238586734
 21
227.2533962519459863
 31
0.0
  0
LINE
  5
11BCD
  8
0
 10
4260.6868286238586734
 20
227.2533962519459863
 30
0.0
 11
4260.6966711435470643
 21
227.2532068443011042
 31
0.0
  0
LINE
  5
11BCE
  8
0
 10
4260.6879137524883845
 20
227.2582216095836998
 30
0.0
 11
4260.6674362350140655
 21
227.2520047347755963
 31
0.0
  0
LINE
  5
11BCF
  8
0
 10
4260.6674362350140655
 20
227.2520047347755963
 30
0.0
 11
4260.6648693812876445
 21
227.2542045230599115
 31
0.0
  0
LINE
  5
11BD0
  8
0
 10
4260.6633250114218754
 20
227.2536471041352968
 30
0.0
 11
4260.6688322938598503
 21
227.2492880364513042
 31
0.0
  0
LINE
  5
11BD1
  8
0
 10
4260.6688322938598503
 20
227.2492880364513042
 30
0.0
 11
4260.6591744998777358
 21
227.2492880364513042
 31
0.0
  0
LINE
  5
11BD2
  8
0
 10
4260.6591744998777358
 20
227.2492880364513042
 30
0.0
 11
4260.6554789826077467
 21
227.250887629082996
 31
0.0
  0
LINE
  5
11BD3
  8
0
 10
4260.6966711435588877
 20
227.2375608195513053
 30
0.0
 11
4260.6868286238586734
 21
227.2328960432512872
 31
0.0
  0
LINE
  5
11BD4
  8
0
 10
4260.6868286238586734
 20
227.2328960432512872
 30
0.0
 11
4260.6671435844600637
 21
227.2248933803512898
 31
0.0
  0
LINE
  5
11BD5
  8
0
 10
4260.6671435844600637
 20
227.2248933803512898
 30
0.0
 11
4260.6573010647962292
 21
227.221660564930005
 31
0.0
  0
LINE
  5
11BD6
  8
0
 10
4260.6573010647962292
 20
227.221660564930005
 30
0.0
 11
4260.6671435845037195
 21
227.2263095740543122
 31
0.0
  0
LINE
  5
11BD7
  8
0
 10
4260.6671435845037195
 20
227.2263095740543122
 30
0.0
 11
4260.6868286238586734
 21
227.2341880444514004
 31
0.0
  0
LINE
  5
11BD8
  8
0
 10
4260.6868286238586734
 20
227.2341880444514004
 30
0.0
 11
4260.6966711435588877
 21
227.2375608195513053
 31
0.0
  0
LINE
  5
11BD9
  8
0
 10
4260.6688322938598503
 20
227.2278511308512918
 30
0.0
 11
4260.6589897741587265
 21
227.2228457715112881
 31
0.0
  0
LINE
  5
11BDA
  8
0
 10
4260.6589897741587265
 20
227.2228457715112881
 30
0.0
 11
4260.6393047344627121
 21
227.2160564095543975
 31
0.0
  0
LINE
  5
11BDB
  8
0
 10
4260.6393047344627121
 20
227.2160564095543975
 30
0.0
 11
4260.6294622151599469
 21
227.2143354702513136
 31
0.0
  0
LINE
  5
11BDC
  8
0
 10
4260.6294622151599469
 20
227.2143354702513136
 30
0.0
 11
4260.6393047347601168
 21
227.2175118447513
 31
0.0
  0
LINE
  5
11BDD
  8
0
 10
4260.6393047347601168
 20
227.2175118447513
 30
0.0
 11
4260.6589897741587265
 21
227.2242619173796072
 31
0.0
  0
LINE
  5
11BDE
  8
0
 10
4260.6589897741587265
 20
227.2242619173796072
 30
0.0
 11
4260.6688322938598503
 21
227.2278511308512918
 31
0.0
  0
LINE
  5
11BDF
  8
0
 10
4260.6409934441790028
 20
227.2160148759020899
 30
0.0
 11
4260.6311509245597335
 21
227.2123402818513114
 31
0.0
  0
LINE
  5
11BE0
  8
0
 10
4260.6311509245597335
 20
227.2123402818513114
 30
0.0
 11
4260.6114658851602144
 21
227.2065563617512964
 31
0.0
  0
LINE
  5
11BE1
  8
0
 10
4260.6114658851602144
 20
227.2065563617512964
 30
0.0
 11
4260.6016233655172982
 21
227.2045180534395001
 31
0.0
  0
LINE
  5
11BE2
  8
0
 10
4260.6016233655172982
 20
227.2045180534395001
 30
0.0
 11
4260.6114658851602144
 21
227.2082055437145129
 31
0.0
  0
LINE
  5
11BE3
  8
0
 10
4260.6114658851602144
 20
227.2082055437145129
 30
0.0
 11
4260.6311509245597335
 21
227.2139155749381132
 31
0.0
  0
LINE
  5
11BE4
  8
0
 10
4260.6311509245597335
 20
227.2139155749381132
 30
0.0
 11
4260.6409934442272061
 21
227.2160148759203082
 31
0.0
  0
LINE
  5
11BE5
  8
0
 10
4260.613154594560001
 20
227.2096173550513072
 30
0.0
 11
4260.6033120748734291
 21
227.2055858331181923
 31
0.0
  0
LINE
  5
11BE6
  8
0
 10
4260.6033120748734291
 20
227.2055858331181923
 30
0.0
 11
4260.5836270354602675
 21
227.2008797709513885
 31
0.0
  0
LINE
  5
11BE7
  8
0
 10
4260.5836270354602675
 20
227.2008797709513885
 30
0.0
 11
4260.5737845158600976
 21
227.2002466856513081
 31
0.0
  0
LINE
  5
11BE8
  8
0
 10
4260.5737845158600976
 20
227.2002466856513081
 30
0.0
 11
4260.5836270354602675
 21
227.2024138973513061
 31
0.0
  0
LINE
  5
11BE9
  8
0
 10
4260.5836270354602675
 20
227.2024138973513061
 30
0.0
 11
4260.6033120748588772
 21
227.2070962758513986
 31
0.0
  0
LINE
  5
11BEA
  8
0
 10
4260.6033120748588772
 20
227.2070962758513986
 30
0.0
 11
4260.613154594560001
 21
227.2096173550513072
 31
0.0
  0
LINE
  5
11BEB
  8
0
 10
4260.5853157449009814
 20
227.2006055798948978
 30
0.0
 11
4260.5754732252598842
 21
227.1978610825514124
 31
0.0
  0
LINE
  5
11BEC
  8
0
 10
4260.5754732252598842
 20
227.1978610825514124
 30
0.0
 11
4260.5557881858212568
 21
227.1940997841064984
 31
0.0
  0
LINE
  5
11BED
  8
0
 10
4260.5557881858212568
 20
227.1940997841064984
 30
0.0
 11
4260.5459456664011668
 21
227.1931271209165004
 31
0.0
  0
LINE
  5
11BEE
  8
0
 10
4260.5459456664011668
 20
227.1931271209165004
 30
0.0
 11
4260.555788185860365
 21
227.1958935596514095
 31
0.0
  0
LINE
  5
11BEF
  8
0
 10
4260.555788185860365
 20
227.1958935596514095
 30
0.0
 11
4260.575473225208043
 21
227.199610977676997
 31
0.0
  0
LINE
  5
11BF0
  8
0
 10
4260.575473225208043
 20
227.199610977676997
 30
0.0
 11
4260.5853157449009814
 21
227.2006055798948978
 31
0.0
  0
LINE
  5
11BF1
  8
0
 10
4260.5574768952392333
 20
227.1971762094356961
 30
0.0
 11
4260.5476343754771733
 21
227.1940675882052005
 31
0.0
  0
LINE
  5
11BF2
  8
0
 10
4260.5476343754771733
 20
227.1940675882052005
 30
0.0
 11
4260.5279493360885681
 21
227.1912972708423979
 31
0.0
  0
LINE
  5
11BF3
  8
0
 10
4260.5279493360885681
 20
227.1912972708423979
 30
0.0
 11
4260.5181068164602038
 21
227.1916591647513997
 31
0.0
  0
LINE
  5
11BF4
  8
0
 10
4260.5181068164602038
 20
227.1916591647513997
 30
0.0
 11
4260.5279493361604182
 21
227.192876502082612
 31
0.0
  0
LINE
  5
11BF5
  8
0
 10
4260.5279493361604182
 20
227.192876502082612
 30
0.0
 11
4260.5572345860600763
 21
227.1971768869013033
 31
0.0
  0
LINE
  5
11BF6
  8
0
 10
4260.5017991959621213
 20
227.1901451607512001
 30
0.0
 11
4260.4919566762364411
 21
227.1879388088524934
 31
0.0
  0
LINE
  5
11BF7
  8
0
 10
4260.4919566762364411
 20
227.1879388088524934
 30
0.0
 11
4260.4722716368587498
 21
227.1870238867514047
 31
0.0
  0
LINE
  5
11BF8
  8
0
 10
4260.4722716368587498
 20
227.1870238867514047
 30
0.0
 11
4260.4626714263586109
 21
227.1883700062514038
 31
0.0
  0
LINE
  5
11BF9
  8
0
 10
4260.4626714263586109
 20
227.1883700062514038
 30
0.0
 11
4260.5017991959621213
 21
227.1901451607512001
 31
0.0
  0
LINE
  5
11BFA
  8
0
 10
4260.5296380456393308
 20
227.1908242675594067
 30
0.0
 11
4260.5197955258599904
 21
227.1889832329513013
 31
0.0
  0
LINE
  5
11BFB
  8
0
 10
4260.5197955258599904
 20
227.1889832329513013
 30
0.0
 11
4260.5001104865586967
 21
227.1871293577709139
 31
0.0
  0
LINE
  5
11BFC
  8
0
 10
4260.5001104865586967
 20
227.1871293577709139
 30
0.0
 11
4260.4902679670231009
 21
227.1871377087967971
 31
0.0
  0
LINE
  5
11BFD
  8
0
 10
4260.4902679670231009
 20
227.1871377087967971
 30
0.0
 11
4260.5001104866059904
 21
227.1890029139005946
 31
0.0
  0
LINE
  5
11BFE
  8
0
 10
4260.5001104866059904
 20
227.1890029139005946
 30
0.0
 11
4260.5197955258599904
 21
227.1908357623975974
 31
0.0
  0
LINE
  5
11BFF
  8
0
 10
4260.5197955258599904
 20
227.1908357623975974
 30
0.0
 11
4260.5296380411018617
 21
227.1908242667107913
 31
0.0
  0
ARC
  5
11C00
  8
0
 10
4260.4544454245151428
 20
227.7960459924090912
 30
0.0
 40
0.6035584718399017
 50
269.9839156370150022
 51
277.9271794707108256
  0
ARC
  5
11C01
  8
0
 10
4260.454418065100981
 20
227.7967054742850905
 30
0.0
 40
0.6042154284385407
 50
277.9211243967716882
 51
292.589780243671612
  0
LINE
  5
11C02
  8
0
 10
4260.638397332760178
 20
227.2433147826739912
 30
0.0
 11
4260.638397332760178
 21
227.2388462096513138
 31
0.0
  0
LINE
  5
11C03
  8
0
 10
4260.638397332760178
 20
227.2388462096513138
 30
0.0
 11
4260.616212872277174
 21
227.2388462096513138
 31
0.0
  0
LINE
  5
11C04
  8
0
 10
4260.6311509245597335
 20
227.2388462096513138
 30
0.0
 11
4260.6311509245597335
 21
227.2430857929805086
 31
0.0
  0
LINE
  5
11C05
  8
0
 10
4260.4739603462721789
 20
227.1863772181831962
 30
0.0
 11
4260.4641178265919734
 21
227.1873324960372997
 31
0.0
  0
LINE
  5
11C06
  8
0
 10
4260.6956900939403567
 20
227.2561328034514929
 30
0.0
 11
4260.6956900939403567
 21
227.2643812485933097
 31
0.0
  0
LINE
  5
11C07
  8
0
 10
4260.7153751333389664
 20
227.26635017165151
 30
0.0
 11
4260.7153751333489708
 21
227.274598616828797
 31
0.0
  0
LINE
  5
11C08
  8
0
 10
4260.7228212837753745
 20
227.2761097259192127
 30
0.0
 11
4260.7228212837590036
 21
227.2877362230653091
 31
0.0
  0
LINE
  5
11C09
  8
0
 10
4260.7146674735467968
 20
227.2815632955598915
 30
0.0
 11
4260.7146674735467968
 21
227.2942336005673098
 31
0.0
  0
LINE
  5
11C0A
  8
0
 10
4260.6949824340599662
 20
227.2725425575513043
 30
0.0
 11
4260.6949824340599662
 21
227.2859798147019887
 31
0.0
  0
LINE
  5
11C0B
  8
0
 10
4260.6949824340599662
 20
227.2434290852513072
 30
0.0
 11
4260.6949824341163549
 21
227.2499665508939017
 31
0.0
  0
LINE
  5
11C0C
  8
0
 10
4260.7146674734512999
 20
227.2524115498464141
 30
0.0
 11
4260.7146674734103726
 21
227.258919125428406
 31
0.0
  0
LINE
  5
11C0D
  8
0
 10
4260.7228212837590036
 20
227.2615298747512895
 30
0.0
 11
4260.7228212837590036
 21
227.2697783198931916
 31
0.0
  0
LINE
  5
11C0E
  8
0
 10
4260.7425063231603417
 20
227.2717472429513066
 30
0.0
 11
4260.7425063231694367
 21
227.2799956881287073
 31
0.0
  0
LINE
  5
11C0F
  8
0
 10
4260.7425063231603417
 20
227.267658974451308
 30
0.0
 11
4260.7425063230693922
 21
227.26300719551881
 31
0.0
  0
LINE
  5
11C10
  8
0
 10
4260.7228212838053878
 20
227.2526942092740114
 30
0.0
 11
4260.7228212837471801
 21
227.2574188620365874
 31
0.0
  0
LINE
  5
11C11
  8
0
 10
4260.7146674734722183
 20
227.2464358301859875
 30
0.0
 11
4260.7146674734522094
 21
227.2494027770673881
 31
0.0
  0
LINE
  5
11C12
  8
0
 10
4260.6949824341509157
 20
227.2373224059919892
 30
0.0
 11
4260.6949824340599662
 21
227.2403820389513101
 31
0.0
  0
LINE
  5
11C13
  8
0
 10
4260.4919566762364411
 20
227.1879388088524934
 30
0.0
 11
4260.4919566762364411
 21
227.189698623845004
 31
0.0
  0
LINE
  5
11C14
  8
0
 10
4260.4722716368587498
 20
227.1870238867514047
 30
0.0
 11
4260.4722716368587498
 21
227.1888055500363066
 31
0.0
  0
LINE
  5
11C15
  8
0
 10
4260.5001104865586967
 20
227.1871293577709139
 30
0.0
 11
4260.499767747093756
 21
227.1889379631043084
 31
0.0
  0
LINE
  5
11C16
  8
0
 10
4260.5194881500137853
 20
227.1889542852595127
 30
0.0
 11
4260.5193171155651726
 21
227.1907912182348923
 31
0.0
  0
LINE
  5
11C17
  8
0
 10
4260.5279493360885681
 20
227.1912972708423979
 30
0.0
 11
4260.5279493360885681
 21
227.1928765020738012
 31
0.0
  0
LINE
  5
11C18
  8
0
 10
4260.5476343754771733
 20
227.1940675882052005
 30
0.0
 11
4260.5476343754771733
 21
227.1957671465034991
 31
0.0
  0
LINE
  5
11C19
  8
0
 10
4260.5557881858212568
 20
227.1940997841064984
 30
0.0
 11
4260.555788185860365
 21
227.1958935596514095
 31
0.0
  0
LINE
  5
11C1A
  8
0
 10
4260.5754732252598842
 20
227.1978610825514124
 30
0.0
 11
4260.5754732252598842
 21
227.1999063656492979
 31
0.0
  0
LINE
  5
11C1B
  8
0
 10
4260.5836270354602675
 20
227.2008797709513885
 30
0.0
 11
4260.5836270354602675
 21
227.2024138973513061
 31
0.0
  0
LINE
  5
11C1C
  8
0
 10
4260.6033120748734291
 20
227.2055858331181923
 30
0.0
 11
4260.6033120748734291
 21
227.2070962758544965
 31
0.0
  0
LINE
  5
11C1D
  8
0
 10
4260.6114658851602144
 20
227.2065563617512964
 30
0.0
 11
4260.6114658851602144
 21
227.2082055437145129
 31
0.0
  0
LINE
  5
11C1E
  8
0
 10
4260.6311509245597335
 20
227.2123402818513114
 30
0.0
 11
4260.6311509245597335
 21
227.2139155749381132
 31
0.0
  0
LINE
  5
11C1F
  8
0
 10
4260.6393047344627121
 20
227.2160564095543975
 30
0.0
 11
4260.6393047344627121
 21
227.2175118446556041
 31
0.0
  0
LINE
  5
11C20
  8
0
 10
4260.6589897741587265
 20
227.2228457715112881
 30
0.0
 11
4260.6589897741587265
 21
227.2242619173796072
 31
0.0
  0
LINE
  5
11C21
  8
0
 10
4260.6671435844600637
 20
227.2248933803512898
 30
0.0
 11
4260.6671435845037195
 21
227.2263095740543122
 31
0.0
  0
LINE
  5
11C22
  8
0
 10
4260.6866693063875573
 20
227.2328312750790928
 30
0.0
 11
4260.6868286238586734
 21
227.2341880444514004
 31
0.0
  0
LINE
  5
11C23
  8
0
 10
4260.434591634748358
 20
227.1863772181831962
 30
0.0
 11
4260.4739603462721789
 21
227.1863772181831962
 31
0.0
  0
LINE
  5
11C24
  8
0
 10
4266.828410532360067
 20
223.988261107616097
 30
0.0
 11
4266.828410532360067
 21
229.9814988170464005
 31
0.0
  0
ARC
  5
11C25
  8
0
 10
4267.3774667636007507
 20
224.5035489638916886
 30
0.0
 40
0.8395914291064949
 50
259.6084803902003841
 51
270.4056207544705899
  0
ARC
  5
11C26
  8
0
 10
4267.3717427747960755
 20
224.4723353822847116
 30
0.0
 40
0.807857350821818
 50
244.4023596393402897
 51
259.6084803902003841
  0
ARC
  5
11C27
  8
0
 10
4267.2063258258831411
 20
224.1270470844482929
 30
0.0
 40
0.4249908262853199
 50
222.8624292219062113
 51
244.4023596393402897
  0
ARC
  5
11C28
  8
0
 10
4267.0875324786002238
 20
224.0168025678171091
 30
0.0
 40
0.2629238253086132
 50
198.7662886699513081
 51
222.8624292219062113
  0
ARC
  5
11C29
  8
0
 10
4267.0215455579327681
 20
223.9943821034250959
 30
0.0
 40
0.1932319970740357
 50
181.8152578747269104
 51
198.7662886699513081
  0
ARC
  5
11C2A
  8
0
 10
4267.2498363011236506
 20
223.8548987033655919
 30
0.0
 40
0.3643777917069411
 50
208.8407792810465935
 51
229.4878400591111927
  0
ARC
  5
11C2B
  8
0
 10
4267.3830877030395641
 20
224.1756862728173019
 30
0.0
 40
0.6310890158890274
 50
258.9973562560508071
 51
270.0293092699430986
  0
ARC
  5
11C2C
  8
0
 10
4267.3675673990182986
 20
224.0958608955342015
 30
0.0
 40
0.5497688419140357
 50
237.6736502292214084
 51
258.9973562560508071
  0
ARC
  5
11C2D
  8
0
 10
4267.2507502281196139
 20
223.9112624175085102
 30
0.0
 40
0.331313241147643
 50
200.4247456743952114
 51
237.6736502292214084
  0
ARC
  5
11C2E
  8
0
 10
4267.3830795718386071
 20
224.2505267105312896
 30
0.0
 40
0.6433045937144684
 50
255.0380801202900045
 51
270.0294769259087957
  0
ARC
  5
11C2F
  8
0
 10
4267.3486795050330329
 20
224.1218017598158099
 30
0.0
 40
0.5100624174605805
 50
224.49356530443319
 51
255.0380801202900045
  0
ARC
  5
11C30
  8
0
 10
4267.383361289581444
 20
224.3079216532977966
 30
0.0
 40
0.6594862496848215
 50
260.4078167758522113
 51
270.0042781837685766
  0
ARC
  5
11C31
  8
0
 10
4267.3737686552231025
 20
224.2511594995428084
 30
0.0
 40
0.6019192388814174
 50
245.5656492194657972
 51
260.4078167758522113
  0
ARC
  5
11C32
  8
0
 10
4267.383398620007938
 20
224.1260035712543015
 30
0.0
 40
0.6370847745143569
 50
262.0508904861976021
 51
270.0010713290744206
  0
ARC
  5
11C33
  8
0
 10
4267.3742093765422396
 20
224.0601946373963074
 30
0.0
 40
0.5706373669574437
 50
239.6285529772171969
 51
262.0508904861976021
  0
ARC
  5
11C34
  8
0
 10
4267.2532404767753178
 20
223.8537725193482117
 30
0.0
 40
0.3313810911146263
 50
193.2300934186773134
 51
239.6285529772171969
  0
ARC
  5
11C35
  8
0
 10
4267.3893543011181464
 20
224.5035489638916886
 30
0.0
 40
0.8395914291064949
 50
269.5943792455294101
 51
280.3915196097996159
  0
ARC
  5
11C36
  8
0
 10
4267.3950782899237311
 20
224.4723353822847116
 30
0.0
 40
0.807857350821818
 50
280.3915196097996159
 51
295.597640360659625
  0
ARC
  5
11C37
  8
0
 10
4267.5169847635952465
 20
223.8548987033655919
 30
0.0
 40
0.3643777917069411
 50
310.5121599408886937
 51
331.1592207189534065
  0
ARC
  5
11C38
  8
0
 10
4267.3837333616802425
 20
224.1756862728173019
 30
0.0
 40
0.6310890158890274
 50
269.9706907300567877
 51
281.0026437439490792
  0
ARC
  5
11C39
  8
0
 10
4267.3992536657005985
 20
224.0958608955342015
 30
0.0
 40
0.5497688419140357
 50
281.0026437439490792
 51
302.32634977077862
  0
ARC
  5
11C3A
  8
0
 10
4267.5160708366020117
 20
223.9112624175085102
 30
0.0
 40
0.331313241147643
 50
302.32634977077862
 51
339.575254325604817
  0
ARC
  5
11C3B
  8
0
 10
4267.3837414928811995
 20
224.2505267105312896
 30
0.0
 40
0.6433045937144684
 50
269.9705230740910906
 51
284.9619198797100239
  0
ARC
  5
11C3C
  8
0
 10
4267.4181415596858642
 20
224.1218017598158099
 30
0.0
 40
0.5100624174605805
 50
284.9619198797100239
 51
315.5064346955667816
  0
ARC
  5
11C3D
  8
0
 10
4267.3834597751383626
 20
224.3079216532977966
 30
0.0
 40
0.6594862496848215
 50
269.9957218162314234
 51
279.5921832241477887
  0
ARC
  5
11C3E
  8
0
 10
4267.3930524094967041
 20
224.2511594995428084
 30
0.0
 40
0.6019192388814174
 50
279.5921832241477887
 51
294.4343507805342028
  0
ARC
  5
11C3F
  8
0
 10
4267.3834224447109591
 20
224.1260035712543015
 30
0.0
 40
0.6370847745143569
 50
269.9989286709255794
 51
277.9491095138025116
  0
ARC
  5
11C40
  8
0
 10
4267.392611688179386
 20
224.0601946373963074
 30
0.0
 40
0.5706373669574437
 50
277.9491095138025116
 51
300.3714470227827746
  0
ARC
  5
11C41
  8
0
 10
4267.5135805879435793
 20
223.8537725193482117
 30
0.0
 40
0.3313810911146263
 50
300.3714470227827746
 51
346.7699065813225729
  0
ARC
  5
11C42
  8
0
 10
4267.5604952388366655
 20
224.1270470844482929
 30
0.0
 40
0.4249908262853199
 50
295.597640360659625
 51
317.1375707780937887
  0
ARC
  5
11C43
  8
0
 10
4267.6792885861177638
 20
224.0168025678171091
 30
0.0
 40
0.2629238253086132
 50
317.1375707780937887
 51
341.2337113300487204
  0
ARC
  5
11C44
  8
0
 10
4267.2782730663657276
 20
227.4599334121625986
 30
0.0
 40
0.0402406145436199
 50
206.9736638053990987
 51
316.5197919619113236
  0
ARC
  5
11C45
  8
0
 10
4267.2964448860675475
 20
227.4668452593730024
 30
0.0
 40
0.0363162402493638
 50
287.6766835075025028
 51
320.1456569983275813
  0
ARC
  5
11C46
  8
0
 10
4267.3048592953673506
 20
227.4598211063760971
 30
0.0
 40
0.0253553548300559
 50
320.145656998328775
 51
25.5648562653298086
  0
ARC
  5
11C47
  8
0
 10
4267.2702747472449119
 20
227.4331683084139968
 30
0.0
 40
0.0686637678620712
 50
33.196712949802162
 51
83.6478283352559231
  0
ARC
  5
11C48
  8
0
 10
4267.2668093004485854
 20
227.4289208254205903
 30
0.0
 40
0.0733289311646425
 50
81.3232652799476341
 51
114.7934788883528938
  0
ARC
  5
11C49
  8
0
 10
4267.248865363430923
 20
227.4784715497766001
 30
0.0
 40
0.0212992048301814
 50
126.9605269578368052
 51
205.0698460810820052
  0
ARC
  5
11C4A
  8
0
 10
4267.2772458222243586
 20
227.4871366433160063
 30
0.0
 40
0.0508494150872117
 50
200.3583708505917116
 51
224.6341596314204025
  0
ARC
  5
11C4B
  8
0
 10
4267.2772420228948249
 20
227.4533482145212986
 30
0.0
 40
0.0233240017534245
 50
220.9417126139130119
 51
303.74285356984592
  0
ARC
  5
11C4C
  8
0
 10
4267.2859973389668085
 20
227.440241419353697
 30
0.0
 40
0.0075619067444839
 50
303.7428535698467726
 51
43.7040611168761686
  0
ARC
  5
11C4D
  8
0
 10
4267.2747685291778907
 20
227.4295094128243022
 30
0.0
 40
0.0230945218957135
 50
43.7040611168761686
 51
130.6559024886257987
  0
ARC
  5
11C4E
  8
0
 10
4267.26595637241644
 20
227.4424779509517123
 30
0.0
 40
0.0077191262072953
 50
143.8658513106304895
 51
214.8753576709115976
  0
LINE
  5
11C4F
  8
0
 10
4267.2424100227190138
 20
227.4416810380940035
 30
0.0
 11
4267.235060389046339
 21
227.4946912541082895
 31
0.0
  0
LINE
  5
11C50
  8
0
 10
4267.3074721435696119
 20
227.4322436857409002
 30
0.0
 11
4267.3242436017690125
 21
227.4756191712831139
 31
0.0
  0
ARC
  5
11C51
  8
0
 10
4267.1553672828213166
 20
227.5351869969487097
 30
0.0
 40
0.0253685297760163
 50
184.196639494453791
 51
243.5448456532409978
  0
ARC
  5
11C52
  8
0
 10
4267.1704734733302757
 20
227.5560030853337992
 30
0.0
 40
0.0509123585996696
 50
238.7554897197616128
 51
284.6764080651988138
  0
ARC
  5
11C53
  8
0
 10
4267.1766140223799084
 20
227.529545127236986
 30
0.0
 40
0.0237741520347882
 50
286.5159966656864867
 51
330.7733536454467185
  0
ARC
  5
11C54
  8
0
 10
4267.166887685313668
 20
227.5394481727682887
 30
0.0
 40
0.0237073257377576
 50
219.5256683677675937
 51
298.4819067568918172
  0
ARC
  5
11C55
  8
0
 10
4267.1745428743834054
 20
227.5253384446934888
 30
0.0
 40
0.0076547139242154
 50
298.4819067568910214
 51
34.2353015482685734
  0
ARC
  5
11C56
  8
0
 10
4267.1615599084352652
 20
227.5165035316155979
 30
0.0
 40
0.0233586336223295
 50
34.2353015482685734
 51
117.5884353672940961
  0
ARC
  5
11C57
  8
0
 10
4267.1545205749707748
 20
227.5299751566683994
 30
0.0
 40
0.008158735688514
 50
117.5884353672940961
 51
223.4882691847836043
  0
ARC
  5
11C58
  8
0
 10
4267.1956793169902085
 20
227.5425221943461906
 30
0.0
 40
0.0284727300035069
 50
267.9485342210253975
 51
316.9904520744585739
  0
ARC
  5
11C59
  8
0
 10
4267.2006008376101818
 20
227.5379312685703894
 30
0.0
 40
0.0217423537368783
 50
316.9904520744585739
 51
26.8111405993805185
  0
ARC
  5
11C5A
  8
0
 10
4267.1434781470034068
 20
227.5090625788529053
 30
0.0
 40
0.0857455023164084
 50
26.8111405993805185
 51
70.0614763610311826
  0
ARC
  5
11C5B
  8
0
 10
4267.1314977747069861
 20
227.4923601435127978
 30
0.0
 40
0.1056789324738485
 50
67.0420812999855968
 51
88.0956869525463162
  0
ARC
  5
11C5C
  8
0
 10
4267.1335221803428794
 20
227.5807154833431127
 30
0.0
 40
0.0173291749622021
 50
85.0762918915019242
 51
171.0230691010017949
  0
ARC
  5
11C5D
  8
0
 10
4267.1706771750023108
 20
227.5864064863843055
 30
0.0
 40
0.0543540462345484
 50
183.1502637190631049
 51
220.9990462654355099
  0
ARC
  5
11C5E
  8
0
 10
4267.1868244675670212
 20
227.6101758140061122
 30
0.0
 40
0.0728973003692405
 50
198.1593239243931066
 51
217.9084884319188973
  0
ARC
  5
11C5F
  8
0
 10
4267.1976075425218369
 20
227.5561923021365089
 30
0.0
 40
0.025037215803664
 50
286.3917982598474055
 51
336.905106668221606
  0
ARC
  5
11C60
  8
0
 10
4267.3001234783723703
 20
227.4769968772945106
 30
0.0
 40
0.0308826907968024
 50
296.981448200852185
 51
340.5999440957060074
  0
ARC
  5
11C61
  8
0
 10
4267.2747553721801523
 20
227.499318612675296
 30
0.0
 40
0.0483011988544906
 50
197.177580754522495
 51
222.0821373230062079
  0
LINE
  5
11C62
  8
0
 10
4267.1973616082632361
 20
227.5179370272643951
 30
0.0
 11
4267.2161650785574238
 21
227.5545477538987882
 31
0.0
  0
LINE
  5
11C63
  8
0
 10
4267.1300667718824116
 20
227.5333305354836
 30
0.0
 11
4267.1285542428076951
 21
227.5973172875071953
 31
0.0
  0
ARC
  5
11C64
  8
0
 10
4267.385745545509053
 20
229.4573136699227121
 30
0.0
 40
0.9277101631069633
 50
90.144211570785302
 51
95.423584553351489
  0
ARC
  5
11C65
  8
0
 10
4267.3764173689041854
 20
229.5555637938535938
 30
0.0
 40
0.8290182093761153
 50
95.423584553351489
 51
109.6768883163859982
  0
ARC
  5
11C66
  8
0
 10
4267.2809217484928013
 20
229.822612090726011
 30
0.0
 40
0.5454089599146755
 50
109.6768883163859982
 51
130.763897641189601
  0
ARC
  5
11C67
  8
0
 10
4267.1087926662839891
 20
230.0222797653640043
 30
0.0
 40
0.2817887762455818
 50
130.763897641189601
 51
162.2900979305279066
  0
ARC
  5
11C68
  8
0
 10
4267.0619288835696352
 20
230.0443059592757891
 30
0.0
 40
0.2305437503356911
 50
163.9620340274767045
 51
179.1435979530909037
  0
ARC
  5
11C69
  8
0
 10
4267.0537489556490982
 20
230.050916695773509
 30
0.0
 40
0.2223605942812339
 50
180.8155340500470913
 51
208.0266090566452988
  0
ARC
  5
11C6A
  8
0
 10
4267.2055332336312858
 20
230.1583062837354134
 30
0.0
 40
0.4074822133916224
 50
211.329285404127404
 51
247.8282172649676056
  0
ARC
  5
11C6B
  8
0
 10
4267.365443542000321
 20
230.4954744261584949
 30
0.0
 40
0.7803451261429579
 50
246.2976024871821039
 51
264.6961575609367969
  0
ARC
  5
11C6C
  8
0
 10
4267.3832627937590587
 20
230.6207100274172035
 30
0.0
 40
0.9067126653041823
 50
264.3064886781631913
 51
270.0093357010032946
  0
ARC
  5
11C6D
  8
0
 10
4267.0915972455095471
 20
229.978772638702992
 30
0.0
 40
0.2632008321177122
 50
171.3200933559828059
 51
179.4065318674257128
  0
ARC
  5
11C6E
  8
0
 10
4267.0532668221967469
 20
229.9882081166919079
 30
0.0
 40
0.224956364171451
 50
181.7090939766648034
 51
216.4853151337420059
  0
ARC
  5
11C6F
  8
0
 10
4267.2585352934902403
 20
230.1703505584609104
 30
0.0
 40
0.4988955211508938
 50
219.2872944759378129
 51
255.4685438246742137
  0
ARC
  5
11C70
  8
0
 10
4267.3775910031663443
 20
230.5111908648391079
 30
0.0
 40
0.859219178004819
 50
253.4858883894405039
 51
267.4033428933560117
  0
ARC
  5
11C71
  8
0
 10
4267.3834006183542442
 20
230.5772569244855106
 30
0.0
 40
0.9254848724873088
 50
267.2293446823615
 51
270.0006137655449834
  0
ARC
  5
11C72
  8
0
 10
4267.3908963171643336
 20
230.7335400264217924
 30
0.0
 40
1.0697463112950489
 50
265.4307225958099252
 51
269.5990569244166863
  0
ARC
  5
11C73
  8
0
 10
4267.3681438345602146
 20
230.4488437147768138
 30
0.0
 40
0.7841422753835569
 50
256.1260666159232073
 51
265.4307225958099252
  0
ARC
  5
11C74
  8
0
 10
4267.3660602123209173
 20
230.4404077316256974
 30
0.0
 40
0.7754527821093716
 50
245.569736974913809
 51
256.1260666159232073
  0
ARC
  5
11C75
  8
0
 10
4267.2425146116720498
 20
230.1684349038764879
 30
0.0
 40
0.4767342951128551
 50
228.5044126908427984
 51
245.569736974913809
  0
ARC
  5
11C76
  8
0
 10
4267.1294046114289813
 20
230.0405674633273065
 30
0.0
 40
0.3060182896896478
 50
200.6759298158191029
 51
228.5044126908427984
  0
ARC
  5
11C77
  8
0
 10
4267.026972912902238
 20
230.0002182090584029
 30
0.0
 40
0.1959437780405857
 50
183.577112904898712
 51
200.2128402914188996
  0
LINE
  5
11C78
  8
0
 10
4266.8314108860904525
 20
230.0477517765712037
 30
0.0
 11
4266.8314108860904525
 21
229.9879929147211044
 31
0.0
  0
LINE
  5
11C79
  8
0
 10
4267.9384105323597396
 20
223.988261107616097
 30
0.0
 11
4267.9384105323597396
 21
229.9814988170464005
 31
0.0
  0
ARC
  5
11C7A
  8
0
 10
4267.3810755192089346
 20
229.4573136699227121
 30
0.0
 40
0.9277101631069633
 50
84.5764154466484968
 51
89.8557884292146838
  0
ARC
  5
11C7B
  8
0
 10
4267.3904036958156212
 20
229.5555637938535938
 30
0.0
 40
0.8290182093761153
 50
70.3231116836139876
 51
84.5764154466484968
  0
ARC
  5
11C7C
  8
0
 10
4267.4858993162260958
 20
229.822612090726011
 30
0.0
 40
0.5454089599146755
 50
49.2361023588103421
 51
70.3231116836139876
  0
ARC
  5
11C7D
  8
0
 10
4267.658028398434908
 20
230.0222797653640043
 30
0.0
 40
0.2817887762455818
 50
17.7099020694720295
 51
49.2361023588103421
  0
ARC
  5
11C7E
  8
0
 10
4267.7048921811501714
 20
230.0443059592757891
 30
0.0
 40
0.2305437503356911
 50
0.8564020469107452
 51
16.0379659725232884
  0
ARC
  5
11C7F
  8
0
 10
4267.7130721090697989
 20
230.050916695773509
 30
0.0
 40
0.2223605942812339
 50
331.973390943354616
 51
359.1844659499528802
  0
ARC
  5
11C80
  8
0
 10
4267.5612878310894303
 20
230.1583062837354134
 30
0.0
 40
0.4074822133916224
 50
292.1717827350324228
 51
328.670714595872596
  0
ARC
  5
11C81
  8
0
 10
4267.4013775227203951
 20
230.4954744261584949
 30
0.0
 40
0.7803451261429579
 50
275.3038424390632031
 51
293.7023975128179245
  0
ARC
  5
11C82
  8
0
 10
4267.3835582709598384
 20
230.6207100274172035
 30
0.0
 40
0.9067126653041823
 50
269.9906642989967054
 51
275.6935113218366951
  0
ARC
  5
11C83
  8
0
 10
4267.67522381920935
 20
229.978772638702992
 30
0.0
 40
0.2632008321177122
 50
0.5934681325742494
 51
8.6799066440171551
  0
ARC
  5
11C84
  8
0
 10
4267.7135542425212407
 20
229.9882081166919079
 30
0.0
 40
0.224956364171451
 50
323.5146848662579941
 51
358.2909060233350829
  0
ARC
  5
11C85
  8
0
 10
4267.5082857712295663
 20
230.1703505584609104
 30
0.0
 40
0.4988955211508938
 50
284.5314561753257863
 51
320.7127055240623008
  0
ARC
  5
11C86
  8
0
 10
4267.3892300615543718
 20
230.5111908648391079
 30
0.0
 40
0.859219178004819
 50
272.5966571066439883
 51
286.5141116105593824
  0
ARC
  5
11C87
  8
0
 10
4267.3834204463655624
 20
230.5772569244855106
 30
0.0
 40
0.9254848724873088
 50
269.9993862345592106
 51
272.7706553176385
  0
ARC
  5
11C88
  8
0
 10
4267.3759247475563825
 20
230.7335400264217924
 30
0.0
 40
1.0697463112950489
 50
270.4009430755832
 51
274.5692774041900748
  0
ARC
  5
11C89
  8
0
 10
4267.3986772301586825
 20
230.4488437147768138
 30
0.0
 40
0.7841422753835569
 50
274.5692774041900748
 51
283.873933384076679
  0
ARC
  5
11C8A
  8
0
 10
4267.4007608523988893
 20
230.4404077316256974
 30
0.0
 40
0.7754527821093716
 50
283.873933384076679
 51
294.4302630250862194
  0
ARC
  5
11C8B
  8
0
 10
4267.5243064530459378
 20
230.1684349038764879
 30
0.0
 40
0.4767342951128551
 50
294.4302630250862194
 51
311.4955873091572016
  0
ARC
  5
11C8C
  8
0
 10
4267.6374164532908253
 20
230.0405674633273065
 30
0.0
 40
0.3060182896896478
 50
311.4955873091572016
 51
339.3240701841809255
  0
ARC
  5
11C8D
  8
0
 10
4267.7398481518166591
 20
230.0002182090584029
 30
0.0
 40
0.1959437780405857
 50
339.7871597085809867
 51
356.422887095102908
  0
LINE
  5
11C8E
  8
0
 10
4267.9354101786302635
 20
230.0477517765712037
 30
0.0
 11
4267.9354101786302635
 21
229.9879929147211044
 31
0.0
  0
ARC
  5
11C8F
  8
0
 10
4267.2782730663657276
 20
227.6009936407675127
 30
0.0
 40
0.0402406145436199
 50
206.9736638053990987
 51
316.5197919619113236
  0
ARC
  5
11C90
  8
0
 10
4267.2964448860675475
 20
227.6079054879780017
 30
0.0
 40
0.0363162402493638
 50
287.6766835075025028
 51
320.1456569983275813
  0
ARC
  5
11C91
  8
0
 10
4267.3048592953673506
 20
227.6008813349810964
 30
0.0
 40
0.0253553548300559
 50
320.145656998328775
 51
25.5648562653298086
  0
ARC
  5
11C92
  8
0
 10
4267.2702747472449119
 20
227.5742285370189109
 30
0.0
 40
0.0686637678620712
 50
33.196712949802162
 51
83.6478283352559231
  0
ARC
  5
11C93
  8
0
 10
4267.2668093004485854
 20
227.5699810540255896
 30
0.0
 40
0.0733289311646425
 50
81.3232652799476341
 51
114.7934788883528938
  0
ARC
  5
11C94
  8
0
 10
4267.248865363430923
 20
227.6195317783815142
 30
0.0
 40
0.0212992048301814
 50
126.9605269578368052
 51
205.0698460810820052
  0
ARC
  5
11C95
  8
0
 10
4267.2772458222243586
 20
227.6281968719210056
 30
0.0
 40
0.0508494150872117
 50
200.3583708505917116
 51
224.6341596314204025
  0
ARC
  5
11C96
  8
0
 10
4267.2772420228948249
 20
227.5944084431262979
 30
0.0
 40
0.0233240017534245
 50
220.9417126139130119
 51
303.74285356984592
  0
ARC
  5
11C97
  8
0
 10
4267.2859973389668085
 20
227.5813016479586111
 30
0.0
 40
0.0075619067444839
 50
303.7428535698467726
 51
43.7040611168761686
  0
ARC
  5
11C98
  8
0
 10
4267.2747685291778907
 20
227.5705696414291879
 30
0.0
 40
0.0230945218957135
 50
43.7040611168761686
 51
130.6559024886257987
  0
ARC
  5
11C99
  8
0
 10
4267.26595637241644
 20
227.5835381795565979
 30
0.0
 40
0.0077191262072953
 50
143.8658513106304895
 51
214.8753576709115976
  0
LINE
  5
11C9A
  8
0
 10
4267.2424100227190138
 20
227.5827412666988891
 30
0.0
 11
4267.235060389046339
 21
227.6357514827132036
 31
0.0
  0
LINE
  5
11C9B
  8
0
 10
4267.3074721435696119
 20
227.5733039143457859
 30
0.0
 11
4267.3242436017690125
 21
227.6166793998881133
 31
0.0
  0
ARC
  5
11C9C
  8
0
 10
4267.3001234783723703
 20
227.6180571058993962
 30
0.0
 40
0.0308826907968024
 50
296.981448200852185
 51
340.5999440957060074
  0
ARC
  5
11C9D
  8
0
 10
4267.2747553721801523
 20
227.6403788412802953
 30
0.0
 40
0.0483011988544906
 50
197.177580754522495
 51
222.0821373230062079
  0
ARC
  5
11C9E
  8
0
 10
4267.2782730663657276
 20
227.742294733282705
 30
0.0
 40
0.0402406145436199
 50
206.9736638053990987
 51
316.5197919619113236
  0
ARC
  5
11C9F
  8
0
 10
4267.2964448860675475
 20
227.749206580493194
 30
0.0
 40
0.0363162402493638
 50
287.6766835075025028
 51
320.1456569983275813
  0
ARC
  5
11CA0
  8
0
 10
4267.3048592953673506
 20
227.7421824274962887
 30
0.0
 40
0.0253553548300559
 50
320.145656998328775
 51
25.5648562653298086
  0
ARC
  5
11CA1
  8
0
 10
4267.2702747472449119
 20
227.7155296295341884
 30
0.0
 40
0.0686637678620712
 50
33.196712949802162
 51
83.6478283352559231
  0
ARC
  5
11CA2
  8
0
 10
4267.2668093004485854
 20
227.7112821465408103
 30
0.0
 40
0.0733289311646425
 50
81.3232652799476341
 51
114.7934788883528938
  0
ARC
  5
11CA3
  8
0
 10
4267.248865363430923
 20
227.7608328708967065
 30
0.0
 40
0.0212992048301814
 50
126.9605269578368052
 51
205.0698460810820052
  0
ARC
  5
11CA4
  8
0
 10
4267.2772458222243586
 20
227.7694979644361979
 30
0.0
 40
0.0508494150872117
 50
200.3583708505917116
 51
224.6341596314204025
  0
ARC
  5
11CA5
  8
0
 10
4267.2772420228948249
 20
227.7357095356414902
 30
0.0
 40
0.0233240017534245
 50
220.9417126139130119
 51
303.74285356984592
  0
ARC
  5
11CA6
  8
0
 10
4267.2859973389668085
 20
227.7226027404738886
 30
0.0
 40
0.0075619067444839
 50
303.7428535698467726
 51
43.7040611168761686
  0
ARC
  5
11CA7
  8
0
 10
4267.2747685291778907
 20
227.7118707339444086
 30
0.0
 40
0.0230945218957135
 50
43.7040611168761686
 51
130.6559024886257987
  0
ARC
  5
11CA8
  8
0
 10
4267.26595637241644
 20
227.7248392720717902
 30
0.0
 40
0.0077191262072953
 50
143.8658513106304895
 51
214.8753576709115976
  0
LINE
  5
11CA9
  8
0
 10
4267.2424100227190138
 20
227.7240423592141099
 30
0.0
 11
4267.235060389046339
 21
227.7770525752283959
 31
0.0
  0
LINE
  5
11CAA
  8
0
 10
4267.3074721435696119
 20
227.7146050068610066
 30
0.0
 11
4267.3242436017690125
 21
227.7579804924033056
 31
0.0
  0
ARC
  5
11CAB
  8
0
 10
4267.3001234783723703
 20
227.7593581984147022
 30
0.0
 40
0.0308826907968024
 50
296.981448200852185
 51
340.5999440957060074
  0
ARC
  5
11CAC
  8
0
 10
4267.2747553721801523
 20
227.7816799337954876
 30
0.0
 40
0.0483011988544906
 50
197.177580754522495
 51
222.0821373230062079
  0
ARC
  5
11CAD
  8
0
 10
4267.1553672828213166
 20
227.6800059537953018
 30
0.0
 40
0.0253685297760163
 50
184.196639494453791
 51
243.5448456532409978
  0
ARC
  5
11CAE
  8
0
 10
4267.1704734733302757
 20
227.700822042180306
 30
0.0
 40
0.0509123585996696
 50
238.7554897197616128
 51
284.6764080651988138
  0
ARC
  5
11CAF
  8
0
 10
4267.1766140223799084
 20
227.6743640840836065
 30
0.0
 40
0.0237741520347882
 50
286.5159966656864867
 51
330.7733536454467185
  0
ARC
  5
11CB0
  8
0
 10
4267.166887685313668
 20
227.6842671296149092
 30
0.0
 40
0.0237073257377576
 50
219.5256683677675937
 51
298.4819067568918172
  0
ARC
  5
11CB1
  8
0
 10
4267.1745428743834054
 20
227.6701574015401093
 30
0.0
 40
0.0076547139242154
 50
298.4819067568910214
 51
34.2353015482685734
  0
ARC
  5
11CB2
  8
0
 10
4267.1615599084352652
 20
227.66132248846219
 30
0.0
 40
0.0233586336223295
 50
34.2353015482685734
 51
117.5884353672940961
  0
ARC
  5
11CB3
  8
0
 10
4267.1545205749707748
 20
227.6747941135149915
 30
0.0
 40
0.008158735688514
 50
117.5884353672940961
 51
223.4882691847836043
  0
ARC
  5
11CB4
  8
0
 10
4267.1956793169902085
 20
227.6873411511928111
 30
0.0
 40
0.0284727300035069
 50
267.9485342210253975
 51
316.9904520744585739
  0
ARC
  5
11CB5
  8
0
 10
4267.2006008376101818
 20
227.6827502254168962
 30
0.0
 40
0.0217423537368783
 50
316.9904520744585739
 51
26.8111405993805185
  0
ARC
  5
11CB6
  8
0
 10
4267.1434781470034068
 20
227.6538815356994121
 30
0.0
 40
0.0857455023164084
 50
26.8111405993805185
 51
70.0614763610311826
  0
ARC
  5
11CB7
  8
0
 10
4267.1314977747069861
 20
227.6371791003593046
 30
0.0
 40
0.1056789324738485
 50
67.0420812999855968
 51
88.0956869525463162
  0
ARC
  5
11CB8
  8
0
 10
4267.1335221803428794
 20
227.7255344401897048
 30
0.0
 40
0.0173291749622021
 50
85.0762918915019242
 51
171.0230691010017949
  0
ARC
  5
11CB9
  8
0
 10
4267.1706771750023108
 20
227.7312254432308976
 30
0.0
 40
0.0543540462345484
 50
183.1502637190631049
 51
220.9990462654355099
  0
ARC
  5
11CBA
  8
0
 10
4267.1868244675670212
 20
227.7549947708525906
 30
0.0
 40
0.0728973003692405
 50
198.1593239243931066
 51
217.9084884319188973
  0
ARC
  5
11CBB
  8
0
 10
4267.1976075425218369
 20
227.7010112589829873
 30
0.0
 40
0.025037215803664
 50
286.3917982598474055
 51
336.905106668221606
  0
LINE
  5
11CBC
  8
0
 10
4267.1973616082632361
 20
227.6627559841109019
 30
0.0
 11
4267.2161650785574238
 21
227.699366710745295
 31
0.0
  0
LINE
  5
11CBD
  8
0
 10
4267.1300667718824116
 20
227.6781494923301921
 30
0.0
 11
4267.1285542428076951
 21
227.7421362443537873
 31
0.0
  0
ARC
  5
11CBE
  8
0
 10
4267.2782730663657276
 20
227.879872757927501
 30
0.0
 40
0.0402406145436199
 50
206.9736638053990987
 51
316.5197919619113236
  0
ARC
  5
11CBF
  8
0
 10
4267.2964448860675475
 20
227.88678460513799
 30
0.0
 40
0.0363162402493638
 50
287.6766835075025028
 51
320.1456569983275813
  0
ARC
  5
11CC0
  8
0
 10
4267.3048592953673506
 20
227.8797604521409994
 30
0.0
 40
0.0253553548300559
 50
320.145656998328775
 51
25.5648562653298086
  0
ARC
  5
11CC1
  8
0
 10
4267.2702747472449119
 20
227.8531076541788991
 30
0.0
 40
0.0686637678620712
 50
33.196712949802162
 51
83.6478283352559231
  0
ARC
  5
11CC2
  8
0
 10
4267.2668093004485854
 20
227.8488601711856063
 30
0.0
 40
0.0733289311646425
 50
81.3232652799476341
 51
114.7934788883528938
  0
ARC
  5
11CC3
  8
0
 10
4267.248865363430923
 20
227.8984108955415024
 30
0.0
 40
0.0212992048301814
 50
126.9605269578368052
 51
205.0698460810820052
  0
ARC
  5
11CC4
  8
0
 10
4267.2772458222243586
 20
227.9070759890809938
 30
0.0
 40
0.0508494150872117
 50
200.3583708505917116
 51
224.6341596314204025
  0
ARC
  5
11CC5
  8
0
 10
4267.2772420228948249
 20
227.8732875602862009
 30
0.0
 40
0.0233240017534245
 50
220.9417126139130119
 51
303.74285356984592
  0
ARC
  5
11CC6
  8
0
 10
4267.2859973389668085
 20
227.8601807651185993
 30
0.0
 40
0.0075619067444839
 50
303.7428535698467726
 51
43.7040611168761686
  0
ARC
  5
11CC7
  8
0
 10
4267.2747685291778907
 20
227.8494487585892045
 30
0.0
 40
0.0230945218957135
 50
43.7040611168761686
 51
130.6559024886257987
  0
ARC
  5
11CC8
  8
0
 10
4267.26595637241644
 20
227.8624172967165862
 30
0.0
 40
0.0077191262072953
 50
143.8658513106304895
 51
214.8753576709115976
  0
LINE
  5
11CC9
  8
0
 10
4267.2424100227190138
 20
227.8616203838589058
 30
0.0
 11
4267.235060389046339
 21
227.9146305998731918
 31
0.0
  0
LINE
  5
11CCA
  8
0
 10
4267.3074721435696119
 20
227.8521830315058025
 30
0.0
 11
4267.3242436017690125
 21
227.8955585170481015
 31
0.0
  0
ARC
  5
11CCB
  8
0
 10
4267.3001234783723703
 20
227.8969362230594129
 30
0.0
 40
0.0308826907968024
 50
296.981448200852185
 51
340.5999440957060074
  0
ARC
  5
11CCC
  8
0
 10
4267.2747553721801523
 20
227.919257958440312
 30
0.0
 40
0.0483011988544906
 50
197.177580754522495
 51
222.0821373230062079
  0
ARC
  5
11CCD
  8
0
 10
4267.1553672828213166
 20
227.8175839784400125
 30
0.0
 40
0.0253685297760163
 50
184.196639494453791
 51
243.5448456532409978
  0
ARC
  5
11CCE
  8
0
 10
4267.1704734733302757
 20
227.8384000668251019
 30
0.0
 40
0.0509123585996696
 50
238.7554897197616128
 51
284.6764080651988138
  0
ARC
  5
11CCF
  8
0
 10
4267.1766140223799084
 20
227.8119421087282888
 30
0.0
 40
0.0237741520347882
 50
286.5159966656864867
 51
330.7733536454467185
  0
ARC
  5
11CD0
  8
0
 10
4267.166887685313668
 20
227.8218451542595915
 30
0.0
 40
0.0237073257377576
 50
219.5256683677675937
 51
298.4819067568918172
  0
ARC
  5
11CD1
  8
0
 10
4267.1745428743834054
 20
227.8077354261847915
 30
0.0
 40
0.0076547139242154
 50
298.4819067568910214
 51
34.2353015482685734
  0
ARC
  5
11CD2
  8
0
 10
4267.1615599084352652
 20
227.7989005131069007
 30
0.0
 40
0.0233586336223295
 50
34.2353015482685734
 51
117.5884353672940961
  0
ARC
  5
11CD3
  8
0
 10
4267.1545205749707748
 20
227.8123721381597022
 30
0.0
 40
0.008158735688514
 50
117.5884353672940961
 51
223.4882691847836043
  0
ARC
  5
11CD4
  8
0
 10
4267.1956793169902085
 20
227.8249191758374934
 30
0.0
 40
0.0284727300035069
 50
267.9485342210253975
 51
316.9904520744585739
  0
ARC
  5
11CD5
  8
0
 10
4267.2006008376101818
 20
227.8203282500616922
 30
0.0
 40
0.0217423537368783
 50
316.9904520744585739
 51
26.8111405993805185
  0
ARC
  5
11CD6
  8
0
 10
4267.1434781470034068
 20
227.7914595603442081
 30
0.0
 40
0.0857455023164084
 50
26.8111405993805185
 51
70.0614763610311826
  0
ARC
  5
11CD7
  8
0
 10
4267.1314977747069861
 20
227.7747571250041005
 30
0.0
 40
0.1056789324738485
 50
67.0420812999855968
 51
88.0956869525463162
  0
ARC
  5
11CD8
  8
0
 10
4267.1335221803428794
 20
227.8631124648343871
 30
0.0
 40
0.0173291749622021
 50
85.0762918915019242
 51
171.0230691010017949
  0
ARC
  5
11CD9
  8
0
 10
4267.1706771750023108
 20
227.8688034678756935
 30
0.0
 40
0.0543540462345484
 50
183.1502637190631049
 51
220.9990462654355099
  0
ARC
  5
11CDA
  8
0
 10
4267.1868244675670212
 20
227.8925727954973866
 30
0.0
 40
0.0728973003692405
 50
198.1593239243931066
 51
217.9084884319188973
  0
ARC
  5
11CDB
  8
0
 10
4267.1976075425218369
 20
227.8385892836278117
 30
0.0
 40
0.025037215803664
 50
286.3917982598474055
 51
336.905106668221606
  0
LINE
  5
11CDC
  8
0
 10
4267.1973616082632361
 20
227.8003340087556978
 30
0.0
 11
4267.2161650785574238
 21
227.836944735390091
 31
0.0
  0
LINE
  5
11CDD
  8
0
 10
4267.1300667718824116
 20
227.8157275169749028
 30
0.0
 11
4267.1285542428076951
 21
227.879714268998498
 31
0.0
  0
ARC
  5
11CDE
  8
0
 10
4267.2782730663657276
 20
228.0275896673466889
 30
0.0
 40
0.0402406145436199
 50
206.9736638053990987
 51
316.5197919619113236
  0
ARC
  5
11CDF
  8
0
 10
4267.2964448860675475
 20
228.0345015145570926
 30
0.0
 40
0.0363162402493638
 50
287.6766835075025028
 51
320.1456569983275813
  0
ARC
  5
11CE0
  8
0
 10
4267.3048592953673506
 20
228.0274773615601873
 30
0.0
 40
0.0253553548300559
 50
320.145656998328775
 51
25.5648562653298086
  0
ARC
  5
11CE1
  8
0
 10
4267.2702747472449119
 20
228.000824563598087
 30
0.0
 40
0.0686637678620712
 50
33.196712949802162
 51
83.6478283352559231
  0
ARC
  5
11CE2
  8
0
 10
4267.2668093004485854
 20
227.9965770806047942
 30
0.0
 40
0.0733289311646425
 50
81.3232652799476341
 51
114.7934788883528938
  0
ARC
  5
11CE3
  8
0
 10
4267.248865363430923
 20
228.0461278049606904
 30
0.0
 40
0.0212992048301814
 50
126.9605269578368052
 51
205.0698460810820052
  0
ARC
  5
11CE4
  8
0
 10
4267.2772458222243586
 20
228.0547928985000965
 30
0.0
 40
0.0508494150872117
 50
200.3583708505917116
 51
224.6341596314204025
  0
ARC
  5
11CE5
  8
0
 10
4267.2772420228948249
 20
228.0210044697053888
 30
0.0
 40
0.0233240017534245
 50
220.9417126139130119
 51
303.74285356984592
  0
ARC
  5
11CE6
  8
0
 10
4267.2859973389668085
 20
228.0078976745377872
 30
0.0
 40
0.0075619067444839
 50
303.7428535698467726
 51
43.7040611168761686
  0
ARC
  5
11CE7
  8
0
 10
4267.2747685291778907
 20
227.9971656680083925
 30
0.0
 40
0.0230945218957135
 50
43.7040611168761686
 51
130.6559024886257987
  0
ARC
  5
11CE8
  8
0
 10
4267.26595637241644
 20
228.0101342061358025
 30
0.0
 40
0.0077191262072953
 50
143.8658513106304895
 51
214.8753576709115976
  0
LINE
  5
11CE9
  8
0
 10
4267.2424100227190138
 20
228.0093372932780937
 30
0.0
 11
4267.235060389046339
 21
228.0623475092922945
 31
0.0
  0
LINE
  5
11CEA
  8
0
 10
4267.3074721435696119
 20
227.9998999409249052
 30
0.0
 11
4267.3242436017690125
 21
228.0432754264672042
 31
0.0
  0
ARC
  5
11CEB
  8
0
 10
4267.3001234783723703
 20
228.0446531324786008
 30
0.0
 40
0.0308826907968024
 50
296.981448200852185
 51
340.5999440957060074
  0
ARC
  5
11CEC
  8
0
 10
4267.2747553721801523
 20
228.0669748678593862
 30
0.0
 40
0.0483011988544906
 50
197.177580754522495
 51
222.0821373230062079
  0
ARC
  5
11CED
  8
0
 10
4267.1553672828213166
 20
227.9653008878592004
 30
0.0
 40
0.0253685297760163
 50
184.196639494453791
 51
243.5448456532409978
  0
ARC
  5
11CEE
  8
0
 10
4267.1704734733302757
 20
227.9861169762442898
 30
0.0
 40
0.0509123585996696
 50
238.7554897197616128
 51
284.6764080651988138
  0
ARC
  5
11CEF
  8
0
 10
4267.1766140223799084
 20
227.9596590181475051
 30
0.0
 40
0.0237741520347882
 50
286.5159966656864867
 51
330.7733536454467185
  0
ARC
  5
11CF0
  8
0
 10
4267.166887685313668
 20
227.9695620636788078
 30
0.0
 40
0.0237073257377576
 50
219.5256683677675937
 51
298.4819067568918172
  0
ARC
  5
11CF1
  8
0
 10
4267.1745428743834054
 20
227.9554523356040079
 30
0.0
 40
0.0076547139242154
 50
298.4819067568910214
 51
34.2353015482685734
  0
ARC
  5
11CF2
  8
0
 10
4267.1615599084352652
 20
227.9466174225260886
 30
0.0
 40
0.0233586336223295
 50
34.2353015482685734
 51
117.5884353672940961
  0
ARC
  5
11CF3
  8
0
 10
4267.1545205749707748
 20
227.9600890475788901
 30
0.0
 40
0.008158735688514
 50
117.5884353672940961
 51
223.4882691847836043
  0
ARC
  5
11CF4
  8
0
 10
4267.1956793169902085
 20
227.9726360852567097
 30
0.0
 40
0.0284727300035069
 50
267.9485342210253975
 51
316.9904520744585739
  0
ARC
  5
11CF5
  8
0
 10
4267.2006008376101818
 20
227.9680451594809085
 30
0.0
 40
0.0217423537368783
 50
316.9904520744585739
 51
26.8111405993805185
  0
ARC
  5
11CF6
  8
0
 10
4267.1434781470034068
 20
227.939176469763396
 30
0.0
 40
0.0857455023164084
 50
26.8111405993805185
 51
70.0614763610311826
  0
ARC
  5
11CF7
  8
0
 10
4267.1314977747069861
 20
227.9224740344232885
 30
0.0
 40
0.1056789324738485
 50
67.0420812999855968
 51
88.0956869525463162
  0
ARC
  5
11CF8
  8
0
 10
4267.1335221803428794
 20
228.0108293742536034
 30
0.0
 40
0.0173291749622021
 50
85.0762918915019242
 51
171.0230691010017949
  0
ARC
  5
11CF9
  8
0
 10
4267.1706771750023108
 20
228.0165203772947962
 30
0.0
 40
0.0543540462345484
 50
183.1502637190631049
 51
220.9990462654355099
  0
ARC
  5
11CFA
  8
0
 10
4267.1868244675670212
 20
228.0402897049166029
 30
0.0
 40
0.0728973003692405
 50
198.1593239243931066
 51
217.9084884319188973
  0
ARC
  5
11CFB
  8
0
 10
4267.1976075425218369
 20
227.9863061930469996
 30
0.0
 40
0.025037215803664
 50
286.3917982598474055
 51
336.905106668221606
  0
LINE
  5
11CFC
  8
0
 10
4267.1973616082632361
 20
227.9480509181749142
 30
0.0
 11
4267.2161650785574238
 21
227.9846616448093073
 31
0.0
  0
LINE
  5
11CFD
  8
0
 10
4267.1300667718824116
 20
227.9634444263940907
 30
0.0
 11
4267.1285542428076951
 21
228.0274311784176859
 31
0.0
  0
ARC
  5
11CFE
  8
0
 10
4267.3622158726975613
 20
227.5311788270653039
 30
0.0
 40
0.0301078552346027
 50
145.7412256043695038
 51
233.7364664281913065
  0
ARC
  5
11CFF
  8
0
 10
4267.3834144665779604
 20
227.4920386775546035
 30
0.0
 40
0.0725918936096385
 50
50.600350245310409
 51
129.4066939358961008
  0
ARC
  5
11D00
  8
0
 10
4267.4046198260493838
 20
227.5311893207372975
 30
0.0
 40
0.0300938458906948
 50
306.257989451688502
 51
34.2658185768544499
  0
LINE
  5
11D01
  8
0
 10
4267.4294977209738136
 20
227.5481224215943996
 30
0.0
 11
4267.4219604997479109
 21
227.5042604645578024
 31
0.0
  0
LINE
  5
11D02
  8
0
 10
4267.3373316234556114
 20
227.5481274873785082
 30
0.0
 11
4267.3451481576421429
 21
227.5025848194017044
 31
0.0
  0
ARC
  5
11D03
  8
0
 10
4267.3723722526492566
 20
227.5064528814972107
 30
0.0
 40
0.0274975135837784
 50
188.0865904483561906
 51
245.4952479960197991
  0
ARC
  5
11D04
  8
0
 10
4267.3828297136806214
 20
227.5293946429086986
 30
0.0
 40
0.0527102664657915
 50
245.4952479960197991
 51
304.0243467469575194
  0
ARC
  5
11D05
  8
0
 10
4267.400075915547859
 20
227.5038495186792034
 30
0.0
 40
0.0218884422048158
 50
304.0243467469566099
 51
1.075766273375963
  0
ARC
  5
11D06
  8
0
 10
4267.3835741338452863
 20
227.5071497177031858
 30
0.0
 40
0.019905673470146
 50
229.9318878468089054
 51
303.5657576976340124
  0
ARC
  5
11D07
  8
0
 10
4267.3906487345566347
 20
227.4964877688915976
 30
0.0
 40
0.0071100833039566
 50
303.5657576976340124
 51
41.4767659004503173
  0
ARC
  5
11D08
  8
0
 10
4267.3836043899036667
 20
227.4868247240787014
 30
0.0
 40
0.0189634011038479
 50
49.2785211073383422
 51
136.6121064793881033
  0
ARC
  5
11D09
  8
0
 10
4267.3746815190388588
 20
227.4964024626490016
 30
0.0
 40
0.0059579248952131
 50
144.6288741363873953
 51
228.8485328626626085
  0
ARC
  5
11D0A
  8
0
 10
4267.3622158726975613
 20
227.6719342220592068
 30
0.0
 40
0.0301078552346027
 50
145.7412256043695038
 51
233.7364664281913065
  0
ARC
  5
11D0B
  8
0
 10
4267.3834144665779604
 20
227.6327940725483927
 30
0.0
 40
0.0725918936096385
 50
50.600350245310409
 51
129.4066939358961008
  0
ARC
  5
11D0C
  8
0
 10
4267.4046198260493838
 20
227.6719447157310867
 30
0.0
 40
0.0300938458906948
 50
306.257989451688502
 51
34.2658185768544499
  0
LINE
  5
11D0D
  8
0
 10
4267.4294977209738136
 20
227.6888778165881035
 30
0.0
 11
4267.4219604997479109
 21
227.6450158595515063
 31
0.0
  0
LINE
  5
11D0E
  8
0
 10
4267.3373316234556114
 20
227.6888828823722974
 30
0.0
 11
4267.3451481576421429
 21
227.6433402143954936
 31
0.0
  0
ARC
  5
11D0F
  8
0
 10
4267.3723722526492566
 20
227.6472082764909999
 30
0.0
 40
0.0274975135837784
 50
188.0865904483561906
 51
245.4952479960197991
  0
ARC
  5
11D10
  8
0
 10
4267.3828297136806214
 20
227.6701500379026015
 30
0.0
 40
0.0527102664657915
 50
245.4952479960197991
 51
304.0243467469575194
  0
ARC
  5
11D11
  8
0
 10
4267.400075915547859
 20
227.6446049136731062
 30
0.0
 40
0.0218884422048158
 50
304.0243467469566099
 51
1.075766273375963
  0
ARC
  5
11D12
  8
0
 10
4267.3835741338452863
 20
227.6479051126970035
 30
0.0
 40
0.019905673470146
 50
229.9318878468089054
 51
303.5657576976340124
  0
ARC
  5
11D13
  8
0
 10
4267.3906487345566347
 20
227.6372431638853868
 30
0.0
 40
0.0071100833039566
 50
303.5657576976340124
 51
41.4767659004503173
  0
ARC
  5
11D14
  8
0
 10
4267.3836043899036667
 20
227.6275801190724906
 30
0.0
 40
0.0189634011038479
 50
49.2785211073383422
 51
136.6121064793881033
  0
ARC
  5
11D15
  8
0
 10
4267.3746815190388588
 20
227.6371578576427908
 30
0.0
 40
0.0059579248952131
 50
144.6288741363873953
 51
228.8485328626626085
  0
ARC
  5
11D16
  8
0
 10
4267.3622158726975613
 20
227.8147982711039958
 30
0.0
 40
0.0301078552346027
 50
145.7412256043695038
 51
233.7364664281913065
  0
ARC
  5
11D17
  8
0
 10
4267.3834144665779604
 20
227.7756581215932101
 30
0.0
 40
0.0725918936096385
 50
50.600350245310409
 51
129.4066939358961008
  0
ARC
  5
11D18
  8
0
 10
4267.4046198260493838
 20
227.8148087647759894
 30
0.0
 40
0.0300938458906948
 50
306.257989451688502
 51
34.2658185768544499
  0
LINE
  5
11D19
  8
0
 10
4267.4294977209738136
 20
227.8317418656330062
 30
0.0
 11
4267.4219604997479109
 21
227.787879908596409
 31
0.0
  0
LINE
  5
11D1A
  8
0
 10
4267.3373316234556114
 20
227.8317469314170864
 30
0.0
 11
4267.3451481576421429
 21
227.786204263440311
 31
0.0
  0
ARC
  5
11D1B
  8
0
 10
4267.3723722526492566
 20
227.7900723255357889
 30
0.0
 40
0.0274975135837784
 50
188.0865904483561906
 51
245.4952479960197991
  0
ARC
  5
11D1C
  8
0
 10
4267.3828297136806214
 20
227.8130140869473905
 30
0.0
 40
0.0527102664657915
 50
245.4952479960197991
 51
304.0243467469575194
  0
ARC
  5
11D1D
  8
0
 10
4267.400075915547859
 20
227.7874689627178952
 30
0.0
 40
0.0218884422048158
 50
304.0243467469566099
 51
1.075766273375963
  0
ARC
  5
11D1E
  8
0
 10
4267.3835741338452863
 20
227.7907691617417925
 30
0.0
 40
0.019905673470146
 50
229.9318878468089054
 51
303.5657576976340124
  0
ARC
  5
11D1F
  8
0
 10
4267.3906487345566347
 20
227.7801072129302042
 30
0.0
 40
0.0071100833039566
 50
303.5657576976340124
 51
41.4767659004503173
  0
ARC
  5
11D20
  8
0
 10
4267.3836043899036667
 20
227.770444168117308
 30
0.0
 40
0.0189634011038479
 50
49.2785211073383422
 51
136.6121064793881033
  0
ARC
  5
11D21
  8
0
 10
4267.3746815190388588
 20
227.7800219066876082
 30
0.0
 40
0.0059579248952131
 50
144.6288741363873953
 51
228.8485328626626085
  0
ARC
  5
11D22
  8
0
 10
4267.3622158726975613
 20
227.9551974533993075
 30
0.0
 40
0.0301078552346027
 50
145.7412256043695038
 51
233.7364664281913065
  0
ARC
  5
11D23
  8
0
 10
4267.3834144665779604
 20
227.9160573038884934
 30
0.0
 40
0.0725918936096385
 50
50.600350245310409
 51
129.4066939358961008
  0
ARC
  5
11D24
  8
0
 10
4267.4046198260493838
 20
227.9552079470711874
 30
0.0
 40
0.0300938458906948
 50
306.257989451688502
 51
34.2658185768544499
  0
LINE
  5
11D25
  8
0
 10
4267.4294977209738136
 20
227.9721410479282895
 30
0.0
 11
4267.4219604997479109
 21
227.9282790908916922
 31
0.0
  0
LINE
  5
11D26
  8
0
 10
4267.3373316234556114
 20
227.9721461137123981
 30
0.0
 11
4267.3451481576421429
 21
227.9266034457355943
 31
0.0
  0
ARC
  5
11D27
  8
0
 10
4267.3723722526492566
 20
227.9304715078311006
 30
0.0
 40
0.0274975135837784
 50
188.0865904483561906
 51
245.4952479960197991
  0
ARC
  5
11D28
  8
0
 10
4267.3828297136806214
 20
227.9534132692427022
 30
0.0
 40
0.0527102664657915
 50
245.4952479960197991
 51
304.0243467469575194
  0
ARC
  5
11D29
  8
0
 10
4267.400075915547859
 20
227.9278681450132069
 30
0.0
 40
0.0218884422048158
 50
304.0243467469566099
 51
1.075766273375963
  0
ARC
  5
11D2A
  8
0
 10
4267.3835741338452863
 20
227.9311683440371041
 30
0.0
 40
0.019905673470146
 50
229.9318878468089054
 51
303.5657576976340124
  0
ARC
  5
11D2B
  8
0
 10
4267.3906487345566347
 20
227.9205063952254875
 30
0.0
 40
0.0071100833039566
 50
303.5657576976340124
 51
41.4767659004503173
  0
ARC
  5
11D2C
  8
0
 10
4267.3836043899036667
 20
227.9108433504125912
 30
0.0
 40
0.0189634011038479
 50
49.2785211073383422
 51
136.6121064793881033
  0
ARC
  5
11D2D
  8
0
 10
4267.3746815190388588
 20
227.9204210889828914
 30
0.0
 40
0.0059579248952131
 50
144.6288741363873953
 51
228.8485328626626085
  0
ARC
  5
11D2E
  8
0
 10
4267.2782730663657276
 20
228.1636956068462041
 30
0.0
 40
0.0402406145436199
 50
206.9736638053990987
 51
316.5197919619113236
  0
ARC
  5
11D2F
  8
0
 10
4267.2964448860675475
 20
228.1706074540566931
 30
0.0
 40
0.0363162402493638
 50
287.6766835075025028
 51
320.1456569983275813
  0
ARC
  5
11D30
  8
0
 10
4267.3048592953673506
 20
228.1635833010597025
 30
0.0
 40
0.0253553548300559
 50
320.145656998328775
 51
25.5648562653298086
  0
ARC
  5
11D31
  8
0
 10
4267.2702747472449119
 20
228.1369305030976022
 30
0.0
 40
0.0686637678620712
 50
33.196712949802162
 51
83.6478283352559231
  0
ARC
  5
11D32
  8
0
 10
4267.2668093004485854
 20
228.1326830201043094
 30
0.0
 40
0.0733289311646425
 50
81.3232652799476341
 51
114.7934788883528938
  0
ARC
  5
11D33
  8
0
 10
4267.248865363430923
 20
228.1822337444602056
 30
0.0
 40
0.0212992048301814
 50
126.9605269578368052
 51
205.0698460810820052
  0
ARC
  5
11D34
  8
0
 10
4267.2772458222243586
 20
228.190898837999697
 30
0.0
 40
0.0508494150872117
 50
200.3583708505917116
 51
224.6341596314204025
  0
ARC
  5
11D35
  8
0
 10
4267.2772420228948249
 20
228.1571104092049893
 30
0.0
 40
0.0233240017534245
 50
220.9417126139130119
 51
303.74285356984592
  0
ARC
  5
11D36
  8
0
 10
4267.2859973389668085
 20
228.1440036140373024
 30
0.0
 40
0.0075619067444839
 50
303.7428535698467726
 51
43.7040611168761686
  0
ARC
  5
11D37
  8
0
 10
4267.2747685291778907
 20
228.1332716075079077
 30
0.0
 40
0.0230945218957135
 50
43.7040611168761686
 51
130.6559024886257987
  0
ARC
  5
11D38
  8
0
 10
4267.26595637241644
 20
228.1462401456352893
 30
0.0
 40
0.0077191262072953
 50
143.8658513106304895
 51
214.8753576709115976
  0
LINE
  5
11D39
  8
0
 10
4267.2424100227190138
 20
228.145443232777609
 30
0.0
 11
4267.235060389046339
 21
228.198453448791895
 31
0.0
  0
LINE
  5
11D3A
  8
0
 10
4267.3074721435696119
 20
228.1360058804245057
 30
0.0
 11
4267.3242436017690125
 21
228.1793813659668047
 31
0.0
  0
ARC
  5
11D3B
  8
0
 10
4267.3001234783723703
 20
228.1807590719782013
 30
0.0
 40
0.0308826907968024
 50
296.981448200852185
 51
340.5999440957060074
  0
ARC
  5
11D3C
  8
0
 10
4267.2747553721801523
 20
228.2030808073589867
 30
0.0
 40
0.0483011988544906
 50
197.177580754522495
 51
222.0821373230062079
  0
ARC
  5
11D3D
  8
0
 10
4267.1553672828213166
 20
228.1014068273586872
 30
0.0
 40
0.0253685297760163
 50
184.196639494453791
 51
243.5448456532409978
  0
ARC
  5
11D3E
  8
0
 10
4267.1704734733302757
 20
228.1222229157438051
 30
0.0
 40
0.0509123585996696
 50
238.7554897197616128
 51
284.6764080651988138
  0
ARC
  5
11D3F
  8
0
 10
4267.1766140223799084
 20
228.0957649576469919
 30
0.0
 40
0.0237741520347882
 50
286.5159966656864867
 51
330.7733536454467185
  0
ARC
  5
11D40
  8
0
 10
4267.166887685313668
 20
228.1056680031782946
 30
0.0
 40
0.0237073257377576
 50
219.5256683677675937
 51
298.4819067568918172
  0
ARC
  5
11D41
  8
0
 10
4267.1745428743834054
 20
228.0915582751036084
 30
0.0
 40
0.0076547139242154
 50
298.4819067568910214
 51
34.2353015482685734
  0
ARC
  5
11D42
  8
0
 10
4267.1615599084352652
 20
228.0827233620256038
 30
0.0
 40
0.0233586336223295
 50
34.2353015482685734
 51
117.5884353672940961
  0
ARC
  5
11D43
  8
0
 10
4267.1545205749707748
 20
228.0961949870784053
 30
0.0
 40
0.008158735688514
 50
117.5884353672940961
 51
223.4882691847836043
  0
ARC
  5
11D44
  8
0
 10
4267.1956793169902085
 20
228.1087420247561965
 30
0.0
 40
0.0284727300035069
 50
267.9485342210253975
 51
316.9904520744585739
  0
ARC
  5
11D45
  8
0
 10
4267.2006008376101818
 20
228.1041510989803953
 30
0.0
 40
0.0217423537368783
 50
316.9904520744585739
 51
26.8111405993805185
  0
ARC
  5
11D46
  8
0
 10
4267.1434781470034068
 20
228.0752824092629112
 30
0.0
 40
0.0857455023164084
 50
26.8111405993805185
 51
70.0614763610311826
  0
ARC
  5
11D47
  8
0
 10
4267.1314977747069861
 20
228.0585799739228037
 30
0.0
 40
0.1056789324738485
 50
67.0420812999855968
 51
88.0956869525463162
  0
ARC
  5
11D48
  8
0
 10
4267.1335221803428794
 20
228.1469353137530902
 30
0.0
 40
0.0173291749622021
 50
85.0762918915019242
 51
171.0230691010017949
  0
ARC
  5
11D49
  8
0
 10
4267.1706771750023108
 20
228.1526263167943114
 30
0.0
 40
0.0543540462345484
 50
183.1502637190631049
 51
220.9990462654355099
  0
ARC
  5
11D4A
  8
0
 10
4267.1868244675670212
 20
228.1763956444160897
 30
0.0
 40
0.0728973003692405
 50
198.1593239243931066
 51
217.9084884319188973
  0
ARC
  5
11D4B
  8
0
 10
4267.1976075425218369
 20
228.1224121325464864
 30
0.0
 40
0.025037215803664
 50
286.3917982598474055
 51
336.905106668221606
  0
LINE
  5
11D4C
  8
0
 10
4267.1973616082632361
 20
228.084156857674401
 30
0.0
 11
4267.2161650785574238
 21
228.1207675843087941
 31
0.0
  0
LINE
  5
11D4D
  8
0
 10
4267.1300667718824116
 20
228.0995503658936059
 30
0.0
 11
4267.1285542428076951
 21
228.1635371179172012
 31
0.0
  0
ARC
  5
11D4E
  8
0
 10
4267.3622158726975613
 20
228.0913033928987943
 30
0.0
 40
0.0301078552346027
 50
145.7412256043695038
 51
233.7364664281913065
  0
ARC
  5
11D4F
  8
0
 10
4267.3834144665779604
 20
228.0521632433880939
 30
0.0
 40
0.0725918936096385
 50
50.600350245310409
 51
129.4066939358961008
  0
ARC
  5
11D50
  8
0
 10
4267.4046198260493838
 20
228.0913138865707879
 30
0.0
 40
0.0300938458906948
 50
306.257989451688502
 51
34.2658185768544499
  0
LINE
  5
11D51
  8
0
 10
4267.4294977209738136
 20
228.1082469874278047
 30
0.0
 11
4267.4219604997479109
 21
228.0643850303912075
 31
0.0
  0
LINE
  5
11D52
  8
0
 10
4267.3373316234556114
 20
228.1082520532119986
 30
0.0
 11
4267.3451481576421429
 21
228.0627093852351948
 31
0.0
  0
ARC
  5
11D53
  8
0
 10
4267.3723722526492566
 20
228.0665774473305873
 30
0.0
 40
0.0274975135837784
 50
188.0865904483561906
 51
245.4952479960197991
  0
ARC
  5
11D54
  8
0
 10
4267.3828297136806214
 20
228.089519208742189
 30
0.0
 40
0.0527102664657915
 50
245.4952479960197991
 51
304.0243467469575194
  0
ARC
  5
11D55
  8
0
 10
4267.400075915547859
 20
228.0639740845126937
 30
0.0
 40
0.0218884422048158
 50
304.0243467469566099
 51
1.075766273375963
  0
ARC
  5
11D56
  8
0
 10
4267.3835741338452863
 20
228.0672742835365909
 30
0.0
 40
0.019905673470146
 50
229.9318878468089054
 51
303.5657576976340124
  0
ARC
  5
11D57
  8
0
 10
4267.3906487345566347
 20
228.0566123347250027
 30
0.0
 40
0.0071100833039566
 50
303.5657576976340124
 51
41.4767659004503173
  0
ARC
  5
11D58
  8
0
 10
4267.3836043899036667
 20
228.0469492899121917
 30
0.0
 40
0.0189634011038479
 50
49.2785211073383422
 51
136.6121064793881033
  0
ARC
  5
11D59
  8
0
 10
4267.3746815190388588
 20
228.0565270284824066
 30
0.0
 40
0.0059579248952131
 50
144.6288741363873953
 51
228.8485328626626085
  0
ARC
  5
11D5A
  8
0
 10
4267.2782730663657276
 20
228.3061404119225131
 30
0.0
 40
0.0402406145436199
 50
206.9736638053990987
 51
316.5197919619113236
  0
ARC
  5
11D5B
  8
0
 10
4267.2964448860675475
 20
228.3130522591328884
 30
0.0
 40
0.0363162402493638
 50
287.6766835075025028
 51
320.1456569983275813
  0
ARC
  5
11D5C
  8
0
 10
4267.3048592953673506
 20
228.3060281061360115
 30
0.0
 40
0.0253553548300559
 50
320.145656998328775
 51
25.5648562653298086
  0
ARC
  5
11D5D
  8
0
 10
4267.2702747472449119
 20
228.2793753081739112
 30
0.0
 40
0.0686637678620712
 50
33.196712949802162
 51
83.6478283352559231
  0
ARC
  5
11D5E
  8
0
 10
4267.2668093004485854
 20
228.27512782518059
 30
0.0
 40
0.0733289311646425
 50
81.3232652799476341
 51
114.7934788883528938
  0
ARC
  5
11D5F
  8
0
 10
4267.248865363430923
 20
228.3246785495364009
 30
0.0
 40
0.0212992048301814
 50
126.9605269578368052
 51
205.0698460810820052
  0
ARC
  5
11D60
  8
0
 10
4267.2772458222243586
 20
228.3333436430758923
 30
0.0
 40
0.0508494150872117
 50
200.3583708505917116
 51
224.6341596314204025
  0
ARC
  5
11D61
  8
0
 10
4267.2772420228948249
 20
228.299555214281213
 30
0.0
 40
0.0233240017534245
 50
220.9417126139130119
 51
303.74285356984592
  0
ARC
  5
11D62
  8
0
 10
4267.2859973389668085
 20
228.2864484191136114
 30
0.0
 40
0.0075619067444839
 50
303.7428535698467726
 51
43.7040611168761686
  0
ARC
  5
11D63
  8
0
 10
4267.2747685291778907
 20
228.2757164125841882
 30
0.0
 40
0.0230945218957135
 50
43.7040611168761686
 51
130.6559024886257987
  0
ARC
  5
11D64
  8
0
 10
4267.26595637241644
 20
228.2886849507115983
 30
0.0
 40
0.0077191262072953
 50
143.8658513106304895
 51
214.8753576709115976
  0
LINE
  5
11D65
  8
0
 10
4267.2424100227190138
 20
228.2878880378538895
 30
0.0
 11
4267.235060389046339
 21
228.3408982538682039
 31
0.0
  0
LINE
  5
11D66
  8
0
 10
4267.3074721435696119
 20
228.278450685500701
 30
0.0
 11
4267.3242436017690125
 21
228.3218261710429999
 31
0.0
  0
ARC
  5
11D67
  8
0
 10
4267.3001234783723703
 20
228.3232038770543966
 30
0.0
 40
0.0308826907968024
 50
296.981448200852185
 51
340.5999440957060074
  0
ARC
  5
11D68
  8
0
 10
4267.2747553721801523
 20
228.3455256124352104
 30
0.0
 40
0.0483011988544906
 50
197.177580754522495
 51
222.0821373230062079
  0
ARC
  5
11D69
  8
0
 10
4267.1553672828213166
 20
228.2438516324349962
 30
0.0
 40
0.0253685297760163
 50
184.196639494453791
 51
243.5448456532409978
  0
ARC
  5
11D6A
  8
0
 10
4267.1704734733302757
 20
228.264667720820114
 30
0.0
 40
0.0509123585996696
 50
238.7554897197616128
 51
284.6764080651988138
  0
ARC
  5
11D6B
  8
0
 10
4267.1766140223799084
 20
228.2382097627233009
 30
0.0
 40
0.0237741520347882
 50
286.5159966656864867
 51
330.7733536454467185
  0
ARC
  5
11D6C
  8
0
 10
4267.166887685313668
 20
228.2481128082546036
 30
0.0
 40
0.0237073257377576
 50
219.5256683677675937
 51
298.4819067568918172
  0
ARC
  5
11D6D
  8
0
 10
4267.1745428743834054
 20
228.2340030801798036
 30
0.0
 40
0.0076547139242154
 50
298.4819067568910214
 51
34.2353015482685734
  0
ARC
  5
11D6E
  8
0
 10
4267.1615599084352652
 20
228.2251681671019128
 30
0.0
 40
0.0233586336223295
 50
34.2353015482685734
 51
117.5884353672940961
  0
ARC
  5
11D6F
  8
0
 10
4267.1545205749707748
 20
228.2386397921546859
 30
0.0
 40
0.008158735688514
 50
117.5884353672940961
 51
223.4882691847836043
  0
ARC
  5
11D70
  8
0
 10
4267.1956793169902085
 20
228.2511868298325055
 30
0.0
 40
0.0284727300035069
 50
267.9485342210253975
 51
316.9904520744585739
  0
ARC
  5
11D71
  8
0
 10
4267.2006008376101818
 20
228.2465959040567043
 30
0.0
 40
0.0217423537368783
 50
316.9904520744585739
 51
26.8111405993805185
  0
ARC
  5
11D72
  8
0
 10
4267.1434781470034068
 20
228.2177272143391917
 30
0.0
 40
0.0857455023164084
 50
26.8111405993805185
 51
70.0614763610311826
  0
ARC
  5
11D73
  8
0
 10
4267.1314977747069861
 20
228.201024778998999
 30
0.0
 40
0.1056789324738485
 50
67.0420812999855968
 51
88.0956869525463162
  0
ARC
  5
11D74
  8
0
 10
4267.1335221803428794
 20
228.2893801188293139
 30
0.0
 40
0.0173291749622021
 50
85.0762918915019242
 51
171.0230691010017949
  0
ARC
  5
11D75
  8
0
 10
4267.1706771750023108
 20
228.2950711218705919
 30
0.0
 40
0.0543540462345484
 50
183.1502637190631049
 51
220.9990462654355099
  0
ARC
  5
11D76
  8
0
 10
4267.1868244675670212
 20
228.3188404494923986
 30
0.0
 40
0.0728973003692405
 50
198.1593239243931066
 51
217.9084884319188973
  0
ARC
  5
11D77
  8
0
 10
4267.1976075425218369
 20
228.2648569376227101
 30
0.0
 40
0.025037215803664
 50
286.3917982598474055
 51
336.905106668221606
  0
LINE
  5
11D78
  8
0
 10
4267.1973616082632361
 20
228.2266016627505962
 30
0.0
 11
4267.2161650785574238
 21
228.2632123893851031
 31
0.0
  0
LINE
  5
11D79
  8
0
 10
4267.1300667718824116
 20
228.2419951709698864
 30
0.0
 11
4267.1285542428076951
 21
228.3059819229935101
 31
0.0
  0
ARC
  5
11D7A
  8
0
 10
4267.3622158726975613
 20
228.2337481979751033
 30
0.0
 40
0.0301078552346027
 50
145.7412256043695038
 51
233.7364664281913065
  0
ARC
  5
11D7B
  8
0
 10
4267.3834144665779604
 20
228.1946080484642891
 30
0.0
 40
0.0725918936096385
 50
50.600350245310409
 51
129.4066939358961008
  0
ARC
  5
11D7C
  8
0
 10
4267.4046198260493838
 20
228.2337586916470968
 30
0.0
 40
0.0300938458906948
 50
306.257989451688502
 51
34.2658185768544499
  0
LINE
  5
11D7D
  8
0
 10
4267.4294977209738136
 20
228.2506917925041137
 30
0.0
 11
4267.4219604997479109
 21
228.206829835467488
 31
0.0
  0
LINE
  5
11D7E
  8
0
 10
4267.3373316234556114
 20
228.2506968582881939
 30
0.0
 11
4267.3451481576421429
 21
228.20515419031139
 31
0.0
  0
ARC
  5
11D7F
  8
0
 10
4267.3723722526492566
 20
228.2090222524068963
 30
0.0
 40
0.0274975135837784
 50
188.0865904483561906
 51
245.4952479960197991
  0
ARC
  5
11D80
  8
0
 10
4267.3828297136806214
 20
228.231964013818498
 30
0.0
 40
0.0527102664657915
 50
245.4952479960197991
 51
304.0243467469575194
  0
ARC
  5
11D81
  8
0
 10
4267.400075915547859
 20
228.2064188895890027
 30
0.0
 40
0.0218884422048158
 50
304.0243467469566099
 51
1.075766273375963
  0
ARC
  5
11D82
  8
0
 10
4267.3835741338452863
 20
228.2097190886128999
 30
0.0
 40
0.019905673470146
 50
229.9318878468089054
 51
303.5657576976340124
  0
ARC
  5
11D83
  8
0
 10
4267.3906487345566347
 20
228.1990571398013117
 30
0.0
 40
0.0071100833039566
 50
303.5657576976340124
 51
41.4767659004503173
  0
ARC
  5
11D84
  8
0
 10
4267.3836043899036667
 20
228.189394094988387
 30
0.0
 40
0.0189634011038479
 50
49.2785211073383422
 51
136.6121064793881033
  0
ARC
  5
11D85
  8
0
 10
4267.3746815190388588
 20
228.1989718335586872
 30
0.0
 40
0.0059579248952131
 50
144.6288741363873953
 51
228.8485328626626085
  0
ARC
  5
11D86
  8
0
 10
4267.2782730663657276
 20
228.4486779652447126
 30
0.0
 40
0.0402406145436199
 50
206.9736638053990987
 51
316.5197919619113236
  0
ARC
  5
11D87
  8
0
 10
4267.2964448860675475
 20
228.4555898124552016
 30
0.0
 40
0.0363162402493638
 50
287.6766835075025028
 51
320.1456569983275813
  0
ARC
  5
11D88
  8
0
 10
4267.3048592953673506
 20
228.4485656594582963
 30
0.0
 40
0.0253553548300559
 50
320.145656998328775
 51
25.5648562653298086
  0
ARC
  5
11D89
  8
0
 10
4267.2702747472449119
 20
228.421912861496196
 30
0.0
 40
0.0686637678620712
 50
33.196712949802162
 51
83.6478283352559231
  0
ARC
  5
11D8A
  8
0
 10
4267.2668093004485854
 20
228.4176653785027895
 30
0.0
 40
0.0733289311646425
 50
81.3232652799476341
 51
114.7934788883528938
  0
ARC
  5
11D8B
  8
0
 10
4267.248865363430923
 20
228.4672161028587141
 30
0.0
 40
0.0212992048301814
 50
126.9605269578368052
 51
205.0698460810820052
  0
ARC
  5
11D8C
  8
0
 10
4267.2772458222243586
 20
228.4758811963982055
 30
0.0
 40
0.0508494150872117
 50
200.3583708505917116
 51
224.6341596314204025
  0
ARC
  5
11D8D
  8
0
 10
4267.2772420228948249
 20
228.4420927676034125
 30
0.0
 40
0.0233240017534245
 50
220.9417126139130119
 51
303.74285356984592
  0
ARC
  5
11D8E
  8
0
 10
4267.2859973389668085
 20
228.4289859724358962
 30
0.0
 40
0.0075619067444839
 50
303.7428535698467726
 51
43.7040611168761686
  0
ARC
  5
11D8F
  8
0
 10
4267.2747685291778907
 20
228.4182539659063877
 30
0.0
 40
0.0230945218957135
 50
43.7040611168761686
 51
130.6559024886257987
  0
ARC
  5
11D90
  8
0
 10
4267.26595637241644
 20
228.4312225040337978
 30
0.0
 40
0.0077191262072953
 50
143.8658513106304895
 51
214.8753576709115976
  0
LINE
  5
11D91
  8
0
 10
4267.2424100227190138
 20
228.430425591176089
 30
0.0
 11
4267.235060389046339
 21
228.4834358071904035
 31
0.0
  0
LINE
  5
11D92
  8
0
 10
4267.3074721435696119
 20
228.4209882388230142
 30
0.0
 11
4267.3242436017690125
 21
228.4643637243653131
 31
0.0
  0
ARC
  5
11D93
  8
0
 10
4267.3001234783723703
 20
228.4657414303767098
 30
0.0
 40
0.0308826907968024
 50
296.981448200852185
 51
340.5999440957060074
  0
ARC
  5
11D94
  8
0
 10
4267.2747553721801523
 20
228.4880631657574952
 30
0.0
 40
0.0483011988544906
 50
197.177580754522495
 51
222.0821373230062079
  0
ARC
  5
11D95
  8
0
 10
4267.1553672828213166
 20
228.3863891857571957
 30
0.0
 40
0.0253685297760163
 50
184.196639494453791
 51
243.5448456532409978
  0
ARC
  5
11D96
  8
0
 10
4267.1704734733302757
 20
228.4072052741423136
 30
0.0
 40
0.0509123585996696
 50
238.7554897197616128
 51
284.6764080651988138
  0
ARC
  5
11D97
  8
0
 10
4267.1766140223799084
 20
228.3807473160456141
 30
0.0
 40
0.0237741520347882
 50
286.5159966656864867
 51
330.7733536454467185
  0
ARC
  5
11D98
  8
0
 10
4267.166887685313668
 20
228.3906503615768031
 30
0.0
 40
0.0237073257377576
 50
219.5256683677675937
 51
298.4819067568918172
  0
ARC
  5
11D99
  8
0
 10
4267.1745428743834054
 20
228.3765406335020884
 30
0.0
 40
0.0076547139242154
 50
298.4819067568910214
 51
34.2353015482685734
  0
ARC
  5
11D9A
  8
0
 10
4267.1615599084352652
 20
228.3677057204241123
 30
0.0
 40
0.0233586336223295
 50
34.2353015482685734
 51
117.5884353672940961
  0
ARC
  5
11D9B
  8
0
 10
4267.1545205749707748
 20
228.3811773454769991
 30
0.0
 40
0.008158735688514
 50
117.5884353672940961
 51
223.4882691847836043
  0
ARC
  5
11D9C
  8
0
 10
4267.1956793169902085
 20
228.3937243831547903
 30
0.0
 40
0.0284727300035069
 50
267.9485342210253975
 51
316.9904520744585739
  0
ARC
  5
11D9D
  8
0
 10
4267.2006008376101818
 20
228.3891334573789038
 30
0.0
 40
0.0217423537368783
 50
316.9904520744585739
 51
26.8111405993805185
  0
ARC
  5
11D9E
  8
0
 10
4267.1434781470034068
 20
228.3602647676613913
 30
0.0
 40
0.0857455023164084
 50
26.8111405993805185
 51
70.0614763610311826
  0
ARC
  5
11D9F
  8
0
 10
4267.1314977747069861
 20
228.3435623323213122
 30
0.0
 40
0.1056789324738485
 50
67.0420812999855968
 51
88.0956869525463162
  0
ARC
  5
11DA0
  8
0
 10
4267.1335221803428794
 20
228.4319176721515987
 30
0.0
 40
0.0173291749622021
 50
85.0762918915019242
 51
171.0230691010017949
  0
ARC
  5
11DA1
  8
0
 10
4267.1706771750023108
 20
228.4376086751929051
 30
0.0
 40
0.0543540462345484
 50
183.1502637190631049
 51
220.9990462654355099
  0
ARC
  5
11DA2
  8
0
 10
4267.1868244675670212
 20
228.4613780028145982
 30
0.0
 40
0.0728973003692405
 50
198.1593239243931066
 51
217.9084884319188973
  0
ARC
  5
11DA3
  8
0
 10
4267.1976075425218369
 20
228.4073944909449949
 30
0.0
 40
0.025037215803664
 50
286.3917982598474055
 51
336.905106668221606
  0
LINE
  5
11DA4
  8
0
 10
4267.1973616082632361
 20
228.3691392160729094
 30
0.0
 11
4267.2161650785574238
 21
228.4057499427073026
 31
0.0
  0
LINE
  5
11DA5
  8
0
 10
4267.1300667718824116
 20
228.384532724292086
 30
0.0
 11
4267.1285542428076951
 21
228.4485194763157097
 31
0.0
  0
ARC
  5
11DA6
  8
0
 10
4267.3622158726975613
 20
228.3762857512973028
 30
0.0
 40
0.0301078552346027
 50
145.7412256043695038
 51
233.7364664281913065
  0
ARC
  5
11DA7
  8
0
 10
4267.3834144665779604
 20
228.3371456017866024
 30
0.0
 40
0.0725918936096385
 50
50.600350245310409
 51
129.4066939358961008
  0
ARC
  5
11DA8
  8
0
 10
4267.4046198260493838
 20
228.3762962449692964
 30
0.0
 40
0.0300938458906948
 50
306.257989451688502
 51
34.2658185768544499
  0
LINE
  5
11DA9
  8
0
 10
4267.4294977209738136
 20
228.3932293458263132
 30
0.0
 11
4267.4219604997479109
 21
228.3493673887896875
 31
0.0
  0
LINE
  5
11DAA
  8
0
 10
4267.3373316234556114
 20
228.3932344116105071
 30
0.0
 11
4267.3451481576421429
 21
228.3476917436337033
 31
0.0
  0
ARC
  5
11DAB
  8
0
 10
4267.3723722526492566
 20
228.3515598057290958
 30
0.0
 40
0.0274975135837784
 50
188.0865904483561906
 51
245.4952479960197991
  0
ARC
  5
11DAC
  8
0
 10
4267.3828297136806214
 20
228.3745015671406975
 30
0.0
 40
0.0527102664657915
 50
245.4952479960197991
 51
304.0243467469575194
  0
ARC
  5
11DAD
  8
0
 10
4267.400075915547859
 20
228.3489564429112022
 30
0.0
 40
0.0218884422048158
 50
304.0243467469566099
 51
1.075766273375963
  0
ARC
  5
11DAE
  8
0
 10
4267.3835741338452863
 20
228.3522566419350994
 30
0.0
 40
0.019905673470146
 50
229.9318878468089054
 51
303.5657576976340124
  0
ARC
  5
11DAF
  8
0
 10
4267.3906487345566347
 20
228.3415946931235965
 30
0.0
 40
0.0071100833039566
 50
303.5657576976340124
 51
41.4767659004503173
  0
ARC
  5
11DB0
  8
0
 10
4267.3836043899036667
 20
228.3319316483107002
 30
0.0
 40
0.0189634011038479
 50
49.2785211073383422
 51
136.6121064793881033
  0
ARC
  5
11DB1
  8
0
 10
4267.3746815190388588
 20
228.3415093868808867
 30
0.0
 40
0.0059579248952131
 50
144.6288741363873953
 51
228.8485328626626085
  0
ARC
  5
11DB2
  8
0
 10
4267.2782730663657276
 20
228.5922823580033878
 30
0.0
 40
0.0402406145436199
 50
206.9736638053990987
 51
316.5197919619113236
  0
ARC
  5
11DB3
  8
0
 10
4267.2964448860675475
 20
228.5991942052139052
 30
0.0
 40
0.0363162402493638
 50
287.6766835075025028
 51
320.1456569983275813
  0
ARC
  5
11DB4
  8
0
 10
4267.3048592953673506
 20
228.5921700522169999
 30
0.0
 40
0.0253553548300559
 50
320.145656998328775
 51
25.5648562653298086
  0
ARC
  5
11DB5
  8
0
 10
4267.2702747472449119
 20
228.5655172542547859
 30
0.0
 40
0.0686637678620712
 50
33.196712949802162
 51
83.6478283352559231
  0
ARC
  5
11DB6
  8
0
 10
4267.2668093004485854
 20
228.5612697712614931
 30
0.0
 40
0.0733289311646425
 50
81.3232652799476341
 51
114.7934788883528938
  0
ARC
  5
11DB7
  8
0
 10
4267.248865363430923
 20
228.6108204956173893
 30
0.0
 40
0.0212992048301814
 50
126.9605269578368052
 51
205.0698460810820052
  0
ARC
  5
11DB8
  8
0
 10
4267.2772458222243586
 20
228.6194855891569091
 30
0.0
 40
0.0508494150872117
 50
200.3583708505917116
 51
224.6341596314204025
  0
ARC
  5
11DB9
  8
0
 10
4267.2772420228948249
 20
228.5856971603620877
 30
0.0
 40
0.0233240017534245
 50
220.9417126139130119
 51
303.74285356984592
  0
ARC
  5
11DBA
  8
0
 10
4267.2859973389668085
 20
228.5725903651944861
 30
0.0
 40
0.0075619067444839
 50
303.7428535698467726
 51
43.7040611168761686
  0
ARC
  5
11DBB
  8
0
 10
4267.2747685291778907
 20
228.5618583586650914
 30
0.0
 40
0.0230945218957135
 50
43.7040611168761686
 51
130.6559024886257987
  0
ARC
  5
11DBC
  8
0
 10
4267.26595637241644
 20
228.5748268967925014
 30
0.0
 40
0.0077191262072953
 50
143.8658513106304895
 51
214.8753576709115976
  0
LINE
  5
11DBD
  8
0
 10
4267.2424100227190138
 20
228.5740299839347927
 30
0.0
 11
4267.235060389046339
 21
228.6270401999491071
 31
0.0
  0
LINE
  5
11DBE
  8
0
 10
4267.3074721435696119
 20
228.5645926315816894
 30
0.0
 11
4267.3242436017690125
 21
228.6079681171239883
 31
0.0
  0
ARC
  5
11DBF
  8
0
 10
4267.3001234783723703
 20
228.6093458231352997
 30
0.0
 40
0.0308826907968024
 50
296.981448200852185
 51
340.5999440957060074
  0
ARC
  5
11DC0
  8
0
 10
4267.2747553721801523
 20
228.6316675585161136
 30
0.0
 40
0.0483011988544906
 50
197.177580754522495
 51
222.0821373230062079
  0
ARC
  5
11DC1
  8
0
 10
4267.1553672828213166
 20
228.5299935785158993
 30
0.0
 40
0.0253685297760163
 50
184.196639494453791
 51
243.5448456532409978
  0
ARC
  5
11DC2
  8
0
 10
4267.1704734733302757
 20
228.5508096669009888
 30
0.0
 40
0.0509123585996696
 50
238.7554897197616128
 51
284.6764080651988138
  0
ARC
  5
11DC3
  8
0
 10
4267.1766140223799084
 20
228.524351708804204
 30
0.0
 40
0.0237741520347882
 50
286.5159966656864867
 51
330.7733536454467185
  0
ARC
  5
11DC4
  8
0
 10
4267.166887685313668
 20
228.5342547543355067
 30
0.0
 40
0.0237073257377576
 50
219.5256683677675937
 51
298.4819067568918172
  0
ARC
  5
11DC5
  8
0
 10
4267.1745428743834054
 20
228.5201450262607068
 30
0.0
 40
0.0076547139242154
 50
298.4819067568910214
 51
34.2353015482685734
  0
ARC
  5
11DC6
  8
0
 10
4267.1615599084352652
 20
228.5113101131827875
 30
0.0
 40
0.0233586336223295
 50
34.2353015482685734
 51
117.5884353672940961
  0
ARC
  5
11DC7
  8
0
 10
4267.1545205749707748
 20
228.524781738235589
 30
0.0
 40
0.008158735688514
 50
117.5884353672940961
 51
223.4882691847836043
  0
ARC
  5
11DC8
  8
0
 10
4267.1956793169902085
 20
228.5373287759134939
 30
0.0
 40
0.0284727300035069
 50
267.9485342210253975
 51
316.9904520744585739
  0
ARC
  5
11DC9
  8
0
 10
4267.2006008376101818
 20
228.5327378501376074
 30
0.0
 40
0.0217423537368783
 50
316.9904520744585739
 51
26.8111405993805185
  0
ARC
  5
11DCA
  8
0
 10
4267.1434781470034068
 20
228.5038691604200949
 30
0.0
 40
0.0857455023164084
 50
26.8111405993805185
 51
70.0614763610311826
  0
ARC
  5
11DCB
  8
0
 10
4267.1314977747069861
 20
228.4871667250799874
 30
0.0
 40
0.1056789324738485
 50
67.0420812999855968
 51
88.0956869525463162
  0
ARC
  5
11DCC
  8
0
 10
4267.1335221803428794
 20
228.5755220649103023
 30
0.0
 40
0.0173291749622021
 50
85.0762918915019242
 51
171.0230691010017949
  0
ARC
  5
11DCD
  8
0
 10
4267.1706771750023108
 20
228.5812130679514951
 30
0.0
 40
0.0543540462345484
 50
183.1502637190631049
 51
220.9990462654355099
  0
ARC
  5
11DCE
  8
0
 10
4267.1868244675670212
 20
228.6049823955733018
 30
0.0
 40
0.0728973003692405
 50
198.1593239243931066
 51
217.9084884319188973
  0
ARC
  5
11DCF
  8
0
 10
4267.1976075425218369
 20
228.5509988837036985
 30
0.0
 40
0.025037215803664
 50
286.3917982598474055
 51
336.905106668221606
  0
LINE
  5
11DD0
  8
0
 10
4267.1973616082632361
 20
228.5127436088316131
 30
0.0
 11
4267.2161650785574238
 21
228.5493543354660062
 31
0.0
  0
LINE
  5
11DD1
  8
0
 10
4267.1300667718824116
 20
228.5281371170507896
 30
0.0
 11
4267.1285542428076951
 21
228.5921238690744133
 31
0.0
  0
ARC
  5
11DD2
  8
0
 10
4267.3622158726975613
 20
228.5198901440560064
 30
0.0
 40
0.0301078552346027
 50
145.7412256043695038
 51
233.7364664281913065
  0
ARC
  5
11DD3
  8
0
 10
4267.3834144665779604
 20
228.4807499945451923
 30
0.0
 40
0.0725918936096385
 50
50.600350245310409
 51
129.4066939358961008
  0
ARC
  5
11DD4
  8
0
 10
4267.4046198260493838
 20
228.519900637728
 30
0.0
 40
0.0300938458906948
 50
306.257989451688502
 51
34.2658185768544499
  0
LINE
  5
11DD5
  8
0
 10
4267.4294977209738136
 20
228.5368337385849884
 30
0.0
 11
4267.4219604997479109
 21
228.4929717815483912
 31
0.0
  0
LINE
  5
11DD6
  8
0
 10
4267.3373316234556114
 20
228.536838804369097
 30
0.0
 11
4267.3451481576421429
 21
228.4912961363922932
 31
0.0
  0
ARC
  5
11DD7
  8
0
 10
4267.3723722526492566
 20
228.4951641984877995
 30
0.0
 40
0.0274975135837784
 50
188.0865904483561906
 51
245.4952479960197991
  0
ARC
  5
11DD8
  8
0
 10
4267.3828297136806214
 20
228.5181059598994011
 30
0.0
 40
0.0527102664657915
 50
245.4952479960197991
 51
304.0243467469575194
  0
ARC
  5
11DD9
  8
0
 10
4267.400075915547859
 20
228.4925608356699058
 30
0.0
 40
0.0218884422048158
 50
304.0243467469566099
 51
1.075766273375963
  0
ARC
  5
11DDA
  8
0
 10
4267.3835741338452863
 20
228.495861034693803
 30
0.0
 40
0.019905673470146
 50
229.9318878468089054
 51
303.5657576976340124
  0
ARC
  5
11DDB
  8
0
 10
4267.3906487345566347
 20
228.4851990858821864
 30
0.0
 40
0.0071100833039566
 50
303.5657576976340124
 51
41.4767659004503173
  0
ARC
  5
11DDC
  8
0
 10
4267.3836043899036667
 20
228.4755360410692901
 30
0.0
 40
0.0189634011038479
 50
49.2785211073383422
 51
136.6121064793881033
  0
ARC
  5
11DDD
  8
0
 10
4267.3746815190388588
 20
228.4851137796395903
 30
0.0
 40
0.0059579248952131
 50
144.6288741363873953
 51
228.8485328626626085
  0
ARC
  5
11DDE
  8
0
 10
4267.2782730663657276
 20
228.7318484483388943
 30
0.0
 40
0.0402406145436199
 50
206.9736638053990987
 51
316.5197919619113236
  0
ARC
  5
11DDF
  8
0
 10
4267.2964448860675475
 20
228.738760295549298
 30
0.0
 40
0.0363162402493638
 50
287.6766835075025028
 51
320.1456569983275813
  0
ARC
  5
11DE0
  8
0
 10
4267.3048592953673506
 20
228.7317361425523927
 30
0.0
 40
0.0253553548300559
 50
320.145656998328775
 51
25.5648562653298086
  0
ARC
  5
11DE1
  8
0
 10
4267.2702747472449119
 20
228.7050833445902924
 30
0.0
 40
0.0686637678620712
 50
33.196712949802162
 51
83.6478283352559231
  0
ARC
  5
11DE2
  8
0
 10
4267.2668093004485854
 20
228.7008358615968859
 30
0.0
 40
0.0733289311646425
 50
81.3232652799476341
 51
114.7934788883528938
  0
ARC
  5
11DE3
  8
0
 10
4267.248865363430923
 20
228.7503865859528958
 30
0.0
 40
0.0212992048301814
 50
126.9605269578368052
 51
205.0698460810820052
  0
ARC
  5
11DE4
  8
0
 10
4267.2772458222243586
 20
228.7590516794923019
 30
0.0
 40
0.0508494150872117
 50
200.3583708505917116
 51
224.6341596314204025
  0
ARC
  5
11DE5
  8
0
 10
4267.2772420228948249
 20
228.7252632506975942
 30
0.0
 40
0.0233240017534245
 50
220.9417126139130119
 51
303.74285356984592
  0
ARC
  5
11DE6
  8
0
 10
4267.2859973389668085
 20
228.7121564555299926
 30
0.0
 40
0.0075619067444839
 50
303.7428535698467726
 51
43.7040611168761686
  0
ARC
  5
11DE7
  8
0
 10
4267.2747685291778907
 20
228.7014244490005979
 30
0.0
 40
0.0230945218957135
 50
43.7040611168761686
 51
130.6559024886257987
  0
ARC
  5
11DE8
  8
0
 10
4267.26595637241644
 20
228.7143929871278942
 30
0.0
 40
0.0077191262072953
 50
143.8658513106304895
 51
214.8753576709115976
  0
LINE
  5
11DE9
  8
0
 10
4267.2424100227190138
 20
228.7135960742702991
 30
0.0
 11
4267.235060389046339
 21
228.7666062902846136
 31
0.0
  0
LINE
  5
11DEA
  8
0
 10
4267.3074721435696119
 20
228.7041587219171106
 30
0.0
 11
4267.3242436017690125
 21
228.7475342074594948
 31
0.0
  0
ARC
  5
11DEB
  8
0
 10
4267.3001234783723703
 20
228.7489119134708062
 30
0.0
 40
0.0308826907968024
 50
296.981448200852185
 51
340.5999440957060074
  0
ARC
  5
11DEC
  8
0
 10
4267.2747553721801523
 20
228.7712336488515916
 30
0.0
 40
0.0483011988544906
 50
197.177580754522495
 51
222.0821373230062079
  0
ARC
  5
11DED
  8
0
 10
4267.1553672828213166
 20
228.6695596688514058
 30
0.0
 40
0.0253685297760163
 50
184.196639494453791
 51
243.5448456532409978
  0
ARC
  5
11DEE
  8
0
 10
4267.1704734733302757
 20
228.69037575723641
 30
0.0
 40
0.0509123585996696
 50
238.7554897197616128
 51
284.6764080651988138
  0
ARC
  5
11DEF
  8
0
 10
4267.1766140223799084
 20
228.6639177991397105
 30
0.0
 40
0.0237741520347882
 50
286.5159966656864867
 51
330.7733536454467185
  0
ARC
  5
11DF0
  8
0
 10
4267.166887685313668
 20
228.6738208446710132
 30
0.0
 40
0.0237073257377576
 50
219.5256683677675937
 51
298.4819067568918172
  0
ARC
  5
11DF1
  8
0
 10
4267.1745428743834054
 20
228.6597111165962133
 30
0.0
 40
0.0076547139242154
 50
298.4819067568910214
 51
34.2353015482685734
  0
ARC
  5
11DF2
  8
0
 10
4267.1615599084352652
 20
228.650876203518294
 30
0.0
 40
0.0233586336223295
 50
34.2353015482685734
 51
117.5884353672940961
  0
ARC
  5
11DF3
  8
0
 10
4267.1545205749707748
 20
228.6643478285710955
 30
0.0
 40
0.008158735688514
 50
117.5884353672940961
 51
223.4882691847836043
  0
ARC
  5
11DF4
  8
0
 10
4267.1956793169902085
 20
228.6768948662488867
 30
0.0
 40
0.0284727300035069
 50
267.9485342210253975
 51
316.9904520744585739
  0
ARC
  5
11DF5
  8
0
 10
4267.2006008376101818
 20
228.6723039404730002
 30
0.0
 40
0.0217423537368783
 50
316.9904520744585739
 51
26.8111405993805185
  0
ARC
  5
11DF6
  8
0
 10
4267.1434781470034068
 20
228.6434352507554877
 30
0.0
 40
0.0857455023164084
 50
26.8111405993805185
 51
70.0614763610311826
  0
ARC
  5
11DF7
  8
0
 10
4267.1314977747069861
 20
228.6267328154154939
 30
0.0
 40
0.1056789324738485
 50
67.0420812999855968
 51
88.0956869525463162
  0
ARC
  5
11DF8
  8
0
 10
4267.1335221803428794
 20
228.7150881552458088
 30
0.0
 40
0.0173291749622021
 50
85.0762918915019242
 51
171.0230691010017949
  0
ARC
  5
11DF9
  8
0
 10
4267.1706771750023108
 20
228.7207791582870016
 30
0.0
 40
0.0543540462345484
 50
183.1502637190631049
 51
220.9990462654355099
  0
ARC
  5
11DFA
  8
0
 10
4267.1868244675670212
 20
228.7445484859088083
 30
0.0
 40
0.0728973003692405
 50
198.1593239243931066
 51
217.9084884319188973
  0
ARC
  5
11DFB
  8
0
 10
4267.1976075425218369
 20
228.690564974039205
 30
0.0
 40
0.025037215803664
 50
286.3917982598474055
 51
336.905106668221606
  0
LINE
  5
11DFC
  8
0
 10
4267.1973616082632361
 20
228.6523096991670911
 30
0.0
 11
4267.2161650785574238
 21
228.688920425801399
 31
0.0
  0
LINE
  5
11DFD
  8
0
 10
4267.1300667718824116
 20
228.6677032073862961
 30
0.0
 11
4267.1285542428076951
 21
228.7316899594098913
 31
0.0
  0
ARC
  5
11DFE
  8
0
 10
4267.3622158726975613
 20
228.6594562343915129
 30
0.0
 40
0.0301078552346027
 50
145.7412256043695038
 51
233.7364664281913065
  0
ARC
  5
11DFF
  8
0
 10
4267.3834144665779604
 20
228.6203160848806988
 30
0.0
 40
0.0725918936096385
 50
50.600350245310409
 51
129.4066939358961008
  0
ARC
  5
11E00
  8
0
 10
4267.4046198260493838
 20
228.6594667280633928
 30
0.0
 40
0.0300938458906948
 50
306.257989451688502
 51
34.2658185768544499
  0
LINE
  5
11E01
  8
0
 10
4267.4294977209738136
 20
228.6763998289204949
 30
0.0
 11
4267.4219604997479109
 21
228.6325378718838977
 31
0.0
  0
LINE
  5
11E02
  8
0
 10
4267.3373316234556114
 20
228.6764048947046035
 30
0.0
 11
4267.3451481576421429
 21
228.6308622267277997
 31
0.0
  0
ARC
  5
11E03
  8
0
 10
4267.3723722526492566
 20
228.634730288823306
 30
0.0
 40
0.0274975135837784
 50
188.0865904483561906
 51
245.4952479960197991
  0
ARC
  5
11E04
  8
0
 10
4267.3828297136806214
 20
228.6576720502349076
 30
0.0
 40
0.0527102664657915
 50
245.4952479960197991
 51
304.0243467469575194
  0
ARC
  5
11E05
  8
0
 10
4267.400075915547859
 20
228.6321269260052986
 30
0.0
 40
0.0218884422048158
 50
304.0243467469566099
 51
1.075766273375963
  0
ARC
  5
11E06
  8
0
 10
4267.3835741338452863
 20
228.6354271250293095
 30
0.0
 40
0.019905673470146
 50
229.9318878468089054
 51
303.5657576976340124
  0
ARC
  5
11E07
  8
0
 10
4267.3906487345566347
 20
228.6247651762176929
 30
0.0
 40
0.0071100833039566
 50
303.5657576976340124
 51
41.4767659004503173
  0
ARC
  5
11E08
  8
0
 10
4267.3836043899036667
 20
228.6151021314047966
 30
0.0
 40
0.0189634011038479
 50
49.2785211073383422
 51
136.6121064793881033
  0
ARC
  5
11E09
  8
0
 10
4267.3746815190388588
 20
228.6246798699750968
 30
0.0
 40
0.0059579248952131
 50
144.6288741363873953
 51
228.8485328626626085
  0
ARC
  5
11E0A
  8
0
 10
4267.2782730663657276
 20
228.8727184100951888
 30
0.0
 40
0.0402406145436199
 50
206.9736638053990987
 51
316.5197919619113236
  0
ARC
  5
11E0B
  8
0
 10
4267.2964448860675475
 20
228.8796302573055925
 30
0.0
 40
0.0363162402493638
 50
287.6766835075025028
 51
320.1456569983275813
  0
ARC
  5
11E0C
  8
0
 10
4267.3048592953673506
 20
228.8726061043086872
 30
0.0
 40
0.0253553548300559
 50
320.145656998328775
 51
25.5648562653298086
  0
ARC
  5
11E0D
  8
0
 10
4267.2702747472449119
 20
228.8459533063465869
 30
0.0
 40
0.0686637678620712
 50
33.196712949802162
 51
83.6478283352559231
  0
ARC
  5
11E0E
  8
0
 10
4267.2668093004485854
 20
228.8417058233532941
 30
0.0
 40
0.0733289311646425
 50
81.3232652799476341
 51
114.7934788883528938
  0
ARC
  5
11E0F
  8
0
 10
4267.248865363430923
 20
228.8912565477091903
 30
0.0
 40
0.0212992048301814
 50
126.9605269578368052
 51
205.0698460810820052
  0
ARC
  5
11E10
  8
0
 10
4267.2772458222243586
 20
228.8999216412487101
 30
0.0
 40
0.0508494150872117
 50
200.3583708505917116
 51
224.6341596314204025
  0
ARC
  5
11E11
  8
0
 10
4267.2772420228948249
 20
228.8661332124540024
 30
0.0
 40
0.0233240017534245
 50
220.9417126139130119
 51
303.74285356984592
  0
ARC
  5
11E12
  8
0
 10
4267.2859973389668085
 20
228.8530264172862871
 30
0.0
 40
0.0075619067444839
 50
303.7428535698467726
 51
43.7040611168761686
  0
ARC
  5
11E13
  8
0
 10
4267.2747685291778907
 20
228.8422944107568924
 30
0.0
 40
0.0230945218957135
 50
43.7040611168761686
 51
130.6559024886257987
  0
ARC
  5
11E14
  8
0
 10
4267.26595637241644
 20
228.8552629488843024
 30
0.0
 40
0.0077191262072953
 50
143.8658513106304895
 51
214.8753576709115976
  0
LINE
  5
11E15
  8
0
 10
4267.2424100227190138
 20
228.8544660360265937
 30
0.0
 11
4267.235060389046339
 21
228.9074762520409081
 31
0.0
  0
LINE
  5
11E16
  8
0
 10
4267.3074721435696119
 20
228.8450286836734904
 30
0.0
 11
4267.3242436017690125
 21
228.8884041692157894
 31
0.0
  0
ARC
  5
11E17
  8
0
 10
4267.3001234783723703
 20
228.8897818752271007
 30
0.0
 40
0.0308826907968024
 50
296.981448200852185
 51
340.5999440957060074
  0
ARC
  5
11E18
  8
0
 10
4267.2747553721801523
 20
228.9121036106079998
 30
0.0
 40
0.0483011988544906
 50
197.177580754522495
 51
222.0821373230062079
  0
ARC
  5
11E19
  8
0
 10
4267.1553672828213166
 20
228.8104296306077003
 30
0.0
 40
0.0253685297760163
 50
184.196639494453791
 51
243.5448456532409978
  0
ARC
  5
11E1A
  8
0
 10
4267.1704734733302757
 20
228.8312457189927898
 30
0.0
 40
0.0509123585996696
 50
238.7554897197616128
 51
284.6764080651988138
  0
ARC
  5
11E1B
  8
0
 10
4267.1766140223799084
 20
228.804787760896005
 30
0.0
 40
0.0237741520347882
 50
286.5159966656864867
 51
330.7733536454467185
  0
ARC
  5
11E1C
  8
0
 10
4267.166887685313668
 20
228.8146908064273077
 30
0.0
 40
0.0237073257377576
 50
219.5256683677675937
 51
298.4819067568918172
  0
ARC
  5
11E1D
  8
0
 10
4267.1745428743834054
 20
228.8005810783525078
 30
0.0
 40
0.0076547139242154
 50
298.4819067568910214
 51
34.2353015482685734
  0
ARC
  5
11E1E
  8
0
 10
4267.1615599084352652
 20
228.7917461652745885
 30
0.0
 40
0.0233586336223295
 50
34.2353015482685734
 51
117.5884353672940961
  0
ARC
  5
11E1F
  8
0
 10
4267.1545205749707748
 20
228.80521779032739
 30
0.0
 40
0.008158735688514
 50
117.5884353672940961
 51
223.4882691847836043
  0
ARC
  5
11E20
  8
0
 10
4267.1956793169902085
 20
228.8177648280052097
 30
0.0
 40
0.0284727300035069
 50
267.9485342210253975
 51
316.9904520744585739
  0
ARC
  5
11E21
  8
0
 10
4267.2006008376101818
 20
228.8131739022294084
 30
0.0
 40
0.0217423537368783
 50
316.9904520744585739
 51
26.8111405993805185
  0
ARC
  5
11E22
  8
0
 10
4267.1434781470034068
 20
228.7843052125118106
 30
0.0
 40
0.0857455023164084
 50
26.8111405993805185
 51
70.0614763610311826
  0
ARC
  5
11E23
  8
0
 10
4267.1314977747069861
 20
228.7676027771717884
 30
0.0
 40
0.1056789324738485
 50
67.0420812999855968
 51
88.0956869525463162
  0
ARC
  5
11E24
  8
0
 10
4267.1335221803428794
 20
228.8559581170021033
 30
0.0
 40
0.0173291749622021
 50
85.0762918915019242
 51
171.0230691010017949
  0
ARC
  5
11E25
  8
0
 10
4267.1706771750023108
 20
228.8616491200432961
 30
0.0
 40
0.0543540462345484
 50
183.1502637190631049
 51
220.9990462654355099
  0
ARC
  5
11E26
  8
0
 10
4267.1868244675670212
 20
228.8854184476651028
 30
0.0
 40
0.0728973003692405
 50
198.1593239243931066
 51
217.9084884319188973
  0
ARC
  5
11E27
  8
0
 10
4267.1976075425218369
 20
228.8314349357954995
 30
0.0
 40
0.025037215803664
 50
286.3917982598474055
 51
336.905106668221606
  0
LINE
  5
11E28
  8
0
 10
4267.1973616082632361
 20
228.7931796609234141
 30
0.0
 11
4267.2161650785574238
 21
228.8297903875578072
 31
0.0
  0
LINE
  5
11E29
  8
0
 10
4267.1300667718824116
 20
228.8085731691427043
 30
0.0
 11
4267.1285542428076951
 21
228.8725599211661859
 31
0.0
  0
ARC
  5
11E2A
  8
0
 10
4267.3622158726975613
 20
228.8003261961478074
 30
0.0
 40
0.0301078552346027
 50
145.7412256043695038
 51
233.7364664281913065
  0
ARC
  5
11E2B
  8
0
 10
4267.3834144665779604
 20
228.761186046637107
 30
0.0
 40
0.0725918936096385
 50
50.600350245310409
 51
129.4066939358961008
  0
ARC
  5
11E2C
  8
0
 10
4267.4046198260493838
 20
228.800336689819801
 30
0.0
 40
0.0300938458906948
 50
306.257989451688502
 51
34.2658185768544499
  0
LINE
  5
11E2D
  8
0
 10
4267.4294977209738136
 20
228.8172697906767894
 30
0.0
 11
4267.4219604997479109
 21
228.7734078336401922
 31
0.0
  0
LINE
  5
11E2E
  8
0
 10
4267.3373316234556114
 20
228.817274856460898
 30
0.0
 11
4267.3451481576421429
 21
228.7717321884842079
 31
0.0
  0
ARC
  5
11E2F
  8
0
 10
4267.3723722526492566
 20
228.7756002505796005
 30
0.0
 40
0.0274975135837784
 50
188.0865904483561906
 51
245.4952479960197991
  0
ARC
  5
11E30
  8
0
 10
4267.3828297136806214
 20
228.7985420119912021
 30
0.0
 40
0.0527102664657915
 50
245.4952479960197991
 51
304.0243467469575194
  0
ARC
  5
11E31
  8
0
 10
4267.400075915547859
 20
228.7729968877617068
 30
0.0
 40
0.0218884422048158
 50
304.0243467469566099
 51
1.075766273375963
  0
ARC
  5
11E32
  8
0
 10
4267.3835741338452863
 20
228.7762970867856041
 30
0.0
 40
0.019905673470146
 50
229.9318878468089054
 51
303.5657576976340124
  0
ARC
  5
11E33
  8
0
 10
4267.3906487345566347
 20
228.7656351379741011
 30
0.0
 40
0.0071100833039566
 50
303.5657576976340124
 51
41.4767659004503173
  0
ARC
  5
11E34
  8
0
 10
4267.3836043899036667
 20
228.7559720931612048
 30
0.0
 40
0.0189634011038479
 50
49.2785211073383422
 51
136.6121064793881033
  0
ARC
  5
11E35
  8
0
 10
4267.3746815190388588
 20
228.7655498317313914
 30
0.0
 40
0.0059579248952131
 50
144.6288741363873953
 51
228.8485328626626085
  0
ARC
  5
11E36
  8
0
 10
4267.2782730663657276
 20
229.0136471019802968
 30
0.0
 40
0.0402406145436199
 50
206.9736638053990987
 51
316.5197919619113236
  0
ARC
  5
11E37
  8
0
 10
4267.2964448860675475
 20
229.0205589491907858
 30
0.0
 40
0.0363162402493638
 50
287.6766835075025028
 51
320.1456569983275813
  0
ARC
  5
11E38
  8
0
 10
4267.3048592953673506
 20
229.0135347961937953
 30
0.0
 40
0.0253553548300559
 50
320.145656998328775
 51
25.5648562653298086
  0
ARC
  5
11E39
  8
0
 10
4267.2702747472449119
 20
228.986881998231695
 30
0.0
 40
0.0686637678620712
 50
33.196712949802162
 51
83.6478283352559231
  0
ARC
  5
11E3A
  8
0
 10
4267.2668093004485854
 20
228.9826345152384022
 30
0.0
 40
0.0733289311646425
 50
81.3232652799476341
 51
114.7934788883528938
  0
ARC
  5
11E3B
  8
0
 10
4267.248865363430923
 20
229.0321852395942983
 30
0.0
 40
0.0212992048301814
 50
126.9605269578368052
 51
205.0698460810820052
  0
ARC
  5
11E3C
  8
0
 10
4267.2772458222243586
 20
229.0408503331337897
 30
0.0
 40
0.0508494150872117
 50
200.3583708505917116
 51
224.6341596314204025
  0
ARC
  5
11E3D
  8
0
 10
4267.2772420228948249
 20
229.0070619043389968
 30
0.0
 40
0.0233240017534245
 50
220.9417126139130119
 51
303.74285356984592
  0
ARC
  5
11E3E
  8
0
 10
4267.2859973389668085
 20
228.9939551091713952
 30
0.0
 40
0.0075619067444839
 50
303.7428535698467726
 51
43.7040611168761686
  0
ARC
  5
11E3F
  8
0
 10
4267.2747685291778907
 20
228.9832231026420004
 30
0.0
 40
0.0230945218957135
 50
43.7040611168761686
 51
130.6559024886257987
  0
ARC
  5
11E40
  8
0
 10
4267.26595637241644
 20
228.9961916407694105
 30
0.0
 40
0.0077191262072953
 50
143.8658513106304895
 51
214.8753576709115976
  0
LINE
  5
11E41
  8
0
 10
4267.2424100227190138
 20
228.9953947279117017
 30
0.0
 11
4267.235060389046339
 21
229.0484049439259877
 31
0.0
  0
LINE
  5
11E42
  8
0
 10
4267.3074721435696119
 20
228.9859573755585984
 30
0.0
 11
4267.3242436017690125
 21
229.0293328611008974
 31
0.0
  0
ARC
  5
11E43
  8
0
 10
4267.3001234783723703
 20
229.0307105671122088
 30
0.0
 40
0.0308826907968024
 50
296.981448200852185
 51
340.5999440957060074
  0
ARC
  5
11E44
  8
0
 10
4267.2747553721801523
 20
229.0530323024929942
 30
0.0
 40
0.0483011988544906
 50
197.177580754522495
 51
222.0821373230062079
  0
ARC
  5
11E45
  8
0
 10
4267.1553672828213166
 20
228.9513583224928084
 30
0.0
 40
0.0253685297760163
 50
184.196639494453791
 51
243.5448456532409978
  0
ARC
  5
11E46
  8
0
 10
4267.1704734733302757
 20
228.9721744108778978
 30
0.0
 40
0.0509123585996696
 50
238.7554897197616128
 51
284.6764080651988138
  0
ARC
  5
11E47
  8
0
 10
4267.1766140223799084
 20
228.945716452781113
 30
0.0
 40
0.0237741520347882
 50
286.5159966656864867
 51
330.7733536454467185
  0
ARC
  5
11E48
  8
0
 10
4267.166887685313668
 20
228.9556194983123873
 30
0.0
 40
0.0237073257377576
 50
219.5256683677675937
 51
298.4819067568918172
  0
ARC
  5
11E49
  8
0
 10
4267.1745428743834054
 20
228.9415097702375874
 30
0.0
 40
0.0076547139242154
 50
298.4819067568910214
 51
34.2353015482685734
  0
ARC
  5
11E4A
  8
0
 10
4267.1615599084352652
 20
228.9326748571596966
 30
0.0
 40
0.0233586336223295
 50
34.2353015482685734
 51
117.5884353672940961
  0
ARC
  5
11E4B
  8
0
 10
4267.1545205749707748
 20
228.9461464822124981
 30
0.0
 40
0.008158735688514
 50
117.5884353672940961
 51
223.4882691847836043
  0
ARC
  5
11E4C
  8
0
 10
4267.1956793169902085
 20
228.9586935198902893
 30
0.0
 40
0.0284727300035069
 50
267.9485342210253975
 51
316.9904520744585739
  0
ARC
  5
11E4D
  8
0
 10
4267.2006008376101818
 20
228.9541025941144881
 30
0.0
 40
0.0217423537368783
 50
316.9904520744585739
 51
26.8111405993805185
  0
ARC
  5
11E4E
  8
0
 10
4267.1434781470034068
 20
228.9252339043970039
 30
0.0
 40
0.0857455023164084
 50
26.8111405993805185
 51
70.0614763610311826
  0
ARC
  5
11E4F
  8
0
 10
4267.1314977747069861
 20
228.9085314690568964
 30
0.0
 40
0.1056789324738485
 50
67.0420812999855968
 51
88.0956869525463162
  0
ARC
  5
11E50
  8
0
 10
4267.1335221803428794
 20
228.9968868088872114
 30
0.0
 40
0.0173291749622021
 50
85.0762918915019242
 51
171.0230691010017949
  0
ARC
  5
11E51
  8
0
 10
4267.1706771750023108
 20
229.0025778119284041
 30
0.0
 40
0.0543540462345484
 50
183.1502637190631049
 51
220.9990462654355099
  0
ARC
  5
11E52
  8
0
 10
4267.1868244675670212
 20
229.0263471395502108
 30
0.0
 40
0.0728973003692405
 50
198.1593239243931066
 51
217.9084884319188973
  0
ARC
  5
11E53
  8
0
 10
4267.1976075425218369
 20
228.9723636276806076
 30
0.0
 40
0.025037215803664
 50
286.3917982598474055
 51
336.905106668221606
  0
LINE
  5
11E54
  8
0
 10
4267.1973616082632361
 20
228.9341083528084937
 30
0.0
 11
4267.2161650785574238
 21
228.9707190794428868
 31
0.0
  0
LINE
  5
11E55
  8
0
 10
4267.1300667718824116
 20
228.9495018610276986
 30
0.0
 11
4267.1285542428076951
 21
229.0134886130512939
 31
0.0
  0
ARC
  5
11E56
  8
0
 10
4267.3622158726975613
 20
228.941254888032887
 30
0.0
 40
0.0301078552346027
 50
145.7412256043695038
 51
233.7364664281913065
  0
ARC
  5
11E57
  8
0
 10
4267.3834144665779604
 20
228.9021147385221013
 30
0.0
 40
0.0725918936096385
 50
50.600350245310409
 51
129.4066939358961008
  0
ARC
  5
11E58
  8
0
 10
4267.4046198260493838
 20
228.9412653817047953
 30
0.0
 40
0.0300938458906948
 50
306.257989451688502
 51
34.2658185768544499
  0
LINE
  5
11E59
  8
0
 10
4267.4294977209738136
 20
228.9581984825618974
 30
0.0
 11
4267.4219604997479109
 21
228.9143365255253002
 31
0.0
  0
LINE
  5
11E5A
  8
0
 10
4267.3373316234556114
 20
228.9582035483460061
 30
0.0
 11
4267.3451481576421429
 21
228.9126608803692022
 31
0.0
  0
ARC
  5
11E5B
  8
0
 10
4267.3723722526492566
 20
228.9165289424647085
 30
0.0
 40
0.0274975135837784
 50
188.0865904483561906
 51
245.4952479960197991
  0
ARC
  5
11E5C
  8
0
 10
4267.3828297136806214
 20
228.9394707038763102
 30
0.0
 40
0.0527102664657915
 50
245.4952479960197991
 51
304.0243467469575194
  0
ARC
  5
11E5D
  8
0
 10
4267.400075915547859
 20
228.9139255796467864
 30
0.0
 40
0.0218884422048158
 50
304.0243467469566099
 51
1.075766273375963
  0
ARC
  5
11E5E
  8
0
 10
4267.3835741338452863
 20
228.9172257786707121
 30
0.0
 40
0.019905673470146
 50
229.9318878468089054
 51
303.5657576976340124
  0
ARC
  5
11E5F
  8
0
 10
4267.3906487345566347
 20
228.9065638298592091
 30
0.0
 40
0.0071100833039566
 50
303.5657576976340124
 51
41.4767659004503173
  0
ARC
  5
11E60
  8
0
 10
4267.3836043899036667
 20
228.8969007850461992
 30
0.0
 40
0.0189634011038479
 50
49.2785211073383422
 51
136.6121064793881033
  0
ARC
  5
11E61
  8
0
 10
4267.3746815190388588
 20
228.9064785236164994
 30
0.0
 40
0.0059579248952131
 50
144.6288741363873953
 51
228.8485328626626085
  0
ARC
  5
11E62
  8
0
 10
4267.2782730663657276
 20
229.1502532251064963
 30
0.0
 40
0.0402406145436199
 50
206.9736638053990987
 51
316.5197919619113236
  0
ARC
  5
11E63
  8
0
 10
4267.2964448860675475
 20
229.1571650723170137
 30
0.0
 40
0.0363162402493638
 50
287.6766835075025028
 51
320.1456569983275813
  0
ARC
  5
11E64
  8
0
 10
4267.3048592953673506
 20
229.1501409193199947
 30
0.0
 40
0.0253553548300559
 50
320.145656998328775
 51
25.5648562653298086
  0
ARC
  5
11E65
  8
0
 10
4267.2702747472449119
 20
229.1234881213578944
 30
0.0
 40
0.0686637678620712
 50
33.196712949802162
 51
83.6478283352559231
  0
ARC
  5
11E66
  8
0
 10
4267.2668093004485854
 20
229.1192406383646016
 30
0.0
 40
0.0733289311646425
 50
81.3232652799476341
 51
114.7934788883528938
  0
ARC
  5
11E67
  8
0
 10
4267.248865363430923
 20
229.1687913627204978
 30
0.0
 40
0.0212992048301814
 50
126.9605269578368052
 51
205.0698460810820052
  0
ARC
  5
11E68
  8
0
 10
4267.2772458222243586
 20
229.1774564562599892
 30
0.0
 40
0.0508494150872117
 50
200.3583708505917116
 51
224.6341596314204025
  0
ARC
  5
11E69
  8
0
 10
4267.2772420228948249
 20
229.1436680274653099
 30
0.0
 40
0.0233240017534245
 50
220.9417126139130119
 51
303.74285356984592
  0
ARC
  5
11E6A
  8
0
 10
4267.2859973389668085
 20
229.1305612322977083
 30
0.0
 40
0.0075619067444839
 50
303.7428535698467726
 51
43.7040611168761686
  0
ARC
  5
11E6B
  8
0
 10
4267.2747685291778907
 20
229.1198292257681999
 30
0.0
 40
0.0230945218957135
 50
43.7040611168761686
 51
130.6559024886257987
  0
ARC
  5
11E6C
  8
0
 10
4267.26595637241644
 20
229.1327977638956099
 30
0.0
 40
0.0077191262072953
 50
143.8658513106304895
 51
214.8753576709115976
  0
LINE
  5
11E6D
  8
0
 10
4267.2424100227190138
 20
229.1320008510379012
 30
0.0
 11
4267.235060389046339
 21
229.1850110670521872
 31
0.0
  0
LINE
  5
11E6E
  8
0
 10
4267.3074721435696119
 20
229.1225634986847979
 30
0.0
 11
4267.3242436017690125
 21
229.1659389842270969
 31
0.0
  0
ARC
  5
11E6F
  8
0
 10
4267.3001234783723703
 20
229.1673166902384935
 30
0.0
 40
0.0308826907968024
 50
296.981448200852185
 51
340.5999440957060074
  0
ARC
  5
11E70
  8
0
 10
4267.2747553721801523
 20
229.1896384256193073
 30
0.0
 40
0.0483011988544906
 50
197.177580754522495
 51
222.0821373230062079
  0
ARC
  5
11E71
  8
0
 10
4267.1553672828213166
 20
229.0879644456190078
 30
0.0
 40
0.0253685297760163
 50
184.196639494453791
 51
243.5448456532409978
  0
ARC
  5
11E72
  8
0
 10
4267.1704734733302757
 20
229.1087805340040973
 30
0.0
 40
0.0509123585996696
 50
238.7554897197616128
 51
284.6764080651988138
  0
ARC
  5
11E73
  8
0
 10
4267.1766140223799084
 20
229.0823225759073978
 30
0.0
 40
0.0237741520347882
 50
286.5159966656864867
 51
330.7733536454467185
  0
ARC
  5
11E74
  8
0
 10
4267.166887685313668
 20
229.0922256214385868
 30
0.0
 40
0.0237073257377576
 50
219.5256683677675937
 51
298.4819067568918172
  0
ARC
  5
11E75
  8
0
 10
4267.1745428743834054
 20
229.0781158933639006
 30
0.0
 40
0.0076547139242154
 50
298.4819067568910214
 51
34.2353015482685734
  0
ARC
  5
11E76
  8
0
 10
4267.1615599084352652
 20
229.069280980285896
 30
0.0
 40
0.0233586336223295
 50
34.2353015482685734
 51
117.5884353672940961
  0
ARC
  5
11E77
  8
0
 10
4267.1545205749707748
 20
229.0827526053388112
 30
0.0
 40
0.008158735688514
 50
117.5884353672940961
 51
223.4882691847836043
  0
ARC
  5
11E78
  8
0
 10
4267.1956793169902085
 20
229.0952996430166024
 30
0.0
 40
0.0284727300035069
 50
267.9485342210253975
 51
316.9904520744585739
  0
ARC
  5
11E79
  8
0
 10
4267.2006008376101818
 20
229.0907087172406875
 30
0.0
 40
0.0217423537368783
 50
316.9904520744585739
 51
26.8111405993805185
  0
ARC
  5
11E7A
  8
0
 10
4267.1434781470034068
 20
229.0618400275232034
 30
0.0
 40
0.0857455023164084
 50
26.8111405993805185
 51
70.0614763610311826
  0
ARC
  5
11E7B
  8
0
 10
4267.1314977747069861
 20
229.0451375921830959
 30
0.0
 40
0.1056789324738485
 50
67.0420812999855968
 51
88.0956869525463162
  0
ARC
  5
11E7C
  8
0
 10
4267.1335221803428794
 20
229.1334929320134961
 30
0.0
 40
0.0173291749622021
 50
85.0762918915019242
 51
171.0230691010017949
  0
ARC
  5
11E7D
  8
0
 10
4267.1706771750023108
 20
229.1391839350546888
 30
0.0
 40
0.0543540462345484
 50
183.1502637190631049
 51
220.9990462654355099
  0
ARC
  5
11E7E
  8
0
 10
4267.1868244675670212
 20
229.1629532626764103
 30
0.0
 40
0.0728973003692405
 50
198.1593239243931066
 51
217.9084884319188973
  0
ARC
  5
11E7F
  8
0
 10
4267.1976075425218369
 20
229.108969750806807
 30
0.0
 40
0.025037215803664
 50
286.3917982598474055
 51
336.905106668221606
  0
LINE
  5
11E80
  8
0
 10
4267.1973616082632361
 20
229.0707144759346932
 30
0.0
 11
4267.2161650785574238
 21
229.1073252025690863
 31
0.0
  0
LINE
  5
11E81
  8
0
 10
4267.1300667718824116
 20
229.0861079841540118
 30
0.0
 11
4267.1285542428076951
 21
229.1500947361774934
 31
0.0
  0
ARC
  5
11E82
  8
0
 10
4267.3622158726975613
 20
229.0778610111590865
 30
0.0
 40
0.0301078552346027
 50
145.7412256043695038
 51
233.7364664281913065
  0
ARC
  5
11E83
  8
0
 10
4267.3834144665779604
 20
229.0387208616483861
 30
0.0
 40
0.0725918936096385
 50
50.600350245310409
 51
129.4066939358961008
  0
ARC
  5
11E84
  8
0
 10
4267.4046198260493838
 20
229.0778715048311085
 30
0.0
 40
0.0300938458906948
 50
306.257989451688502
 51
34.2658185768544499
  0
LINE
  5
11E85
  8
0
 10
4267.4294977209738136
 20
229.0948046056880969
 30
0.0
 11
4267.4219604997479109
 21
229.0509426486514997
 31
0.0
  0
LINE
  5
11E86
  8
0
 10
4267.3373316234556114
 20
229.0948096714722908
 30
0.0
 11
4267.3451481576421429
 21
229.049267003495487
 31
0.0
  0
ARC
  5
11E87
  8
0
 10
4267.3723722526492566
 20
229.053135065590908
 30
0.0
 40
0.0274975135837784
 50
188.0865904483561906
 51
245.4952479960197991
  0
ARC
  5
11E88
  8
0
 10
4267.3828297136806214
 20
229.0760768270025096
 30
0.0
 40
0.0527102664657915
 50
245.4952479960197991
 51
304.0243467469575194
  0
ARC
  5
11E89
  8
0
 10
4267.400075915547859
 20
229.0505317027729859
 30
0.0
 40
0.0218884422048158
 50
304.0243467469566099
 51
1.075766273375963
  0
ARC
  5
11E8A
  8
0
 10
4267.3835741338452863
 20
229.0538319017969968
 30
0.0
 40
0.019905673470146
 50
229.9318878468089054
 51
303.5657576976340124
  0
ARC
  5
11E8B
  8
0
 10
4267.3906487345566347
 20
229.0431699529854086
 30
0.0
 40
0.0071100833039566
 50
303.5657576976340124
 51
41.4767659004503173
  0
ARC
  5
11E8C
  8
0
 10
4267.3836043899036667
 20
229.0335069081725123
 30
0.0
 40
0.0189634011038479
 50
49.2785211073383422
 51
136.6121064793881033
  0
ARC
  5
11E8D
  8
0
 10
4267.3746815190388588
 20
229.0430846467426989
 30
0.0
 40
0.0059579248952131
 50
144.6288741363873953
 51
228.8485328626626085
  0
ARC
  5
11E8E
  8
0
 10
4267.2782730663657276
 20
229.2908111586154121
 30
0.0
 40
0.0402406145436199
 50
206.9736638053990987
 51
316.5197919619113236
  0
ARC
  5
11E8F
  8
0
 10
4267.2964448860675475
 20
229.2977230058259011
 30
0.0
 40
0.0363162402493638
 50
287.6766835075025028
 51
320.1456569983275813
  0
ARC
  5
11E90
  8
0
 10
4267.3048592953673506
 20
229.2906988528289105
 30
0.0
 40
0.0253553548300559
 50
320.145656998328775
 51
25.5648562653298086
  0
ARC
  5
11E91
  8
0
 10
4267.2702747472449119
 20
229.2640460548668102
 30
0.0
 40
0.0686637678620712
 50
33.196712949802162
 51
83.6478283352559231
  0
ARC
  5
11E92
  8
0
 10
4267.2668093004485854
 20
229.259798571873489
 30
0.0
 40
0.0733289311646425
 50
81.3232652799476341
 51
114.7934788883528938
  0
ARC
  5
11E93
  8
0
 10
4267.248865363430923
 20
229.3093492962294135
 30
0.0
 40
0.0212992048301814
 50
126.9605269578368052
 51
205.0698460810820052
  0
ARC
  5
11E94
  8
0
 10
4267.2772458222243586
 20
229.3180143897689049
 30
0.0
 40
0.0508494150872117
 50
200.3583708505917116
 51
224.6341596314204025
  0
ARC
  5
11E95
  8
0
 10
4267.2772420228948249
 20
229.2842259609741973
 30
0.0
 40
0.0233240017534245
 50
220.9417126139130119
 51
303.74285356984592
  0
ARC
  5
11E96
  8
0
 10
4267.2859973389668085
 20
229.2711191658065957
 30
0.0
 40
0.0075619067444839
 50
303.7428535698467726
 51
43.7040611168761686
  0
ARC
  5
11E97
  8
0
 10
4267.2747685291778907
 20
229.2603871592770872
 30
0.0
 40
0.0230945218957135
 50
43.7040611168761686
 51
130.6559024886257987
  0
ARC
  5
11E98
  8
0
 10
4267.26595637241644
 20
229.2733556974044973
 30
0.0
 40
0.0077191262072953
 50
143.8658513106304895
 51
214.8753576709115976
  0
LINE
  5
11E99
  8
0
 10
4267.2424100227190138
 20
229.2725587845469022
 30
0.0
 11
4267.235060389046339
 21
229.3255690005611882
 31
0.0
  0
LINE
  5
11E9A
  8
0
 10
4267.3074721435696119
 20
229.2631214321937136
 30
0.0
 11
4267.3242436017690125
 21
229.3064969177360126
 31
0.0
  0
ARC
  5
11E9B
  8
0
 10
4267.3001234783723703
 20
229.3078746237472956
 30
0.0
 40
0.0308826907968024
 50
296.981448200852185
 51
340.5999440957060074
  0
ARC
  5
11E9C
  8
0
 10
4267.2747553721801523
 20
229.3301963591281947
 30
0.0
 40
0.0483011988544906
 50
197.177580754522495
 51
222.0821373230062079
  0
ARC
  5
11E9D
  8
0
 10
4267.1553672828213166
 20
229.2285223791278952
 30
0.0
 40
0.0253685297760163
 50
184.196639494453791
 51
243.5448456532409978
  0
ARC
  5
11E9E
  8
0
 10
4267.1704734733302757
 20
229.249338467513013
 30
0.0
 40
0.0509123585996696
 50
238.7554897197616128
 51
284.6764080651988138
  0
ARC
  5
11E9F
  8
0
 10
4267.1766140223799084
 20
229.2228805094163135
 30
0.0
 40
0.0237741520347882
 50
286.5159966656864867
 51
330.7733536454467185
  0
ARC
  5
11EA0
  8
0
 10
4267.166887685313668
 20
229.2327835549475026
 30
0.0
 40
0.0237073257377576
 50
219.5256683677675937
 51
298.4819067568918172
  0
ARC
  5
11EA1
  8
0
 10
4267.1745428743834054
 20
229.2186738268727026
 30
0.0
 40
0.0076547139242154
 50
298.4819067568910214
 51
34.2353015482685734
  0
ARC
  5
11EA2
  8
0
 10
4267.1615599084352652
 20
229.2098389137948118
 30
0.0
 40
0.0233586336223295
 50
34.2353015482685734
 51
117.5884353672940961
  0
ARC
  5
11EA3
  8
0
 10
4267.1545205749707748
 20
229.2233105388476986
 30
0.0
 40
0.008158735688514
 50
117.5884353672940961
 51
223.4882691847836043
  0
ARC
  5
11EA4
  8
0
 10
4267.1956793169902085
 20
229.2358575765254898
 30
0.0
 40
0.0284727300035069
 50
267.9485342210253975
 51
316.9904520744585739
  0
ARC
  5
11EA5
  8
0
 10
4267.2006008376101818
 20
229.2312666507496033
 30
0.0
 40
0.0217423537368783
 50
316.9904520744585739
 51
26.8111405993805185
  0
ARC
  5
11EA6
  8
0
 10
4267.1434781470034068
 20
229.2023979610320907
 30
0.0
 40
0.0857455023164084
 50
26.8111405993805185
 51
70.0614763610311826
  0
ARC
  5
11EA7
  8
0
 10
4267.1314977747069861
 20
229.1856955256920116
 30
0.0
 40
0.1056789324738485
 50
67.0420812999855968
 51
88.0956869525463162
  0
ARC
  5
11EA8
  8
0
 10
4267.1335221803428794
 20
229.2740508655222982
 30
0.0
 40
0.0173291749622021
 50
85.0762918915019242
 51
171.0230691010017949
  0
ARC
  5
11EA9
  8
0
 10
4267.1706771750023108
 20
229.2797418685636046
 30
0.0
 40
0.0543540462345484
 50
183.1502637190631049
 51
220.9990462654355099
  0
ARC
  5
11EAA
  8
0
 10
4267.1868244675670212
 20
229.3035111961854113
 30
0.0
 40
0.0728973003692405
 50
198.1593239243931066
 51
217.9084884319188973
  0
ARC
  5
11EAB
  8
0
 10
4267.1976075425218369
 20
229.2495276843156944
 30
0.0
 40
0.025037215803664
 50
286.3917982598474055
 51
336.905106668221606
  0
LINE
  5
11EAC
  8
0
 10
4267.1973616082632361
 20
229.2112724094436089
 30
0.0
 11
4267.2161650785574238
 21
229.2478831360780021
 31
0.0
  0
LINE
  5
11EAD
  8
0
 10
4267.1300667718824116
 20
229.2266659176628991
 30
0.0
 11
4267.1285542428076951
 21
229.2906526696864091
 31
0.0
  0
ARC
  5
11EAE
  8
0
 10
4267.3622158726975613
 20
229.2184189446680023
 30
0.0
 40
0.0301078552346027
 50
145.7412256043695038
 51
233.7364664281913065
  0
ARC
  5
11EAF
  8
0
 10
4267.3834144665779604
 20
229.1792787951573018
 30
0.0
 40
0.0725918936096385
 50
50.600350245310409
 51
129.4066939358961008
  0
ARC
  5
11EB0
  8
0
 10
4267.4046198260493838
 20
229.2184294383399958
 30
0.0
 40
0.0300938458906948
 50
306.257989451688502
 51
34.2658185768544499
  0
LINE
  5
11EB1
  8
0
 10
4267.4294977209738136
 20
229.2353625391970127
 30
0.0
 11
4267.4219604997479109
 21
229.191500582160387
 31
0.0
  0
LINE
  5
11EB2
  8
0
 10
4267.3373316234556114
 20
229.2353676049810929
 30
0.0
 11
4267.3451481576421429
 21
229.1898249370044027
 31
0.0
  0
ARC
  5
11EB3
  8
0
 10
4267.3723722526492566
 20
229.1936929990997953
 30
0.0
 40
0.0274975135837784
 50
188.0865904483561906
 51
245.4952479960197991
  0
ARC
  5
11EB4
  8
0
 10
4267.3828297136806214
 20
229.216634760511397
 30
0.0
 40
0.0527102664657915
 50
245.4952479960197991
 51
304.0243467469575194
  0
ARC
  5
11EB5
  8
0
 10
4267.400075915547859
 20
229.1910896362819017
 30
0.0
 40
0.0218884422048158
 50
304.0243467469566099
 51
1.075766273375963
  0
ARC
  5
11EB6
  8
0
 10
4267.3835741338452863
 20
229.1943898353057989
 30
0.0
 40
0.019905673470146
 50
229.9318878468089054
 51
303.5657576976340124
  0
ARC
  5
11EB7
  8
0
 10
4267.3906487345566347
 20
229.1837278864942959
 30
0.0
 40
0.0071100833039566
 50
303.5657576976340124
 51
41.4767659004503173
  0
ARC
  5
11EB8
  8
0
 10
4267.3836043899036667
 20
229.1740648416813997
 30
0.0
 40
0.0189634011038479
 50
49.2785211073383422
 51
136.6121064793881033
  0
ARC
  5
11EB9
  8
0
 10
4267.3746815190388588
 20
229.1836425802515862
 30
0.0
 40
0.0059579248952131
 50
144.6288741363873953
 51
228.8485328626626085
  0
ARC
  5
11EBA
  8
0
 10
4267.4885479983531695
 20
227.4599334121625986
 30
0.0
 40
0.0402406145436199
 50
223.4802080380887048
 51
333.026336194601015
  0
ARC
  5
11EBB
  8
0
 10
4267.4703761786522591
 20
227.4668452593730024
 30
0.0
 40
0.0363162402493638
 50
219.854343001672305
 51
252.3233164924976109
  0
ARC
  5
11EBC
  8
0
 10
4267.4619617693515465
 20
227.4598211063760971
 30
0.0
 40
0.0253553548300559
 50
154.4351437346701914
 51
219.8543430016711113
  0
ARC
  5
11EBD
  8
0
 10
4267.4965463174758042
 20
227.4331683084139968
 30
0.0
 40
0.0686637678620712
 50
96.3521716647441053
 51
146.8032870501978095
  0
ARC
  5
11EBE
  8
0
 10
4267.5000117642712212
 20
227.4289208254205903
 30
0.0
 40
0.0733289311646425
 50
65.206521111647092
 51
98.6767347200523659
  0
ARC
  5
11EBF
  8
0
 10
4267.5179557012888836
 20
227.4784715497766001
 30
0.0
 40
0.0212992048301814
 50
334.9301539189179948
 51
53.039473042163209
  0
ARC
  5
11EC0
  8
0
 10
4267.489575242495448
 20
227.4871366433160063
 30
0.0
 40
0.0508494150872117
 50
315.3658403685795975
 51
339.6416291494082884
  0
ARC
  5
11EC1
  8
0
 10
4267.4895790418240722
 20
227.4533482145212986
 30
0.0
 40
0.0233240017534245
 50
236.2571464301541084
 51
319.0582873860869881
  0
ARC
  5
11EC2
  8
0
 10
4267.4808237257529981
 20
227.440241419353697
 30
0.0
 40
0.0075619067444839
 50
136.2959388831237959
 51
236.2571464301531989
  0
ARC
  5
11EC3
  8
0
 10
4267.4920525355410064
 20
227.4295094128243022
 30
0.0
 40
0.0230945218957135
 50
49.3440975113741871
 51
136.2959388831237959
  0
ARC
  5
11EC4
  8
0
 10
4267.5008646923042761
 20
227.4424779509517123
 30
0.0
 40
0.0077191262072953
 50
325.124642329088374
 51
36.1341486893695318
  0
LINE
  5
11EC5
  8
0
 10
4267.5244110420007928
 20
227.4416810380940035
 30
0.0
 11
4267.5317606756743771
 21
227.4946912541082895
 31
0.0
  0
LINE
  5
11EC6
  8
0
 10
4267.4593489211492852
 20
227.4322436857409002
 30
0.0
 11
4267.4425774629507941
 21
227.4756191712831139
 31
0.0
  0
ARC
  5
11EC7
  8
0
 10
4267.6114537818975805
 20
227.5351869969487097
 30
0.0
 40
0.0253685297760163
 50
296.4551543467590022
 51
355.803360505546209
  0
ARC
  5
11EC8
  8
0
 10
4267.5963475913877119
 20
227.5560030853337992
 30
0.0
 40
0.0509123585996696
 50
255.3235919348011862
 51
301.2445102802383872
  0
ARC
  5
11EC9
  8
0
 10
4267.5902070423408077
 20
227.529545127236986
 30
0.0
 40
0.0237741520347882
 50
209.2266463545533952
 51
253.4840033343135133
  0
ARC
  5
11ECA
  8
0
 10
4267.5999333794070481
 20
227.5394481727682887
 30
0.0
 40
0.0237073257377576
 50
241.5180932431082113
 51
320.4743316322324063
  0
ARC
  5
11ECB
  8
0
 10
4267.5922781903373107
 20
227.5253384446934888
 30
0.0
 40
0.0076547139242154
 50
145.7646984517313911
 51
241.5180932431090071
  0
ARC
  5
11ECC
  8
0
 10
4267.6052611562836319
 20
227.5165035316155979
 30
0.0
 40
0.0233586336223295
 50
62.411564632705911
 51
145.7646984517313911
  0
ARC
  5
11ECD
  8
0
 10
4267.6123004897499413
 20
227.5299751566683994
 30
0.0
 40
0.008158735688514
 50
316.5117308152164242
 51
62.411564632705911
  0
ARC
  5
11ECE
  8
0
 10
4267.5711417477286886
 20
227.5425221943461906
 30
0.0
 40
0.0284727300035069
 50
223.0095479255413977
 51
272.0514657789744888
  0
ARC
  5
11ECF
  8
0
 10
4267.5662202271096248
 20
227.5379312685703894
 30
0.0
 40
0.0217423537368783
 50
153.1888594006194921
 51
223.0095479255413977
  0
ARC
  5
11ED0
  8
0
 10
4267.6233429177163998
 20
227.5090625788529053
 30
0.0
 40
0.0857455023164084
 50
109.9385236389688032
 51
153.1888594006194921
  0
ARC
  5
11ED1
  8
0
 10
4267.635323290011911
 20
227.4923601435127978
 30
0.0
 40
0.1056789324738485
 50
91.904313047453698
 51
112.9579187000144032
  0
ARC
  5
11ED2
  8
0
 10
4267.6332988843751082
 20
227.5807154833431127
 30
0.0
 40
0.0173291749622021
 50
8.9769308989981962
 51
94.9237081084980332
  0
ARC
  5
11ED3
  8
0
 10
4267.5961438897184053
 20
227.5864064863843055
 30
0.0
 40
0.0543540462345484
 50
319.0009537345645185
 51
356.8497362809368951
  0
ARC
  5
11ED4
  8
0
 10
4267.5799965971518759
 20
227.6101758140061122
 30
0.0
 40
0.0728973003692405
 50
322.0915115680811027
 51
341.8406760756068934
  0
ARC
  5
11ED5
  8
0
 10
4267.5692135221979697
 20
227.5561923021365089
 30
0.0
 40
0.025037215803664
 50
203.0948933317783087
 51
253.6082017401527082
  0
ARC
  5
11ED6
  8
0
 10
4267.4666975863474363
 20
227.4769968772945106
 30
0.0
 40
0.0308826907968024
 50
199.4000559042939926
 51
243.0185517991477013
  0
ARC
  5
11ED7
  8
0
 10
4267.4920656925387448
 20
227.499318612675296
 30
0.0
 40
0.0483011988544906
 50
317.9178626769938205
 51
342.8224192454774197
  0
LINE
  5
11ED8
  8
0
 10
4267.569459456455661
 20
227.5179370272643951
 30
0.0
 11
4267.5506559861632923
 21
227.5545477538987882
 31
0.0
  0
LINE
  5
11ED9
  8
0
 10
4267.6367542928383045
 20
227.5333305354836
 30
0.0
 11
4267.638266821913021
 21
227.5973172875071953
 31
0.0
  0
ARC
  5
11EDA
  8
0
 10
4267.4885479983531695
 20
227.6009936407675127
 30
0.0
 40
0.0402406145436199
 50
223.4802080380887048
 51
333.026336194601015
  0
ARC
  5
11EDB
  8
0
 10
4267.4703761786522591
 20
227.6079054879780017
 30
0.0
 40
0.0363162402493638
 50
219.854343001672305
 51
252.3233164924976109
  0
ARC
  5
11EDC
  8
0
 10
4267.4619617693515465
 20
227.6008813349810964
 30
0.0
 40
0.0253553548300559
 50
154.4351437346701914
 51
219.8543430016711113
  0
ARC
  5
11EDD
  8
0
 10
4267.4965463174758042
 20
227.5742285370189109
 30
0.0
 40
0.0686637678620712
 50
96.3521716647441053
 51
146.8032870501978095
  0
ARC
  5
11EDE
  8
0
 10
4267.5000117642712212
 20
227.5699810540255896
 30
0.0
 40
0.0733289311646425
 50
65.206521111647092
 51
98.6767347200523659
  0
ARC
  5
11EDF
  8
0
 10
4267.5179557012888836
 20
227.6195317783815142
 30
0.0
 40
0.0212992048301814
 50
334.9301539189179948
 51
53.039473042163209
  0
ARC
  5
11EE0
  8
0
 10
4267.489575242495448
 20
227.6281968719210056
 30
0.0
 40
0.0508494150872117
 50
315.3658403685795975
 51
339.6416291494082884
  0
ARC
  5
11EE1
  8
0
 10
4267.4895790418240722
 20
227.5944084431262979
 30
0.0
 40
0.0233240017534245
 50
236.2571464301541084
 51
319.0582873860869881
  0
ARC
  5
11EE2
  8
0
 10
4267.4808237257529981
 20
227.5813016479586111
 30
0.0
 40
0.0075619067444839
 50
136.2959388831237959
 51
236.2571464301531989
  0
ARC
  5
11EE3
  8
0
 10
4267.4920525355410064
 20
227.5705696414291879
 30
0.0
 40
0.0230945218957135
 50
49.3440975113741871
 51
136.2959388831237959
  0
ARC
  5
11EE4
  8
0
 10
4267.5008646923042761
 20
227.5835381795565979
 30
0.0
 40
0.0077191262072953
 50
325.124642329088374
 51
36.1341486893695318
  0
LINE
  5
11EE5
  8
0
 10
4267.5244110420007928
 20
227.5827412666988891
 30
0.0
 11
4267.5317606756743771
 21
227.6357514827132036
 31
0.0
  0
LINE
  5
11EE6
  8
0
 10
4267.4593489211492852
 20
227.5733039143457859
 30
0.0
 11
4267.4425774629507941
 21
227.6166793998881133
 31
0.0
  0
ARC
  5
11EE7
  8
0
 10
4267.4666975863474363
 20
227.6180571058993962
 30
0.0
 40
0.0308826907968024
 50
199.4000559042939926
 51
243.0185517991477013
  0
ARC
  5
11EE8
  8
0
 10
4267.4920656925387448
 20
227.6403788412802953
 30
0.0
 40
0.0483011988544906
 50
317.9178626769938205
 51
342.8224192454774197
  0
ARC
  5
11EE9
  8
0
 10
4267.4885479983531695
 20
227.742294733282705
 30
0.0
 40
0.0402406145436199
 50
223.4802080380887048
 51
333.026336194601015
  0
ARC
  5
11EEA
  8
0
 10
4267.4703761786522591
 20
227.749206580493194
 30
0.0
 40
0.0363162402493638
 50
219.854343001672305
 51
252.3233164924976109
  0
ARC
  5
11EEB
  8
0
 10
4267.4619617693515465
 20
227.7421824274962887
 30
0.0
 40
0.0253553548300559
 50
154.4351437346701914
 51
219.8543430016711113
  0
ARC
  5
11EEC
  8
0
 10
4267.4965463174758042
 20
227.7155296295341884
 30
0.0
 40
0.0686637678620712
 50
96.3521716647441053
 51
146.8032870501978095
  0
ARC
  5
11EED
  8
0
 10
4267.5000117642712212
 20
227.7112821465408103
 30
0.0
 40
0.0733289311646425
 50
65.206521111647092
 51
98.6767347200523659
  0
ARC
  5
11EEE
  8
0
 10
4267.5179557012888836
 20
227.7608328708967065
 30
0.0
 40
0.0212992048301814
 50
334.9301539189179948
 51
53.039473042163209
  0
ARC
  5
11EEF
  8
0
 10
4267.489575242495448
 20
227.7694979644361979
 30
0.0
 40
0.0508494150872117
 50
315.3658403685795975
 51
339.6416291494082884
  0
ARC
  5
11EF0
  8
0
 10
4267.4895790418240722
 20
227.7357095356414902
 30
0.0
 40
0.0233240017534245
 50
236.2571464301541084
 51
319.0582873860869881
  0
ARC
  5
11EF1
  8
0
 10
4267.4808237257529981
 20
227.7226027404738886
 30
0.0
 40
0.0075619067444839
 50
136.2959388831237959
 51
236.2571464301531989
  0
ARC
  5
11EF2
  8
0
 10
4267.4920525355410064
 20
227.7118707339444086
 30
0.0
 40
0.0230945218957135
 50
49.3440975113741871
 51
136.2959388831237959
  0
ARC
  5
11EF3
  8
0
 10
4267.5008646923042761
 20
227.7248392720717902
 30
0.0
 40
0.0077191262072953
 50
325.124642329088374
 51
36.1341486893695318
  0
LINE
  5
11EF4
  8
0
 10
4267.5244110420007928
 20
227.7240423592141099
 30
0.0
 11
4267.5317606756743771
 21
227.7770525752283959
 31
0.0
  0
LINE
  5
11EF5
  8
0
 10
4267.4593489211492852
 20
227.7146050068610066
 30
0.0
 11
4267.4425774629507941
 21
227.7579804924033056
 31
0.0
  0
ARC
  5
11EF6
  8
0
 10
4267.4666975863474363
 20
227.7593581984147022
 30
0.0
 40
0.0308826907968024
 50
199.4000559042939926
 51
243.0185517991477013
  0
ARC
  5
11EF7
  8
0
 10
4267.4920656925387448
 20
227.7816799337954876
 30
0.0
 40
0.0483011988544906
 50
317.9178626769938205
 51
342.8224192454774197
  0
ARC
  5
11EF8
  8
0
 10
4267.6114537818975805
 20
227.6800059537953018
 30
0.0
 40
0.0253685297760163
 50
296.4551543467590022
 51
355.803360505546209
  0
ARC
  5
11EF9
  8
0
 10
4267.5963475913877119
 20
227.700822042180306
 30
0.0
 40
0.0509123585996696
 50
255.3235919348011862
 51
301.2445102802383872
  0
ARC
  5
11EFA
  8
0
 10
4267.5902070423408077
 20
227.6743640840836065
 30
0.0
 40
0.0237741520347882
 50
209.2266463545533952
 51
253.4840033343135133
  0
ARC
  5
11EFB
  8
0
 10
4267.5999333794070481
 20
227.6842671296149092
 30
0.0
 40
0.0237073257377576
 50
241.5180932431082113
 51
320.4743316322324063
  0
ARC
  5
11EFC
  8
0
 10
4267.5922781903373107
 20
227.6701574015401093
 30
0.0
 40
0.0076547139242154
 50
145.7646984517313911
 51
241.5180932431090071
  0
ARC
  5
11EFD
  8
0
 10
4267.6052611562836319
 20
227.66132248846219
 30
0.0
 40
0.0233586336223295
 50
62.411564632705911
 51
145.7646984517313911
  0
ARC
  5
11EFE
  8
0
 10
4267.6123004897499413
 20
227.6747941135149915
 30
0.0
 40
0.008158735688514
 50
316.5117308152164242
 51
62.411564632705911
  0
ARC
  5
11EFF
  8
0
 10
4267.5711417477286886
 20
227.6873411511928111
 30
0.0
 40
0.0284727300035069
 50
223.0095479255413977
 51
272.0514657789744888
  0
ARC
  5
11F00
  8
0
 10
4267.5662202271096248
 20
227.6827502254168962
 30
0.0
 40
0.0217423537368783
 50
153.1888594006194921
 51
223.0095479255413977
  0
ARC
  5
11F01
  8
0
 10
4267.6233429177163998
 20
227.6538815356994121
 30
0.0
 40
0.0857455023164084
 50
109.9385236389688032
 51
153.1888594006194921
  0
ARC
  5
11F02
  8
0
 10
4267.635323290011911
 20
227.6371791003593046
 30
0.0
 40
0.1056789324738485
 50
91.904313047453698
 51
112.9579187000144032
  0
ARC
  5
11F03
  8
0
 10
4267.6332988843751082
 20
227.7255344401897048
 30
0.0
 40
0.0173291749622021
 50
8.9769308989981962
 51
94.9237081084980332
  0
ARC
  5
11F04
  8
0
 10
4267.5961438897184053
 20
227.7312254432308976
 30
0.0
 40
0.0543540462345484
 50
319.0009537345645185
 51
356.8497362809368951
  0
ARC
  5
11F05
  8
0
 10
4267.5799965971518759
 20
227.7549947708525906
 30
0.0
 40
0.0728973003692405
 50
322.0915115680811027
 51
341.8406760756068934
  0
ARC
  5
11F06
  8
0
 10
4267.5692135221979697
 20
227.7010112589829873
 30
0.0
 40
0.025037215803664
 50
203.0948933317783087
 51
253.6082017401527082
  0
LINE
  5
11F07
  8
0
 10
4267.569459456455661
 20
227.6627559841109019
 30
0.0
 11
4267.5506559861632923
 21
227.699366710745295
 31
0.0
  0
LINE
  5
11F08
  8
0
 10
4267.6367542928383045
 20
227.6781494923301921
 30
0.0
 11
4267.638266821913021
 21
227.7421362443537873
 31
0.0
  0
ARC
  5
11F09
  8
0
 10
4267.4885479983531695
 20
227.879872757927501
 30
0.0
 40
0.0402406145436199
 50
223.4802080380887048
 51
333.026336194601015
  0
ARC
  5
11F0A
  8
0
 10
4267.4703761786522591
 20
227.88678460513799
 30
0.0
 40
0.0363162402493638
 50
219.854343001672305
 51
252.3233164924976109
  0
ARC
  5
11F0B
  8
0
 10
4267.4619617693515465
 20
227.8797604521409994
 30
0.0
 40
0.0253553548300559
 50
154.4351437346701914
 51
219.8543430016711113
  0
ARC
  5
11F0C
  8
0
 10
4267.4965463174758042
 20
227.8531076541788991
 30
0.0
 40
0.0686637678620712
 50
96.3521716647441053
 51
146.8032870501978095
  0
ARC
  5
11F0D
  8
0
 10
4267.5000117642712212
 20
227.8488601711856063
 30
0.0
 40
0.0733289311646425
 50
65.206521111647092
 51
98.6767347200523659
  0
ARC
  5
11F0E
  8
0
 10
4267.5179557012888836
 20
227.8984108955415024
 30
0.0
 40
0.0212992048301814
 50
334.9301539189179948
 51
53.039473042163209
  0
ARC
  5
11F0F
  8
0
 10
4267.489575242495448
 20
227.9070759890809938
 30
0.0
 40
0.0508494150872117
 50
315.3658403685795975
 51
339.6416291494082884
  0
ARC
  5
11F10
  8
0
 10
4267.4895790418240722
 20
227.8732875602862009
 30
0.0
 40
0.0233240017534245
 50
236.2571464301541084
 51
319.0582873860869881
  0
ARC
  5
11F11
  8
0
 10
4267.4808237257529981
 20
227.8601807651185993
 30
0.0
 40
0.0075619067444839
 50
136.2959388831237959
 51
236.2571464301531989
  0
ARC
  5
11F12
  8
0
 10
4267.4920525355410064
 20
227.8494487585892045
 30
0.0
 40
0.0230945218957135
 50
49.3440975113741871
 51
136.2959388831237959
  0
ARC
  5
11F13
  8
0
 10
4267.5008646923042761
 20
227.8624172967165862
 30
0.0
 40
0.0077191262072953
 50
325.124642329088374
 51
36.1341486893695318
  0
LINE
  5
11F14
  8
0
 10
4267.5244110420007928
 20
227.8616203838589058
 30
0.0
 11
4267.5317606756743771
 21
227.9146305998731918
 31
0.0
  0
LINE
  5
11F15
  8
0
 10
4267.4593489211492852
 20
227.8521830315058025
 30
0.0
 11
4267.4425774629507941
 21
227.8955585170481015
 31
0.0
  0
ARC
  5
11F16
  8
0
 10
4267.4666975863474363
 20
227.8969362230594129
 30
0.0
 40
0.0308826907968024
 50
199.4000559042939926
 51
243.0185517991477013
  0
ARC
  5
11F17
  8
0
 10
4267.4920656925387448
 20
227.919257958440312
 30
0.0
 40
0.0483011988544906
 50
317.9178626769938205
 51
342.8224192454774197
  0
ARC
  5
11F18
  8
0
 10
4267.6114537818975805
 20
227.8175839784400125
 30
0.0
 40
0.0253685297760163
 50
296.4551543467590022
 51
355.803360505546209
  0
ARC
  5
11F19
  8
0
 10
4267.5963475913877119
 20
227.8384000668251019
 30
0.0
 40
0.0509123585996696
 50
255.3235919348011862
 51
301.2445102802383872
  0
ARC
  5
11F1A
  8
0
 10
4267.5902070423408077
 20
227.8119421087282888
 30
0.0
 40
0.0237741520347882
 50
209.2266463545533952
 51
253.4840033343135133
  0
ARC
  5
11F1B
  8
0
 10
4267.5999333794070481
 20
227.8218451542595915
 30
0.0
 40
0.0237073257377576
 50
241.5180932431082113
 51
320.4743316322324063
  0
ARC
  5
11F1C
  8
0
 10
4267.5922781903373107
 20
227.8077354261847915
 30
0.0
 40
0.0076547139242154
 50
145.7646984517313911
 51
241.5180932431090071
  0
ARC
  5
11F1D
  8
0
 10
4267.6052611562836319
 20
227.7989005131069007
 30
0.0
 40
0.0233586336223295
 50
62.411564632705911
 51
145.7646984517313911
  0
ARC
  5
11F1E
  8
0
 10
4267.6123004897499413
 20
227.8123721381597022
 30
0.0
 40
0.008158735688514
 50
316.5117308152164242
 51
62.411564632705911
  0
ARC
  5
11F1F
  8
0
 10
4267.5711417477286886
 20
227.8249191758374934
 30
0.0
 40
0.0284727300035069
 50
223.0095479255413977
 51
272.0514657789744888
  0
ARC
  5
11F20
  8
0
 10
4267.5662202271096248
 20
227.8203282500616922
 30
0.0
 40
0.0217423537368783
 50
153.1888594006194921
 51
223.0095479255413977
  0
ARC
  5
11F21
  8
0
 10
4267.6233429177163998
 20
227.7914595603442081
 30
0.0
 40
0.0857455023164084
 50
109.9385236389688032
 51
153.1888594006194921
  0
ARC
  5
11F22
  8
0
 10
4267.635323290011911
 20
227.7747571250041005
 30
0.0
 40
0.1056789324738485
 50
91.904313047453698
 51
112.9579187000144032
  0
ARC
  5
11F23
  8
0
 10
4267.6332988843751082
 20
227.8631124648343871
 30
0.0
 40
0.0173291749622021
 50
8.9769308989981962
 51
94.9237081084980332
  0
ARC
  5
11F24
  8
0
 10
4267.5961438897184053
 20
227.8688034678756935
 30
0.0
 40
0.0543540462345484
 50
319.0009537345645185
 51
356.8497362809368951
  0
ARC
  5
11F25
  8
0
 10
4267.5799965971518759
 20
227.8925727954973866
 30
0.0
 40
0.0728973003692405
 50
322.0915115680811027
 51
341.8406760756068934
  0
ARC
  5
11F26
  8
0
 10
4267.5692135221979697
 20
227.8385892836278117
 30
0.0
 40
0.025037215803664
 50
203.0948933317783087
 51
253.6082017401527082
  0
LINE
  5
11F27
  8
0
 10
4267.569459456455661
 20
227.8003340087556978
 30
0.0
 11
4267.5506559861632923
 21
227.836944735390091
 31
0.0
  0
LINE
  5
11F28
  8
0
 10
4267.6367542928383045
 20
227.8157275169749028
 30
0.0
 11
4267.638266821913021
 21
227.879714268998498
 31
0.0
  0
ARC
  5
11F29
  8
0
 10
4267.4885479983531695
 20
228.0275896673466889
 30
0.0
 40
0.0402406145436199
 50
223.4802080380887048
 51
333.026336194601015
  0
ARC
  5
11F2A
  8
0
 10
4267.4703761786522591
 20
228.0345015145570926
 30
0.0
 40
0.0363162402493638
 50
219.854343001672305
 51
252.3233164924976109
  0
ARC
  5
11F2B
  8
0
 10
4267.4619617693515465
 20
228.0274773615601873
 30
0.0
 40
0.0253553548300559
 50
154.4351437346701914
 51
219.8543430016711113
  0
ARC
  5
11F2C
  8
0
 10
4267.4965463174758042
 20
228.000824563598087
 30
0.0
 40
0.0686637678620712
 50
96.3521716647441053
 51
146.8032870501978095
  0
ARC
  5
11F2D
  8
0
 10
4267.5000117642712212
 20
227.9965770806047942
 30
0.0
 40
0.0733289311646425
 50
65.206521111647092
 51
98.6767347200523659
  0
ARC
  5
11F2E
  8
0
 10
4267.5179557012888836
 20
228.0461278049606904
 30
0.0
 40
0.0212992048301814
 50
334.9301539189179948
 51
53.039473042163209
  0
ARC
  5
11F2F
  8
0
 10
4267.489575242495448
 20
228.0547928985000965
 30
0.0
 40
0.0508494150872117
 50
315.3658403685795975
 51
339.6416291494082884
  0
ARC
  5
11F30
  8
0
 10
4267.4895790418240722
 20
228.0210044697053888
 30
0.0
 40
0.0233240017534245
 50
236.2571464301541084
 51
319.0582873860869881
  0
ARC
  5
11F31
  8
0
 10
4267.4808237257529981
 20
228.0078976745377872
 30
0.0
 40
0.0075619067444839
 50
136.2959388831237959
 51
236.2571464301531989
  0
ARC
  5
11F32
  8
0
 10
4267.4920525355410064
 20
227.9971656680083925
 30
0.0
 40
0.0230945218957135
 50
49.3440975113741871
 51
136.2959388831237959
  0
ARC
  5
11F33
  8
0
 10
4267.5008646923042761
 20
228.0101342061358025
 30
0.0
 40
0.0077191262072953
 50
325.124642329088374
 51
36.1341486893695318
  0
LINE
  5
11F34
  8
0
 10
4267.5244110420007928
 20
228.0093372932780937
 30
0.0
 11
4267.5317606756743771
 21
228.0623475092922945
 31
0.0
  0
LINE
  5
11F35
  8
0
 10
4267.4593489211492852
 20
227.9998999409249052
 30
0.0
 11
4267.4425774629507941
 21
228.0432754264672042
 31
0.0
  0
ARC
  5
11F36
  8
0
 10
4267.4666975863474363
 20
228.0446531324786008
 30
0.0
 40
0.0308826907968024
 50
199.4000559042939926
 51
243.0185517991477013
  0
ARC
  5
11F37
  8
0
 10
4267.4920656925387448
 20
228.0669748678593862
 30
0.0
 40
0.0483011988544906
 50
317.9178626769938205
 51
342.8224192454774197
  0
ARC
  5
11F38
  8
0
 10
4267.6114537818975805
 20
227.9653008878592004
 30
0.0
 40
0.0253685297760163
 50
296.4551543467590022
 51
355.803360505546209
  0
ARC
  5
11F39
  8
0
 10
4267.5963475913877119
 20
227.9861169762442898
 30
0.0
 40
0.0509123585996696
 50
255.3235919348011862
 51
301.2445102802383872
  0
ARC
  5
11F3A
  8
0
 10
4267.5902070423408077
 20
227.9596590181475051
 30
0.0
 40
0.0237741520347882
 50
209.2266463545533952
 51
253.4840033343135133
  0
ARC
  5
11F3B
  8
0
 10
4267.5999333794070481
 20
227.9695620636788078
 30
0.0
 40
0.0237073257377576
 50
241.5180932431082113
 51
320.4743316322324063
  0
ARC
  5
11F3C
  8
0
 10
4267.5922781903373107
 20
227.9554523356040079
 30
0.0
 40
0.0076547139242154
 50
145.7646984517313911
 51
241.5180932431090071
  0
ARC
  5
11F3D
  8
0
 10
4267.6052611562836319
 20
227.9466174225260886
 30
0.0
 40
0.0233586336223295
 50
62.411564632705911
 51
145.7646984517313911
  0
ARC
  5
11F3E
  8
0
 10
4267.6123004897499413
 20
227.9600890475788901
 30
0.0
 40
0.008158735688514
 50
316.5117308152164242
 51
62.411564632705911
  0
ARC
  5
11F3F
  8
0
 10
4267.5711417477286886
 20
227.9726360852567097
 30
0.0
 40
0.0284727300035069
 50
223.0095479255413977
 51
272.0514657789744888
  0
ARC
  5
11F40
  8
0
 10
4267.5662202271096248
 20
227.9680451594809085
 30
0.0
 40
0.0217423537368783
 50
153.1888594006194921
 51
223.0095479255413977
  0
ARC
  5
11F41
  8
0
 10
4267.6233429177163998
 20
227.939176469763396
 30
0.0
 40
0.0857455023164084
 50
109.9385236389688032
 51
153.1888594006194921
  0
ARC
  5
11F42
  8
0
 10
4267.635323290011911
 20
227.9224740344232885
 30
0.0
 40
0.1056789324738485
 50
91.904313047453698
 51
112.9579187000144032
  0
ARC
  5
11F43
  8
0
 10
4267.6332988843751082
 20
228.0108293742536034
 30
0.0
 40
0.0173291749622021
 50
8.9769308989981962
 51
94.9237081084980332
  0
ARC
  5
11F44
  8
0
 10
4267.5961438897184053
 20
228.0165203772947962
 30
0.0
 40
0.0543540462345484
 50
319.0009537345645185
 51
356.8497362809368951
  0
ARC
  5
11F45
  8
0
 10
4267.5799965971518759
 20
228.0402897049166029
 30
0.0
 40
0.0728973003692405
 50
322.0915115680811027
 51
341.8406760756068934
  0
ARC
  5
11F46
  8
0
 10
4267.5692135221979697
 20
227.9863061930469996
 30
0.0
 40
0.025037215803664
 50
203.0948933317783087
 51
253.6082017401527082
  0
LINE
  5
11F47
  8
0
 10
4267.569459456455661
 20
227.9480509181749142
 30
0.0
 11
4267.5506559861632923
 21
227.9846616448093073
 31
0.0
  0
LINE
  5
11F48
  8
0
 10
4267.6367542928383045
 20
227.9634444263940907
 30
0.0
 11
4267.638266821913021
 21
228.0274311784176859
 31
0.0
  0
ARC
  5
11F49
  8
0
 10
4267.4885479983531695
 20
228.1636956068462041
 30
0.0
 40
0.0402406145436199
 50
223.4802080380887048
 51
333.026336194601015
  0
ARC
  5
11F4A
  8
0
 10
4267.4703761786522591
 20
228.1706074540566931
 30
0.0
 40
0.0363162402493638
 50
219.854343001672305
 51
252.3233164924976109
  0
ARC
  5
11F4B
  8
0
 10
4267.4619617693515465
 20
228.1635833010597025
 30
0.0
 40
0.0253553548300559
 50
154.4351437346701914
 51
219.8543430016711113
  0
ARC
  5
11F4C
  8
0
 10
4267.4965463174758042
 20
228.1369305030976022
 30
0.0
 40
0.0686637678620712
 50
96.3521716647441053
 51
146.8032870501978095
  0
ARC
  5
11F4D
  8
0
 10
4267.5000117642712212
 20
228.1326830201043094
 30
0.0
 40
0.0733289311646425
 50
65.206521111647092
 51
98.6767347200523659
  0
ARC
  5
11F4E
  8
0
 10
4267.5179557012888836
 20
228.1822337444602056
 30
0.0
 40
0.0212992048301814
 50
334.9301539189179948
 51
53.039473042163209
  0
ARC
  5
11F4F
  8
0
 10
4267.489575242495448
 20
228.190898837999697
 30
0.0
 40
0.0508494150872117
 50
315.3658403685795975
 51
339.6416291494082884
  0
ARC
  5
11F50
  8
0
 10
4267.4895790418240722
 20
228.1571104092049893
 30
0.0
 40
0.0233240017534245
 50
236.2571464301541084
 51
319.0582873860869881
  0
ARC
  5
11F51
  8
0
 10
4267.4808237257529981
 20
228.1440036140373024
 30
0.0
 40
0.0075619067444839
 50
136.2959388831237959
 51
236.2571464301531989
  0
ARC
  5
11F52
  8
0
 10
4267.4920525355410064
 20
228.1332716075079077
 30
0.0
 40
0.0230945218957135
 50
49.3440975113741871
 51
136.2959388831237959
  0
ARC
  5
11F53
  8
0
 10
4267.5008646923042761
 20
228.1462401456352893
 30
0.0
 40
0.0077191262072953
 50
325.124642329088374
 51
36.1341486893695318
  0
LINE
  5
11F54
  8
0
 10
4267.5244110420007928
 20
228.145443232777609
 30
0.0
 11
4267.5317606756743771
 21
228.198453448791895
 31
0.0
  0
LINE
  5
11F55
  8
0
 10
4267.4593489211492852
 20
228.1360058804245057
 30
0.0
 11
4267.4425774629507941
 21
228.1793813659668047
 31
0.0
  0
ARC
  5
11F56
  8
0
 10
4267.4666975863474363
 20
228.1807590719782013
 30
0.0
 40
0.0308826907968024
 50
199.4000559042939926
 51
243.0185517991477013
  0
ARC
  5
11F57
  8
0
 10
4267.4920656925387448
 20
228.2030808073589867
 30
0.0
 40
0.0483011988544906
 50
317.9178626769938205
 51
342.8224192454774197
  0
ARC
  5
11F58
  8
0
 10
4267.6114537818975805
 20
228.1014068273586872
 30
0.0
 40
0.0253685297760163
 50
296.4551543467590022
 51
355.803360505546209
  0
ARC
  5
11F59
  8
0
 10
4267.5963475913877119
 20
228.1222229157438051
 30
0.0
 40
0.0509123585996696
 50
255.3235919348011862
 51
301.2445102802383872
  0
ARC
  5
11F5A
  8
0
 10
4267.5902070423408077
 20
228.0957649576469919
 30
0.0
 40
0.0237741520347882
 50
209.2266463545533952
 51
253.4840033343135133
  0
ARC
  5
11F5B
  8
0
 10
4267.5999333794070481
 20
228.1056680031782946
 30
0.0
 40
0.0237073257377576
 50
241.5180932431082113
 51
320.4743316322324063
  0
ARC
  5
11F5C
  8
0
 10
4267.5922781903373107
 20
228.0915582751036084
 30
0.0
 40
0.0076547139242154
 50
145.7646984517313911
 51
241.5180932431090071
  0
ARC
  5
11F5D
  8
0
 10
4267.6052611562836319
 20
228.0827233620256038
 30
0.0
 40
0.0233586336223295
 50
62.411564632705911
 51
145.7646984517313911
  0
ARC
  5
11F5E
  8
0
 10
4267.6123004897499413
 20
228.0961949870784053
 30
0.0
 40
0.008158735688514
 50
316.5117308152164242
 51
62.411564632705911
  0
ARC
  5
11F5F
  8
0
 10
4267.5711417477286886
 20
228.1087420247561965
 30
0.0
 40
0.0284727300035069
 50
223.0095479255413977
 51
272.0514657789744888
  0
ARC
  5
11F60
  8
0
 10
4267.5662202271096248
 20
228.1041510989803953
 30
0.0
 40
0.0217423537368783
 50
153.1888594006194921
 51
223.0095479255413977
  0
ARC
  5
11F61
  8
0
 10
4267.6233429177163998
 20
228.0752824092629112
 30
0.0
 40
0.0857455023164084
 50
109.9385236389688032
 51
153.1888594006194921
  0
ARC
  5
11F62
  8
0
 10
4267.635323290011911
 20
228.0585799739228037
 30
0.0
 40
0.1056789324738485
 50
91.904313047453698
 51
112.9579187000144032
  0
ARC
  5
11F63
  8
0
 10
4267.6332988843751082
 20
228.1469353137530902
 30
0.0
 40
0.0173291749622021
 50
8.9769308989981962
 51
94.9237081084980332
  0
ARC
  5
11F64
  8
0
 10
4267.5961438897184053
 20
228.1526263167943114
 30
0.0
 40
0.0543540462345484
 50
319.0009537345645185
 51
356.8497362809368951
  0
ARC
  5
11F65
  8
0
 10
4267.5799965971518759
 20
228.1763956444160897
 30
0.0
 40
0.0728973003692405
 50
322.0915115680811027
 51
341.8406760756068934
  0
ARC
  5
11F66
  8
0
 10
4267.5692135221979697
 20
228.1224121325464864
 30
0.0
 40
0.025037215803664
 50
203.0948933317783087
 51
253.6082017401527082
  0
LINE
  5
11F67
  8
0
 10
4267.569459456455661
 20
228.084156857674401
 30
0.0
 11
4267.5506559861632923
 21
228.1207675843087941
 31
0.0
  0
LINE
  5
11F68
  8
0
 10
4267.6367542928383045
 20
228.0995503658936059
 30
0.0
 11
4267.638266821913021
 21
228.1635371179172012
 31
0.0
  0
ARC
  5
11F69
  8
0
 10
4267.4885479983531695
 20
228.3061404119225131
 30
0.0
 40
0.0402406145436199
 50
223.4802080380887048
 51
333.026336194601015
  0
ARC
  5
11F6A
  8
0
 10
4267.4703761786522591
 20
228.3130522591328884
 30
0.0
 40
0.0363162402493638
 50
219.854343001672305
 51
252.3233164924976109
  0
ARC
  5
11F6B
  8
0
 10
4267.4619617693515465
 20
228.3060281061360115
 30
0.0
 40
0.0253553548300559
 50
154.4351437346701914
 51
219.8543430016711113
  0
ARC
  5
11F6C
  8
0
 10
4267.4965463174758042
 20
228.2793753081739112
 30
0.0
 40
0.0686637678620712
 50
96.3521716647441053
 51
146.8032870501978095
  0
ARC
  5
11F6D
  8
0
 10
4267.5000117642712212
 20
228.27512782518059
 30
0.0
 40
0.0733289311646425
 50
65.206521111647092
 51
98.6767347200523659
  0
ARC
  5
11F6E
  8
0
 10
4267.5179557012888836
 20
228.3246785495364009
 30
0.0
 40
0.0212992048301814
 50
334.9301539189179948
 51
53.039473042163209
  0
ARC
  5
11F6F
  8
0
 10
4267.489575242495448
 20
228.3333436430758923
 30
0.0
 40
0.0508494150872117
 50
315.3658403685795975
 51
339.6416291494082884
  0
ARC
  5
11F70
  8
0
 10
4267.4895790418240722
 20
228.299555214281213
 30
0.0
 40
0.0233240017534245
 50
236.2571464301541084
 51
319.0582873860869881
  0
ARC
  5
11F71
  8
0
 10
4267.4808237257529981
 20
228.2864484191136114
 30
0.0
 40
0.0075619067444839
 50
136.2959388831237959
 51
236.2571464301531989
  0
ARC
  5
11F72
  8
0
 10
4267.4920525355410064
 20
228.2757164125841882
 30
0.0
 40
0.0230945218957135
 50
49.3440975113741871
 51
136.2959388831237959
  0
ARC
  5
11F73
  8
0
 10
4267.5008646923042761
 20
228.2886849507115983
 30
0.0
 40
0.0077191262072953
 50
325.124642329088374
 51
36.1341486893695318
  0
LINE
  5
11F74
  8
0
 10
4267.5244110420007928
 20
228.2878880378538895
 30
0.0
 11
4267.5317606756743771
 21
228.3408982538682039
 31
0.0
  0
LINE
  5
11F75
  8
0
 10
4267.4593489211492852
 20
228.278450685500701
 30
0.0
 11
4267.4425774629507941
 21
228.3218261710429999
 31
0.0
  0
ARC
  5
11F76
  8
0
 10
4267.4666975863474363
 20
228.3232038770543966
 30
0.0
 40
0.0308826907968024
 50
199.4000559042939926
 51
243.0185517991477013
  0
ARC
  5
11F77
  8
0
 10
4267.4920656925387448
 20
228.3455256124352104
 30
0.0
 40
0.0483011988544906
 50
317.9178626769938205
 51
342.8224192454774197
  0
ARC
  5
11F78
  8
0
 10
4267.6114537818975805
 20
228.2438516324349962
 30
0.0
 40
0.0253685297760163
 50
296.4551543467590022
 51
355.803360505546209
  0
ARC
  5
11F79
  8
0
 10
4267.5963475913877119
 20
228.264667720820114
 30
0.0
 40
0.0509123585996696
 50
255.3235919348011862
 51
301.2445102802383872
  0
ARC
  5
11F7A
  8
0
 10
4267.5902070423408077
 20
228.2382097627233009
 30
0.0
 40
0.0237741520347882
 50
209.2266463545533952
 51
253.4840033343135133
  0
ARC
  5
11F7B
  8
0
 10
4267.5999333794070481
 20
228.2481128082546036
 30
0.0
 40
0.0237073257377576
 50
241.5180932431082113
 51
320.4743316322324063
  0
ARC
  5
11F7C
  8
0
 10
4267.5922781903373107
 20
228.2340030801798036
 30
0.0
 40
0.0076547139242154
 50
145.7646984517313911
 51
241.5180932431090071
  0
ARC
  5
11F7D
  8
0
 10
4267.6052611562836319
 20
228.2251681671019128
 30
0.0
 40
0.0233586336223295
 50
62.411564632705911
 51
145.7646984517313911
  0
ARC
  5
11F7E
  8
0
 10
4267.6123004897499413
 20
228.2386397921546859
 30
0.0
 40
0.008158735688514
 50
316.5117308152164242
 51
62.411564632705911
  0
ARC
  5
11F7F
  8
0
 10
4267.5711417477286886
 20
228.2511868298325055
 30
0.0
 40
0.0284727300035069
 50
223.0095479255413977
 51
272.0514657789744888
  0
ARC
  5
11F80
  8
0
 10
4267.5662202271096248
 20
228.2465959040567043
 30
0.0
 40
0.0217423537368783
 50
153.1888594006194921
 51
223.0095479255413977
  0
ARC
  5
11F81
  8
0
 10
4267.6233429177163998
 20
228.2177272143391917
 30
0.0
 40
0.0857455023164084
 50
109.9385236389688032
 51
153.1888594006194921
  0
ARC
  5
11F82
  8
0
 10
4267.635323290011911
 20
228.201024778998999
 30
0.0
 40
0.1056789324738485
 50
91.904313047453698
 51
112.9579187000144032
  0
ARC
  5
11F83
  8
0
 10
4267.6332988843751082
 20
228.2893801188293139
 30
0.0
 40
0.0173291749622021
 50
8.9769308989981962
 51
94.9237081084980332
  0
ARC
  5
11F84
  8
0
 10
4267.5961438897184053
 20
228.2950711218705919
 30
0.0
 40
0.0543540462345484
 50
319.0009537345645185
 51
356.8497362809368951
  0
ARC
  5
11F85
  8
0
 10
4267.5799965971518759
 20
228.3188404494923986
 30
0.0
 40
0.0728973003692405
 50
322.0915115680811027
 51
341.8406760756068934
  0
ARC
  5
11F86
  8
0
 10
4267.5692135221979697
 20
228.2648569376227101
 30
0.0
 40
0.025037215803664
 50
203.0948933317783087
 51
253.6082017401527082
  0
LINE
  5
11F87
  8
0
 10
4267.569459456455661
 20
228.2266016627505962
 30
0.0
 11
4267.5506559861632923
 21
228.2632123893851031
 31
0.0
  0
LINE
  5
11F88
  8
0
 10
4267.6367542928383045
 20
228.2419951709698864
 30
0.0
 11
4267.638266821913021
 21
228.3059819229935101
 31
0.0
  0
ARC
  5
11F89
  8
0
 10
4267.4885479983531695
 20
228.4486779652447126
 30
0.0
 40
0.0402406145436199
 50
223.4802080380887048
 51
333.026336194601015
  0
ARC
  5
11F8A
  8
0
 10
4267.4703761786522591
 20
228.4555898124552016
 30
0.0
 40
0.0363162402493638
 50
219.854343001672305
 51
252.3233164924976109
  0
ARC
  5
11F8B
  8
0
 10
4267.4619617693515465
 20
228.4485656594582963
 30
0.0
 40
0.0253553548300559
 50
154.4351437346701914
 51
219.8543430016711113
  0
ARC
  5
11F8C
  8
0
 10
4267.4965463174758042
 20
228.421912861496196
 30
0.0
 40
0.0686637678620712
 50
96.3521716647441053
 51
146.8032870501978095
  0
ARC
  5
11F8D
  8
0
 10
4267.5000117642712212
 20
228.4176653785027895
 30
0.0
 40
0.0733289311646425
 50
65.206521111647092
 51
98.6767347200523659
  0
ARC
  5
11F8E
  8
0
 10
4267.5179557012888836
 20
228.4672161028587141
 30
0.0
 40
0.0212992048301814
 50
334.9301539189179948
 51
53.039473042163209
  0
ARC
  5
11F8F
  8
0
 10
4267.489575242495448
 20
228.4758811963982055
 30
0.0
 40
0.0508494150872117
 50
315.3658403685795975
 51
339.6416291494082884
  0
ARC
  5
11F90
  8
0
 10
4267.4895790418240722
 20
228.4420927676034125
 30
0.0
 40
0.0233240017534245
 50
236.2571464301541084
 51
319.0582873860869881
  0
ARC
  5
11F91
  8
0
 10
4267.4808237257529981
 20
228.4289859724358962
 30
0.0
 40
0.0075619067444839
 50
136.2959388831237959
 51
236.2571464301531989
  0
ARC
  5
11F92
  8
0
 10
4267.4920525355410064
 20
228.4182539659063877
 30
0.0
 40
0.0230945218957135
 50
49.3440975113741871
 51
136.2959388831237959
  0
ARC
  5
11F93
  8
0
 10
4267.5008646923042761
 20
228.4312225040337978
 30
0.0
 40
0.0077191262072953
 50
325.124642329088374
 51
36.1341486893695318
  0
LINE
  5
11F94
  8
0
 10
4267.5244110420007928
 20
228.430425591176089
 30
0.0
 11
4267.5317606756743771
 21
228.4834358071904035
 31
0.0
  0
LINE
  5
11F95
  8
0
 10
4267.4593489211492852
 20
228.4209882388230142
 30
0.0
 11
4267.4425774629507941
 21
228.4643637243653131
 31
0.0
  0
ARC
  5
11F96
  8
0
 10
4267.4666975863474363
 20
228.4657414303767098
 30
0.0
 40
0.0308826907968024
 50
199.4000559042939926
 51
243.0185517991477013
  0
ARC
  5
11F97
  8
0
 10
4267.4920656925387448
 20
228.4880631657574952
 30
0.0
 40
0.0483011988544906
 50
317.9178626769938205
 51
342.8224192454774197
  0
ARC
  5
11F98
  8
0
 10
4267.6114537818975805
 20
228.3863891857571957
 30
0.0
 40
0.0253685297760163
 50
296.4551543467590022
 51
355.803360505546209
  0
ARC
  5
11F99
  8
0
 10
4267.5963475913877119
 20
228.4072052741423136
 30
0.0
 40
0.0509123585996696
 50
255.3235919348011862
 51
301.2445102802383872
  0
ARC
  5
11F9A
  8
0
 10
4267.5902070423408077
 20
228.3807473160456141
 30
0.0
 40
0.0237741520347882
 50
209.2266463545533952
 51
253.4840033343135133
  0
ARC
  5
11F9B
  8
0
 10
4267.5999333794070481
 20
228.3906503615768031
 30
0.0
 40
0.0237073257377576
 50
241.5180932431082113
 51
320.4743316322324063
  0
ARC
  5
11F9C
  8
0
 10
4267.5922781903373107
 20
228.3765406335020884
 30
0.0
 40
0.0076547139242154
 50
145.7646984517313911
 51
241.5180932431090071
  0
ARC
  5
11F9D
  8
0
 10
4267.6052611562836319
 20
228.3677057204241123
 30
0.0
 40
0.0233586336223295
 50
62.411564632705911
 51
145.7646984517313911
  0
ARC
  5
11F9E
  8
0
 10
4267.6123004897499413
 20
228.3811773454769991
 30
0.0
 40
0.008158735688514
 50
316.5117308152164242
 51
62.411564632705911
  0
ARC
  5
11F9F
  8
0
 10
4267.5711417477286886
 20
228.3937243831547903
 30
0.0
 40
0.0284727300035069
 50
223.0095479255413977
 51
272.0514657789744888
  0
ARC
  5
11FA0
  8
0
 10
4267.5662202271096248
 20
228.3891334573789038
 30
0.0
 40
0.0217423537368783
 50
153.1888594006194921
 51
223.0095479255413977
  0
ARC
  5
11FA1
  8
0
 10
4267.6233429177163998
 20
228.3602647676613913
 30
0.0
 40
0.0857455023164084
 50
109.9385236389688032
 51
153.1888594006194921
  0
ARC
  5
11FA2
  8
0
 10
4267.635323290011911
 20
228.3435623323213122
 30
0.0
 40
0.1056789324738485
 50
91.904313047453698
 51
112.9579187000144032
  0
ARC
  5
11FA3
  8
0
 10
4267.6332988843751082
 20
228.4319176721515987
 30
0.0
 40
0.0173291749622021
 50
8.9769308989981962
 51
94.9237081084980332
  0
ARC
  5
11FA4
  8
0
 10
4267.5961438897184053
 20
228.4376086751929051
 30
0.0
 40
0.0543540462345484
 50
319.0009537345645185
 51
356.8497362809368951
  0
ARC
  5
11FA5
  8
0
 10
4267.5799965971518759
 20
228.4613780028145982
 30
0.0
 40
0.0728973003692405
 50
322.0915115680811027
 51
341.8406760756068934
  0
ARC
  5
11FA6
  8
0
 10
4267.5692135221979697
 20
228.4073944909449949
 30
0.0
 40
0.025037215803664
 50
203.0948933317783087
 51
253.6082017401527082
  0
LINE
  5
11FA7
  8
0
 10
4267.569459456455661
 20
228.3691392160729094
 30
0.0
 11
4267.5506559861632923
 21
228.4057499427073026
 31
0.0
  0
LINE
  5
11FA8
  8
0
 10
4267.6367542928383045
 20
228.384532724292086
 30
0.0
 11
4267.638266821913021
 21
228.4485194763157097
 31
0.0
  0
ARC
  5
11FA9
  8
0
 10
4267.4885479983531695
 20
228.5922823580033878
 30
0.0
 40
0.0402406145436199
 50
223.4802080380887048
 51
333.026336194601015
  0
ARC
  5
11FAA
  8
0
 10
4267.4703761786522591
 20
228.5991942052139052
 30
0.0
 40
0.0363162402493638
 50
219.854343001672305
 51
252.3233164924976109
  0
ARC
  5
11FAB
  8
0
 10
4267.4619617693515465
 20
228.5921700522169999
 30
0.0
 40
0.0253553548300559
 50
154.4351437346701914
 51
219.8543430016711113
  0
ARC
  5
11FAC
  8
0
 10
4267.4965463174758042
 20
228.5655172542547859
 30
0.0
 40
0.0686637678620712
 50
96.3521716647441053
 51
146.8032870501978095
  0
ARC
  5
11FAD
  8
0
 10
4267.5000117642712212
 20
228.5612697712614931
 30
0.0
 40
0.0733289311646425
 50
65.206521111647092
 51
98.6767347200523659
  0
ARC
  5
11FAE
  8
0
 10
4267.5179557012888836
 20
228.6108204956173893
 30
0.0
 40
0.0212992048301814
 50
334.9301539189179948
 51
53.039473042163209
  0
ARC
  5
11FAF
  8
0
 10
4267.489575242495448
 20
228.6194855891569091
 30
0.0
 40
0.0508494150872117
 50
315.3658403685795975
 51
339.6416291494082884
  0
ARC
  5
11FB0
  8
0
 10
4267.4895790418240722
 20
228.5856971603620877
 30
0.0
 40
0.0233240017534245
 50
236.2571464301541084
 51
319.0582873860869881
  0
ARC
  5
11FB1
  8
0
 10
4267.4808237257529981
 20
228.5725903651944861
 30
0.0
 40
0.0075619067444839
 50
136.2959388831237959
 51
236.2571464301531989
  0
ARC
  5
11FB2
  8
0
 10
4267.4920525355410064
 20
228.5618583586650914
 30
0.0
 40
0.0230945218957135
 50
49.3440975113741871
 51
136.2959388831237959
  0
ARC
  5
11FB3
  8
0
 10
4267.5008646923042761
 20
228.5748268967925014
 30
0.0
 40
0.0077191262072953
 50
325.124642329088374
 51
36.1341486893695318
  0
LINE
  5
11FB4
  8
0
 10
4267.5244110420007928
 20
228.5740299839347927
 30
0.0
 11
4267.5317606756743771
 21
228.6270401999491071
 31
0.0
  0
LINE
  5
11FB5
  8
0
 10
4267.4593489211492852
 20
228.5645926315816894
 30
0.0
 11
4267.4425774629507941
 21
228.6079681171239883
 31
0.0
  0
ARC
  5
11FB6
  8
0
 10
4267.4666975863474363
 20
228.6093458231352997
 30
0.0
 40
0.0308826907968024
 50
199.4000559042939926
 51
243.0185517991477013
  0
ARC
  5
11FB7
  8
0
 10
4267.4920656925387448
 20
228.6316675585161136
 30
0.0
 40
0.0483011988544906
 50
317.9178626769938205
 51
342.8224192454774197
  0
ARC
  5
11FB8
  8
0
 10
4267.6114537818975805
 20
228.5299935785158993
 30
0.0
 40
0.0253685297760163
 50
296.4551543467590022
 51
355.803360505546209
  0
ARC
  5
11FB9
  8
0
 10
4267.5963475913877119
 20
228.5508096669009888
 30
0.0
 40
0.0509123585996696
 50
255.3235919348011862
 51
301.2445102802383872
  0
ARC
  5
11FBA
  8
0
 10
4267.5902070423408077
 20
228.524351708804204
 30
0.0
 40
0.0237741520347882
 50
209.2266463545533952
 51
253.4840033343135133
  0
ARC
  5
11FBB
  8
0
 10
4267.5999333794070481
 20
228.5342547543355067
 30
0.0
 40
0.0237073257377576
 50
241.5180932431082113
 51
320.4743316322324063
  0
ARC
  5
11FBC
  8
0
 10
4267.5922781903373107
 20
228.5201450262607068
 30
0.0
 40
0.0076547139242154
 50
145.7646984517313911
 51
241.5180932431090071
  0
ARC
  5
11FBD
  8
0
 10
4267.6052611562836319
 20
228.5113101131827875
 30
0.0
 40
0.0233586336223295
 50
62.411564632705911
 51
145.7646984517313911
  0
ARC
  5
11FBE
  8
0
 10
4267.6123004897499413
 20
228.524781738235589
 30
0.0
 40
0.008158735688514
 50
316.5117308152164242
 51
62.411564632705911
  0
ARC
  5
11FBF
  8
0
 10
4267.5711417477286886
 20
228.5373287759134939
 30
0.0
 40
0.0284727300035069
 50
223.0095479255413977
 51
272.0514657789744888
  0
ARC
  5
11FC0
  8
0
 10
4267.5662202271096248
 20
228.5327378501376074
 30
0.0
 40
0.0217423537368783
 50
153.1888594006194921
 51
223.0095479255413977
  0
ARC
  5
11FC1
  8
0
 10
4267.6233429177163998
 20
228.5038691604200949
 30
0.0
 40
0.0857455023164084
 50
109.9385236389688032
 51
153.1888594006194921
  0
ARC
  5
11FC2
  8
0
 10
4267.635323290011911
 20
228.4871667250799874
 30
0.0
 40
0.1056789324738485
 50
91.904313047453698
 51
112.9579187000144032
  0
ARC
  5
11FC3
  8
0
 10
4267.6332988843751082
 20
228.5755220649103023
 30
0.0
 40
0.0173291749622021
 50
8.9769308989981962
 51
94.9237081084980332
  0
ARC
  5
11FC4
  8
0
 10
4267.5961438897184053
 20
228.5812130679514951
 30
0.0
 40
0.0543540462345484
 50
319.0009537345645185
 51
356.8497362809368951
  0
ARC
  5
11FC5
  8
0
 10
4267.5799965971518759
 20
228.6049823955733018
 30
0.0
 40
0.0728973003692405
 50
322.0915115680811027
 51
341.8406760756068934
  0
ARC
  5
11FC6
  8
0
 10
4267.5692135221979697
 20
228.5509988837036985
 30
0.0
 40
0.025037215803664
 50
203.0948933317783087
 51
253.6082017401527082
  0
LINE
  5
11FC7
  8
0
 10
4267.569459456455661
 20
228.5127436088316131
 30
0.0
 11
4267.5506559861632923
 21
228.5493543354660062
 31
0.0
  0
LINE
  5
11FC8
  8
0
 10
4267.6367542928383045
 20
228.5281371170507896
 30
0.0
 11
4267.638266821913021
 21
228.5921238690744133
 31
0.0
  0
ARC
  5
11FC9
  8
0
 10
4267.4885479983531695
 20
228.7318484483388943
 30
0.0
 40
0.0402406145436199
 50
223.4802080380887048
 51
333.026336194601015
  0
ARC
  5
11FCA
  8
0
 10
4267.4703761786522591
 20
228.738760295549298
 30
0.0
 40
0.0363162402493638
 50
219.854343001672305
 51
252.3233164924976109
  0
ARC
  5
11FCB
  8
0
 10
4267.4619617693515465
 20
228.7317361425523927
 30
0.0
 40
0.0253553548300559
 50
154.4351437346701914
 51
219.8543430016711113
  0
ARC
  5
11FCC
  8
0
 10
4267.4965463174758042
 20
228.7050833445902924
 30
0.0
 40
0.0686637678620712
 50
96.3521716647441053
 51
146.8032870501978095
  0
ARC
  5
11FCD
  8
0
 10
4267.5000117642712212
 20
228.7008358615968859
 30
0.0
 40
0.0733289311646425
 50
65.206521111647092
 51
98.6767347200523659
  0
ARC
  5
11FCE
  8
0
 10
4267.5179557012888836
 20
228.7503865859528958
 30
0.0
 40
0.0212992048301814
 50
334.9301539189179948
 51
53.039473042163209
  0
ARC
  5
11FCF
  8
0
 10
4267.489575242495448
 20
228.7590516794923019
 30
0.0
 40
0.0508494150872117
 50
315.3658403685795975
 51
339.6416291494082884
  0
ARC
  5
11FD0
  8
0
 10
4267.4895790418240722
 20
228.7252632506975942
 30
0.0
 40
0.0233240017534245
 50
236.2571464301541084
 51
319.0582873860869881
  0
ARC
  5
11FD1
  8
0
 10
4267.4808237257529981
 20
228.7121564555299926
 30
0.0
 40
0.0075619067444839
 50
136.2959388831237959
 51
236.2571464301531989
  0
ARC
  5
11FD2
  8
0
 10
4267.4920525355410064
 20
228.7014244490005979
 30
0.0
 40
0.0230945218957135
 50
49.3440975113741871
 51
136.2959388831237959
  0
ARC
  5
11FD3
  8
0
 10
4267.5008646923042761
 20
228.7143929871278942
 30
0.0
 40
0.0077191262072953
 50
325.124642329088374
 51
36.1341486893695318
  0
LINE
  5
11FD4
  8
0
 10
4267.5244110420007928
 20
228.7135960742702991
 30
0.0
 11
4267.5317606756743771
 21
228.7666062902846136
 31
0.0
  0
LINE
  5
11FD5
  8
0
 10
4267.4593489211492852
 20
228.7041587219171106
 30
0.0
 11
4267.4425774629507941
 21
228.7475342074594948
 31
0.0
  0
ARC
  5
11FD6
  8
0
 10
4267.4666975863474363
 20
228.7489119134708062
 30
0.0
 40
0.0308826907968024
 50
199.4000559042939926
 51
243.0185517991477013
  0
ARC
  5
11FD7
  8
0
 10
4267.4920656925387448
 20
228.7712336488515916
 30
0.0
 40
0.0483011988544906
 50
317.9178626769938205
 51
342.8224192454774197
  0
ARC
  5
11FD8
  8
0
 10
4267.6114537818975805
 20
228.6695596688514058
 30
0.0
 40
0.0253685297760163
 50
296.4551543467590022
 51
355.803360505546209
  0
ARC
  5
11FD9
  8
0
 10
4267.5963475913877119
 20
228.69037575723641
 30
0.0
 40
0.0509123585996696
 50
255.3235919348011862
 51
301.2445102802383872
  0
ARC
  5
11FDA
  8
0
 10
4267.5902070423408077
 20
228.6639177991397105
 30
0.0
 40
0.0237741520347882
 50
209.2266463545533952
 51
253.4840033343135133
  0
ARC
  5
11FDB
  8
0
 10
4267.5999333794070481
 20
228.6738208446710132
 30
0.0
 40
0.0237073257377576
 50
241.5180932431082113
 51
320.4743316322324063
  0
ARC
  5
11FDC
  8
0
 10
4267.5922781903373107
 20
228.6597111165962133
 30
0.0
 40
0.0076547139242154
 50
145.7646984517313911
 51
241.5180932431090071
  0
ARC
  5
11FDD
  8
0
 10
4267.6052611562836319
 20
228.650876203518294
 30
0.0
 40
0.0233586336223295
 50
62.411564632705911
 51
145.7646984517313911
  0
ARC
  5
11FDE
  8
0
 10
4267.6123004897499413
 20
228.6643478285710955
 30
0.0
 40
0.008158735688514
 50
316.5117308152164242
 51
62.411564632705911
  0
ARC
  5
11FDF
  8
0
 10
4267.5711417477286886
 20
228.6768948662488867
 30
0.0
 40
0.0284727300035069
 50
223.0095479255413977
 51
272.0514657789744888
  0
ARC
  5
11FE0
  8
0
 10
4267.5662202271096248
 20
228.6723039404730002
 30
0.0
 40
0.0217423537368783
 50
153.1888594006194921
 51
223.0095479255413977
  0
ARC
  5
11FE1
  8
0
 10
4267.6233429177163998
 20
228.6434352507554877
 30
0.0
 40
0.0857455023164084
 50
109.9385236389688032
 51
153.1888594006194921
  0
ARC
  5
11FE2
  8
0
 10
4267.635323290011911
 20
228.6267328154154939
 30
0.0
 40
0.1056789324738485
 50
91.904313047453698
 51
112.9579187000144032
  0
ARC
  5
11FE3
  8
0
 10
4267.6332988843751082
 20
228.7150881552458088
 30
0.0
 40
0.0173291749622021
 50
8.9769308989981962
 51
94.9237081084980332
  0
ARC
  5
11FE4
  8
0
 10
4267.5961438897184053
 20
228.7207791582870016
 30
0.0
 40
0.0543540462345484
 50
319.0009537345645185
 51
356.8497362809368951
  0
ARC
  5
11FE5
  8
0
 10
4267.5799965971518759
 20
228.7445484859088083
 30
0.0
 40
0.0728973003692405
 50
322.0915115680811027
 51
341.8406760756068934
  0
ARC
  5
11FE6
  8
0
 10
4267.5692135221979697
 20
228.690564974039205
 30
0.0
 40
0.025037215803664
 50
203.0948933317783087
 51
253.6082017401527082
  0
LINE
  5
11FE7
  8
0
 10
4267.569459456455661
 20
228.6523096991670911
 30
0.0
 11
4267.5506559861632923
 21
228.688920425801399
 31
0.0
  0
LINE
  5
11FE8
  8
0
 10
4267.6367542928383045
 20
228.6677032073862961
 30
0.0
 11
4267.638266821913021
 21
228.7316899594098913
 31
0.0
  0
ARC
  5
11FE9
  8
0
 10
4267.4885479983531695
 20
228.8727184100951888
 30
0.0
 40
0.0402406145436199
 50
223.4802080380887048
 51
333.026336194601015
  0
ARC
  5
11FEA
  8
0
 10
4267.4703761786522591
 20
228.8796302573055925
 30
0.0
 40
0.0363162402493638
 50
219.854343001672305
 51
252.3233164924976109
  0
ARC
  5
11FEB
  8
0
 10
4267.4619617693515465
 20
228.8726061043086872
 30
0.0
 40
0.0253553548300559
 50
154.4351437346701914
 51
219.8543430016711113
  0
ARC
  5
11FEC
  8
0
 10
4267.5000117642712212
 20
228.8417058233532941
 30
0.0
 40
0.0733289311646425
 50
65.206521111647092
 51
98.6767347200523659
  0
ARC
  5
11FED
  8
0
 10
4267.5179557012888836
 20
228.8912565477091903
 30
0.0
 40
0.0212992048301814
 50
334.9301539189179948
 51
53.039473042163209
  0
ARC
  5
11FEE
  8
0
 10
4267.489575242495448
 20
228.8999216412487101
 30
0.0
 40
0.0508494150872117
 50
315.3658403685795975
 51
339.6416291494082884
  0
ARC
  5
11FEF
  8
0
 10
4267.4895790418240722
 20
228.8661332124540024
 30
0.0
 40
0.0233240017534245
 50
236.2571464301541084
 51
319.0582873860869881
  0
ARC
  5
11FF0
  8
0
 10
4267.4808237257529981
 20
228.8530264172862871
 30
0.0
 40
0.0075619067444839
 50
136.2959388831237959
 51
236.2571464301531989
  0
ARC
  5
11FF1
  8
0
 10
4267.4920525355410064
 20
228.8422944107568924
 30
0.0
 40
0.0230945218957135
 50
49.3440975113741871
 51
136.2959388831237959
  0
ARC
  5
11FF2
  8
0
 10
4267.5008646923042761
 20
228.8552629488843024
 30
0.0
 40
0.0077191262072953
 50
325.124642329088374
 51
36.1341486893695318
  0
LINE
  5
11FF3
  8
0
 10
4267.5244110420007928
 20
228.8544660360265937
 30
0.0
 11
4267.5317606756743771
 21
228.9074762520409081
 31
0.0
  0
LINE
  5
11FF4
  8
0
 10
4267.4593489211492852
 20
228.8450286836734904
 30
0.0
 11
4267.4425774629507941
 21
228.8884041692157894
 31
0.0
  0
ARC
  5
11FF5
  8
0
 10
4267.4666975863474363
 20
228.8897818752271007
 30
0.0
 40
0.0308826907968024
 50
199.4000559042939926
 51
243.0185517991477013
  0
ARC
  5
11FF6
  8
0
 10
4267.4920656925387448
 20
228.9121036106079998
 30
0.0
 40
0.0483011988544906
 50
317.9178626769938205
 51
342.8224192454774197
  0
ARC
  5
11FF7
  8
0
 10
4267.6114537818975805
 20
228.8104296306077003
 30
0.0
 40
0.0253685297760163
 50
296.4551543467590022
 51
355.803360505546209
  0
ARC
  5
11FF8
  8
0
 10
4267.5963475913877119
 20
228.8312457189927898
 30
0.0
 40
0.0509123585996696
 50
255.3235919348011862
 51
301.2445102802383872
  0
ARC
  5
11FF9
  8
0
 10
4267.5902070423408077
 20
228.804787760896005
 30
0.0
 40
0.0237741520347882
 50
209.2266463545533952
 51
253.4840033343135133
  0
ARC
  5
11FFA
  8
0
 10
4267.5999333794070481
 20
228.8146908064273077
 30
0.0
 40
0.0237073257377576
 50
241.5180932431082113
 51
320.4743316322324063
  0
ARC
  5
11FFB
  8
0
 10
4267.5922781903373107
 20
228.8005810783525078
 30
0.0
 40
0.0076547139242154
 50
145.7646984517313911
 51
241.5180932431090071
  0
ARC
  5
11FFC
  8
0
 10
4267.6052611562836319
 20
228.7917461652745885
 30
0.0
 40
0.0233586336223295
 50
62.411564632705911
 51
145.7646984517313911
  0
ARC
  5
11FFD
  8
0
 10
4267.6123004897499413
 20
228.80521779032739
 30
0.0
 40
0.008158735688514
 50
316.5117308152164242
 51
62.411564632705911
  0
ARC
  5
11FFE
  8
0
 10
4267.5711417477286886
 20
228.8177648280052097
 30
0.0
 40
0.0284727300035069
 50
223.0095479255413977
 51
272.0514657789744888
  0
ARC
  5
11FFF
  8
0
 10
4267.5662202271096248
 20
228.8131739022294084
 30
0.0
 40
0.0217423537368783
 50
153.1888594006194921
 51
223.0095479255413977
  0
ARC
  5
12000
  8
0
 10
4267.6233429177163998
 20
228.7843052125118106
 30
0.0
 40
0.0857455023164084
 50
109.9385236389688032
 51
153.1888594006194921
  0
ARC
  5
12001
  8
0
 10
4267.635323290011911
 20
228.7676027771717884
 30
0.0
 40
0.1056789324738485
 50
91.904313047453698
 51
112.9579187000144032
  0
ARC
  5
12002
  8
0
 10
4267.6332988843751082
 20
228.8559581170021033
 30
0.0
 40
0.0173291749622021
 50
8.9769308989981962
 51
94.9237081084980332
  0
ARC
  5
12003
  8
0
 10
4267.5961438897184053
 20
228.8616491200432961
 30
0.0
 40
0.0543540462345484
 50
319.0009537345645185
 51
356.8497362809368951
  0
ARC
  5
12004
  8
0
 10
4267.5799965971518759
 20
228.8854184476651028
 30
0.0
 40
0.0728973003692405
 50
322.0915115680811027
 51
341.8406760756068934
  0
ARC
  5
12005
  8
0
 10
4267.5692135221979697
 20
228.8314349357954995
 30
0.0
 40
0.025037215803664
 50
203.0948933317783087
 51
253.6082017401527082
  0
LINE
  5
12006
  8
0
 10
4267.569459456455661
 20
228.7931796609234141
 30
0.0
 11
4267.5506559861632923
 21
228.8297903875578072
 31
0.0
  0
LINE
  5
12007
  8
0
 10
4267.6367542928383045
 20
228.8085731691427043
 30
0.0
 11
4267.638266821913021
 21
228.8725599211661859
 31
0.0
  0
ARC
  5
12008
  8
0
 10
4267.4885479983531695
 20
229.0136471019802968
 30
0.0
 40
0.0402406145436199
 50
223.4802080380887048
 51
333.026336194601015
  0
ARC
  5
12009
  8
0
 10
4267.4703761786522591
 20
229.0205589491907858
 30
0.0
 40
0.0363162402493638
 50
219.854343001672305
 51
252.3233164924976109
  0
ARC
  5
1200A
  8
0
 10
4267.4619617693515465
 20
229.0135347961937953
 30
0.0
 40
0.0253553548300559
 50
154.4351437346701914
 51
219.8543430016711113
  0
ARC
  5
1200B
  8
0
 10
4267.4965463174758042
 20
228.986881998231695
 30
0.0
 40
0.0686637678620712
 50
96.3521716647441053
 51
146.8032870501978095
  0
ARC
  5
1200C
  8
0
 10
4267.5000117642712212
 20
228.9826345152384022
 30
0.0
 40
0.0733289311646425
 50
65.206521111647092
 51
98.6767347200523659
  0
ARC
  5
1200D
  8
0
 10
4267.5179557012888836
 20
229.0321852395942983
 30
0.0
 40
0.0212992048301814
 50
334.9301539189179948
 51
53.039473042163209
  0
ARC
  5
1200E
  8
0
 10
4267.489575242495448
 20
229.0408503331337897
 30
0.0
 40
0.0508494150872117
 50
315.3658403685795975
 51
339.6416291494082884
  0
ARC
  5
1200F
  8
0
 10
4267.4895790418240722
 20
229.0070619043389968
 30
0.0
 40
0.0233240017534245
 50
236.2571464301541084
 51
319.0582873860869881
  0
ARC
  5
12010
  8
0
 10
4267.4808237257529981
 20
228.9939551091713952
 30
0.0
 40
0.0075619067444839
 50
136.2959388831237959
 51
236.2571464301531989
  0
ARC
  5
12011
  8
0
 10
4267.4920525355410064
 20
228.9832231026420004
 30
0.0
 40
0.0230945218957135
 50
49.3440975113741871
 51
136.2959388831237959
  0
ARC
  5
12012
  8
0
 10
4267.5008646923042761
 20
228.9961916407694105
 30
0.0
 40
0.0077191262072953
 50
325.124642329088374
 51
36.1341486893695318
  0
LINE
  5
12013
  8
0
 10
4267.5244110420007928
 20
228.9953947279117017
 30
0.0
 11
4267.5317606756743771
 21
229.0484049439259877
 31
0.0
  0
LINE
  5
12014
  8
0
 10
4267.4593489211492852
 20
228.9859573755585984
 30
0.0
 11
4267.4425774629507941
 21
229.0293328611008974
 31
0.0
  0
ARC
  5
12015
  8
0
 10
4267.4666975863474363
 20
229.0307105671122088
 30
0.0
 40
0.0308826907968024
 50
199.4000559042939926
 51
243.0185517991477013
  0
ARC
  5
12016
  8
0
 10
4267.4920656925387448
 20
229.0530323024929942
 30
0.0
 40
0.0483011988544906
 50
317.9178626769938205
 51
342.8224192454774197
  0
ARC
  5
12017
  8
0
 10
4267.6114537818975805
 20
228.9513583224928084
 30
0.0
 40
0.0253685297760163
 50
296.4551543467590022
 51
355.803360505546209
  0
ARC
  5
12018
  8
0
 10
4267.5963475913877119
 20
228.9721744108778978
 30
0.0
 40
0.0509123585996696
 50
255.3235919348011862
 51
301.2445102802383872
  0
ARC
  5
12019
  8
0
 10
4267.5902070423408077
 20
228.945716452781113
 30
0.0
 40
0.0237741520347882
 50
209.2266463545533952
 51
253.4840033343135133
  0
ARC
  5
1201A
  8
0
 10
4267.5999333794070481
 20
228.9556194983123873
 30
0.0
 40
0.0237073257377576
 50
241.5180932431082113
 51
320.4743316322324063
  0
ARC
  5
1201B
  8
0
 10
4267.5922781903373107
 20
228.9415097702375874
 30
0.0
 40
0.0076547139242154
 50
145.7646984517313911
 51
241.5180932431090071
  0
ARC
  5
1201C
  8
0
 10
4267.6052611562836319
 20
228.9326748571596966
 30
0.0
 40
0.0233586336223295
 50
62.411564632705911
 51
145.7646984517313911
  0
ARC
  5
1201D
  8
0
 10
4267.6123004897499413
 20
228.9461464822124981
 30
0.0
 40
0.008158735688514
 50
316.5117308152164242
 51
62.411564632705911
  0
ARC
  5
1201E
  8
0
 10
4267.5711417477286886
 20
228.9586935198902893
 30
0.0
 40
0.0284727300035069
 50
223.0095479255413977
 51
272.0514657789744888
  0
ARC
  5
1201F
  8
0
 10
4267.5662202271096248
 20
228.9541025941144881
 30
0.0
 40
0.0217423537368783
 50
153.1888594006194921
 51
223.0095479255413977
  0
ARC
  5
12020
  8
0
 10
4267.6233429177163998
 20
228.9252339043970039
 30
0.0
 40
0.0857455023164084
 50
109.9385236389688032
 51
153.1888594006194921
  0
ARC
  5
12021
  8
0
 10
4267.635323290011911
 20
228.9085314690568964
 30
0.0
 40
0.1056789324738485
 50
91.904313047453698
 51
112.9579187000144032
  0
ARC
  5
12022
  8
0
 10
4267.6332988843751082
 20
228.9968868088872114
 30
0.0
 40
0.0173291749622021
 50
8.9769308989981962
 51
94.9237081084980332
  0
ARC
  5
12023
  8
0
 10
4267.5961438897184053
 20
229.0025778119284041
 30
0.0
 40
0.0543540462345484
 50
319.0009537345645185
 51
356.8497362809368951
  0
ARC
  5
12024
  8
0
 10
4267.5799965971518759
 20
229.0263471395502108
 30
0.0
 40
0.0728973003692405
 50
322.0915115680811027
 51
341.8406760756068934
  0
ARC
  5
12025
  8
0
 10
4267.5692135221979697
 20
228.9723636276806076
 30
0.0
 40
0.025037215803664
 50
203.0948933317783087
 51
253.6082017401527082
  0
LINE
  5
12026
  8
0
 10
4267.569459456455661
 20
228.9341083528084937
 30
0.0
 11
4267.5506559861632923
 21
228.9707190794428868
 31
0.0
  0
LINE
  5
12027
  8
0
 10
4267.6367542928383045
 20
228.9495018610276986
 30
0.0
 11
4267.638266821913021
 21
229.0134886130512939
 31
0.0
  0
ARC
  5
12028
  8
0
 10
4267.4885479983531695
 20
229.1502532251064963
 30
0.0
 40
0.0402406145436199
 50
223.4802080380887048
 51
333.026336194601015
  0
ARC
  5
12029
  8
0
 10
4267.4703761786522591
 20
229.1571650723170137
 30
0.0
 40
0.0363162402493638
 50
219.854343001672305
 51
252.3233164924976109
  0
ARC
  5
1202A
  8
0
 10
4267.4619617693515465
 20
229.1501409193199947
 30
0.0
 40
0.0253553548300559
 50
154.4351437346701914
 51
219.8543430016711113
  0
ARC
  5
1202B
  8
0
 10
4267.4965463174758042
 20
229.1234881213578944
 30
0.0
 40
0.0686637678620712
 50
96.3521716647441053
 51
146.8032870501978095
  0
ARC
  5
1202C
  8
0
 10
4267.5000117642712212
 20
229.1192406383646016
 30
0.0
 40
0.0733289311646425
 50
65.206521111647092
 51
98.6767347200523659
  0
ARC
  5
1202D
  8
0
 10
4267.5179557012888836
 20
229.1687913627204978
 30
0.0
 40
0.0212992048301814
 50
334.9301539189179948
 51
53.039473042163209
  0
ARC
  5
1202E
  8
0
 10
4267.489575242495448
 20
229.1774564562599892
 30
0.0
 40
0.0508494150872117
 50
315.3658403685795975
 51
339.6416291494082884
  0
ARC
  5
1202F
  8
0
 10
4267.4895790418240722
 20
229.1436680274653099
 30
0.0
 40
0.0233240017534245
 50
236.2571464301541084
 51
319.0582873860869881
  0
ARC
  5
12030
  8
0
 10
4267.4808237257529981
 20
229.1305612322977083
 30
0.0
 40
0.0075619067444839
 50
136.2959388831237959
 51
236.2571464301531989
  0
ARC
  5
12031
  8
0
 10
4267.4920525355410064
 20
229.1198292257681999
 30
0.0
 40
0.0230945218957135
 50
49.3440975113741871
 51
136.2959388831237959
  0
ARC
  5
12032
  8
0
 10
4267.5008646923042761
 20
229.1327977638956099
 30
0.0
 40
0.0077191262072953
 50
325.124642329088374
 51
36.1341486893695318
  0
LINE
  5
12033
  8
0
 10
4267.5244110420007928
 20
229.1320008510379012
 30
0.0
 11
4267.5317606756743771
 21
229.1850110670521872
 31
0.0
  0
LINE
  5
12034
  8
0
 10
4267.4593489211492852
 20
229.1225634986847979
 30
0.0
 11
4267.4425774629507941
 21
229.1659389842270969
 31
0.0
  0
ARC
  5
12035
  8
0
 10
4267.4666975863474363
 20
229.1673166902384935
 30
0.0
 40
0.0308826907968024
 50
199.4000559042939926
 51
243.0185517991477013
  0
ARC
  5
12036
  8
0
 10
4267.4920656925387448
 20
229.1896384256193073
 30
0.0
 40
0.0483011988544906
 50
317.9178626769938205
 51
342.8224192454774197
  0
ARC
  5
12037
  8
0
 10
4267.6114537818975805
 20
229.0879644456190078
 30
0.0
 40
0.0253685297760163
 50
296.4551543467590022
 51
355.803360505546209
  0
ARC
  5
12038
  8
0
 10
4267.5963475913877119
 20
229.1087805340040973
 30
0.0
 40
0.0509123585996696
 50
255.3235919348011862
 51
301.2445102802383872
  0
ARC
  5
12039
  8
0
 10
4267.5902070423408077
 20
229.0823225759073978
 30
0.0
 40
0.0237741520347882
 50
209.2266463545533952
 51
253.4840033343135133
  0
ARC
  5
1203A
  8
0
 10
4267.5999333794070481
 20
229.0922256214385868
 30
0.0
 40
0.0237073257377576
 50
241.5180932431082113
 51
320.4743316322324063
  0
ARC
  5
1203B
  8
0
 10
4267.5922781903373107
 20
229.0781158933639006
 30
0.0
 40
0.0076547139242154
 50
145.7646984517313911
 51
241.5180932431090071
  0
ARC
  5
1203C
  8
0
 10
4267.6052611562836319
 20
229.069280980285896
 30
0.0
 40
0.0233586336223295
 50
62.411564632705911
 51
145.7646984517313911
  0
ARC
  5
1203D
  8
0
 10
4267.6123004897499413
 20
229.0827526053388112
 30
0.0
 40
0.008158735688514
 50
316.5117308152164242
 51
62.411564632705911
  0
ARC
  5
1203E
  8
0
 10
4267.5711417477286886
 20
229.0952996430166024
 30
0.0
 40
0.0284727300035069
 50
223.0095479255413977
 51
272.0514657789744888
  0
ARC
  5
1203F
  8
0
 10
4267.5662202271096248
 20
229.0907087172406875
 30
0.0
 40
0.0217423537368783
 50
153.1888594006194921
 51
223.0095479255413977
  0
ARC
  5
12040
  8
0
 10
4267.6233429177163998
 20
229.0618400275232034
 30
0.0
 40
0.0857455023164084
 50
109.9385236389688032
 51
153.1888594006194921
  0
ARC
  5
12041
  8
0
 10
4267.635323290011911
 20
229.0451375921830959
 30
0.0
 40
0.1056789324738485
 50
91.904313047453698
 51
112.9579187000144032
  0
ARC
  5
12042
  8
0
 10
4267.6332988843751082
 20
229.1334929320134961
 30
0.0
 40
0.0173291749622021
 50
8.9769308989981962
 51
94.9237081084980332
  0
ARC
  5
12043
  8
0
 10
4267.5961438897184053
 20
229.1391839350546888
 30
0.0
 40
0.0543540462345484
 50
319.0009537345645185
 51
356.8497362809368951
  0
ARC
  5
12044
  8
0
 10
4267.5799965971518759
 20
229.1629532626764103
 30
0.0
 40
0.0728973003692405
 50
322.0915115680811027
 51
341.8406760756068934
  0
ARC
  5
12045
  8
0
 10
4267.5692135221979697
 20
229.108969750806807
 30
0.0
 40
0.025037215803664
 50
203.0948933317783087
 51
253.6082017401527082
  0
LINE
  5
12046
  8
0
 10
4267.569459456455661
 20
229.0707144759346932
 30
0.0
 11
4267.5506559861632923
 21
229.1073252025690863
 31
0.0
  0
LINE
  5
12047
  8
0
 10
4267.6367542928383045
 20
229.0861079841540118
 30
0.0
 11
4267.638266821913021
 21
229.1500947361774934
 31
0.0
  0
ARC
  5
12048
  8
0
 10
4267.4885479983531695
 20
229.2908111586154121
 30
0.0
 40
0.0402406145436199
 50
223.4802080380887048
 51
333.026336194601015
  0
ARC
  5
12049
  8
0
 10
4267.4703761786522591
 20
229.2977230058259011
 30
0.0
 40
0.0363162402493638
 50
219.854343001672305
 51
252.3233164924976109
  0
ARC
  5
1204A
  8
0
 10
4267.4619617693515465
 20
229.2906988528289105
 30
0.0
 40
0.0253553548300559
 50
154.4351437346701914
 51
219.8543430016711113
  0
ARC
  5
1204B
  8
0
 10
4267.4965463174758042
 20
229.2640460548668102
 30
0.0
 40
0.0686637678620712
 50
96.3521716647441053
 51
146.8032870501978095
  0
ARC
  5
1204C
  8
0
 10
4267.5000117642712212
 20
229.259798571873489
 30
0.0
 40
0.0733289311646425
 50
65.206521111647092
 51
98.6767347200523659
  0
ARC
  5
1204D
  8
0
 10
4267.5179557012888836
 20
229.3093492962294135
 30
0.0
 40
0.0212992048301814
 50
334.9301539189179948
 51
53.039473042163209
  0
ARC
  5
1204E
  8
0
 10
4267.489575242495448
 20
229.3180143897689049
 30
0.0
 40
0.0508494150872117
 50
315.3658403685795975
 51
339.6416291494082884
  0
ARC
  5
1204F
  8
0
 10
4267.4895790418240722
 20
229.2842259609741973
 30
0.0
 40
0.0233240017534245
 50
236.2571464301541084
 51
319.0582873860869881
  0
ARC
  5
12050
  8
0
 10
4267.4808237257529981
 20
229.2711191658065957
 30
0.0
 40
0.0075619067444839
 50
136.2959388831237959
 51
236.2571464301531989
  0
ARC
  5
12051
  8
0
 10
4267.4920525355410064
 20
229.2603871592770872
 30
0.0
 40
0.0230945218957135
 50
49.3440975113741871
 51
136.2959388831237959
  0
ARC
  5
12052
  8
0
 10
4267.5008646923042761
 20
229.2733556974044973
 30
0.0
 40
0.0077191262072953
 50
325.124642329088374
 51
36.1341486893695318
  0
LINE
  5
12053
  8
0
 10
4267.5244110420007928
 20
229.2725587845469022
 30
0.0
 11
4267.5317606756743771
 21
229.3255690005611882
 31
0.0
  0
LINE
  5
12054
  8
0
 10
4267.4593489211492852
 20
229.2631214321937136
 30
0.0
 11
4267.4425774629507941
 21
229.3064969177360126
 31
0.0
  0
ARC
  5
12055
  8
0
 10
4267.4666975863474363
 20
229.3078746237472956
 30
0.0
 40
0.0308826907968024
 50
199.4000559042939926
 51
243.0185517991477013
  0
ARC
  5
12056
  8
0
 10
4267.4920656925387448
 20
229.3301963591281947
 30
0.0
 40
0.0483011988544906
 50
317.9178626769938205
 51
342.8224192454774197
  0
ARC
  5
12057
  8
0
 10
4267.6114537818975805
 20
229.2285223791278952
 30
0.0
 40
0.0253685297760163
 50
296.4551543467590022
 51
355.803360505546209
  0
ARC
  5
12058
  8
0
 10
4267.5963475913877119
 20
229.249338467513013
 30
0.0
 40
0.0509123585996696
 50
255.3235919348011862
 51
301.2445102802383872
  0
ARC
  5
12059
  8
0
 10
4267.5902070423408077
 20
229.2228805094163135
 30
0.0
 40
0.0237741520347882
 50
209.2266463545533952
 51
253.4840033343135133
  0
ARC
  5
1205A
  8
0
 10
4267.5999333794070481
 20
229.2327835549475026
 30
0.0
 40
0.0237073257377576
 50
241.5180932431082113
 51
320.4743316322324063
  0
ARC
  5
1205B
  8
0
 10
4267.5922781903373107
 20
229.2186738268727026
 30
0.0
 40
0.0076547139242154
 50
145.7646984517313911
 51
241.5180932431090071
  0
ARC
  5
1205C
  8
0
 10
4267.6052611562836319
 20
229.2098389137948118
 30
0.0
 40
0.0233586336223295
 50
62.411564632705911
 51
145.7646984517313911
  0
ARC
  5
1205D
  8
0
 10
4267.6123004897499413
 20
229.2233105388476986
 30
0.0
 40
0.008158735688514
 50
316.5117308152164242
 51
62.411564632705911
  0
ARC
  5
1205E
  8
0
 10
4267.5711417477286886
 20
229.2358575765254898
 30
0.0
 40
0.0284727300035069
 50
223.0095479255413977
 51
272.0514657789744888
  0
ARC
  5
1205F
  8
0
 10
4267.5662202271096248
 20
229.2312666507496033
 30
0.0
 40
0.0217423537368783
 50
153.1888594006194921
 51
223.0095479255413977
  0
ARC
  5
12060
  8
0
 10
4267.6233429177163998
 20
229.2023979610320907
 30
0.0
 40
0.0857455023164084
 50
109.9385236389688032
 51
153.1888594006194921
  0
ARC
  5
12061
  8
0
 10
4267.635323290011911
 20
229.1856955256920116
 30
0.0
 40
0.1056789324738485
 50
91.904313047453698
 51
112.9579187000144032
  0
ARC
  5
12062
  8
0
 10
4267.6332988843751082
 20
229.2740508655222982
 30
0.0
 40
0.0173291749622021
 50
8.9769308989981962
 51
94.9237081084980332
  0
ARC
  5
12063
  8
0
 10
4267.5961438897184053
 20
229.2797418685636046
 30
0.0
 40
0.0543540462345484
 50
319.0009537345645185
 51
356.8497362809368951
  0
ARC
  5
12064
  8
0
 10
4267.5799965971518759
 20
229.3035111961854113
 30
0.0
 40
0.0728973003692405
 50
322.0915115680811027
 51
341.8406760756068934
  0
ARC
  5
12065
  8
0
 10
4267.5692135221979697
 20
229.2495276843156944
 30
0.0
 40
0.025037215803664
 50
203.0948933317783087
 51
253.6082017401527082
  0
LINE
  5
12066
  8
0
 10
4267.569459456455661
 20
229.2112724094436089
 30
0.0
 11
4267.5506559861632923
 21
229.2478831360780021
 31
0.0
  0
LINE
  5
12067
  8
0
 10
4267.6367542928383045
 20
229.2266659176628991
 30
0.0
 11
4267.638266821913021
 21
229.2906526696864091
 31
0.0
  0
ARC
  5
12068
  8
0
 10
4267.3833200347980892
 20
227.9678125984422081
 30
0.0
 40
0.9076465337519065
 50
264.6416532600579217
 51
270.0057127176103791
  0
ARC
  5
12069
  8
0
 10
4267.3792292686421206
 20
227.9241984146171944
 30
0.0
 40
0.8638409245395267
 50
257.3230455437118849
 51
264.6416532600579217
  0
ARC
  5
1206A
  8
0
 10
4267.3433169899262793
 20
227.7645436709998137
 30
0.0
 40
0.7001970156332608
 50
240.5714528679822877
 51
257.3230455437118849
  0
ARC
  5
1206B
  8
0
 10
4267.1892069089535653
 20
227.4913606803517894
 30
0.0
 40
0.3865429650680041
 50
213.069091726039602
 51
240.5714528679822877
  0
ARC
  5
1206C
  8
0
 10
4267.0572365273492323
 20
227.4054316806060001
 30
0.0
 40
0.2290628881731437
 50
182.6059974267863026
 51
213.069091726039602
  0
ARC
  5
1206D
  8
0
 10
4267.0281647840120058
 20
227.3571295985045992
 30
0.0
 40
0.199754252790756
 50
173.5966060542191087
 51
179.9938851154842894
  0
ARC
  5
1206E
  8
0
 10
4267.0914660304870267
 20
227.3654348539733121
 30
0.0
 40
0.2631859014130957
 50
181.8037175074854872
 51
193.4741535456975896
  0
ARC
  5
1206F
  8
0
 10
4267.1273363124837488
 20
227.3998009220943004
 30
0.0
 40
0.3071007365603509
 50
198.1552006490263977
 51
236.9571596267886946
  0
ARC
  5
12070
  8
0
 10
4267.3288957255954301
 20
227.6956504075766077
 30
0.0
 40
0.665047853289939
 50
236.2986645381515984
 51
260.4039890493642133
  0
ARC
  5
12071
  8
0
 10
4267.3825677002505472
 20
227.9289114629468997
 30
0.0
 40
0.9041011256936839
 50
259.5144257955374769
 51
270.0534129737011995
  0
ARC
  5
12072
  8
0
 10
4267.3833734636809822
 20
227.9409576047252131
 30
0.0
 40
0.9090758075790775
 50
264.894637507721427
 51
270.0023363055703953
  0
ARC
  5
12073
  8
0
 10
4267.3784836326531149
 20
227.8862259766077045
 30
0.0
 40
0.8541261800655942
 50
254.4164659214114863
 51
264.894637507721427
  0
ARC
  5
12074
  8
0
 10
4267.3207453730146881
 20
227.6792010852398107
 30
0.0
 40
0.6392005830047028
 50
237.9860960859458032
 51
254.4164659214114863
  0
ARC
  5
12075
  8
0
 10
4267.1737180590453136
 20
227.4440352040388973
 30
0.0
 40
0.3618559909642426
 50
214.9869289090839004
 51
237.9860960859458032
  0
ARC
  5
12076
  8
0
 10
4267.0546079207078947
 20
227.3606738765288071
 30
0.0
 40
0.2164725807033296
 50
187.3246999165810962
 51
214.9869289090825077
  0
ARC
  5
12077
  8
0
 10
4267.3835010299217174
 20
227.9678125984422081
 30
0.0
 40
0.9076465337519065
 50
269.9942872823896209
 51
275.3583467399420783
  0
ARC
  5
12078
  8
0
 10
4267.3875917960785955
 20
227.9241984146171944
 30
0.0
 40
0.8638409245395267
 50
275.3583467399420783
 51
282.6769544562881151
  0
ARC
  5
12079
  8
0
 10
4267.4235040747944367
 20
227.7645436709998137
 30
0.0
 40
0.7001970156332608
 50
282.6769544562881151
 51
299.4285471320176271
  0
ARC
  5
1207A
  8
0
 10
4267.5776141557644223
 20
227.4913606803517894
 30
0.0
 40
0.3865429650680041
 50
299.4285471320176271
 51
326.9309082739604264
  0
ARC
  5
1207B
  8
0
 10
4267.7095845373705743
 20
227.4054316806060001
 30
0.0
 40
0.2290628881731437
 50
326.9309082739604264
 51
357.3940025732121057
  0
ARC
  5
1207C
  8
0
 10
4267.7386562807068913
 20
227.3571295985045992
 30
0.0
 40
0.199754252790756
 50
0.0061148845157265
 51
6.403393945780838
  0
ARC
  5
1207D
  8
0
 10
4267.6753550342318704
 20
227.3654348539733121
 30
0.0
 40
0.2631859014130957
 50
346.5258464543007904
 51
358.1962824925145128
  0
ARC
  5
1207E
  8
0
 10
4267.6394847522351483
 20
227.3998009220943004
 30
0.0
 40
0.3071007365603509
 50
303.042840373211277
 51
341.8447993509719822
  0
ARC
  5
1207F
  8
0
 10
4267.4379253391261955
 20
227.6956504075766077
 30
0.0
 40
0.665047853289939
 50
279.5960109506357867
 51
303.7013354618483731
  0
ARC
  5
12080
  8
0
 10
4267.3842533644674404
 20
227.9289114629468997
 30
0.0
 40
0.9041011256936839
 50
269.9465870262988005
 51
280.4855742044625231
  0
ARC
  5
12081
  8
0
 10
4267.3834476010388244
 20
227.9409576047252131
 30
0.0
 40
0.9090758075790775
 50
269.9976636944297184
 51
275.105362492278573
  0
ARC
  5
12082
  8
0
 10
4267.3883374320657822
 20
227.8862259766077045
 30
0.0
 40
0.8541261800655942
 50
275.105362492278573
 51
285.5835340785885137
  0
ARC
  5
12083
  8
0
 10
4267.446075691704209
 20
227.6792010852398107
 30
0.0
 40
0.6392005830047028
 50
285.5835340785885137
 51
302.0139039140540831
  0
ARC
  5
12084
  8
0
 10
4267.5931030056735835
 20
227.4440352040388973
 30
0.0
 40
0.3618559909642426
 50
302.0139039140540831
 51
325.013071090916128
  0
ARC
  5
12085
  8
0
 10
4267.7122131440119119
 20
227.3606738765288071
 30
0.0
 40
0.2164725807033296
 50
325.0130710909174923
 51
352.6753000834189038
  0
ARC
  5
12086
  8
0
 10
4267.7452755067852195
 20
223.9943821034250959
 30
0.0
 40
0.1932319970740357
 50
341.2337113300487204
 51
358.1847421253087873
  0
ARC
  5
12087
  8
0
 10
4253.1454795840763836
 20
225.3213554899022029
 30
0.0
 40
0.0239449054465349
 50
179.0547640969417955
 51
239.5002238198235887
  0
ARC
  5
12088
  8
0
 10
4253.2721988034336391
 20
225.5856401762546
 30
0.0
 40
0.3169586612942427
 50
244.0147684664505903
 51
262.2018552245693854
  0
ARC
  5
12089
  8
0
 10
4253.4590958046619562
 20
226.79494674634239
 30
0.0
 40
1.540584990027889
 50
261.4176347003390219
 51
267.8097105794303161
  0
ARC
  5
1208A
  8
0
 10
4253.5263348395183129
 20
228.4818260770605889
 30
0.0
 40
3.2288028178475958
 50
267.7614437121342235
 51
269.9788478848431055
  0
ARC
  5
1208B
  8
0
 10
4253.9049982107399046
 20
225.3212478399804013
 30
0.0
 40
0.0237548027013646
 50
300.2324535351472719
 51
1.2124955924512371
  0
ARC
  5
1208C
  8
0
 10
4253.7780867929441229
 20
225.5856402540237013
 30
0.0
 40
0.3169586612942426
 50
277.7981623912983764
 51
295.9852491494382889
  0
ARC
  5
1208D
  8
0
 10
4253.5911894199080052
 20
226.7949467666489056
 30
0.0
 40
1.5405849900278881
 50
272.1903070364766108
 51
278.5823829155372096
  0
ARC
  5
1208E
  8
0
 10
4253.5239498664113853
 20
228.481826076693892
 30
0.0
 40
3.2288028178475949
 50
270.0211697310659815
 51
272.2385739037727035
  0
ENDSEC
  0
EOF
