  0
SECTION
  2
HEADER
  9
$ACADVER
  1
AC1009
  9
$INSBASE
 10
4280.7610597887405675
 20
220.6578463069469933
 30
0.0
  9
$EXTMIN
 10
4273.368903476954074
 20
220.6544138844685108
 30
-0.0000000349181948
  9
$EXTMAX
 10
4281.8629730169413961
 20
228.9875217179574065
 30
0.0000000814935746
  9
$LIMMIN
 10
0.0
 20
0.0
  9
$LIMMAX
 10
11.6929133858000007
 20
8.2677165353999982
  9
$ORTHOMODE
 70
     0
  9
$REGENMODE
 70
     1
  9
$FILLMODE
 70
     1
  9
$QTEXTMODE
 70
     0
  9
$MIRRTEXT
 70
     0
  9
$DRAGMODE
 70
     2
  9
$LTSCALE
 40
0.6431102362
  9
$OSMODE
 70
  4095
  9
$ATTMODE
 70
     1
  9
$TEXTSIZE
 40
0.2
  9
$TRACEWID
 40
0.05
  9
$TEXTSTYLE
  7
STANDARD
  9
$CLAYER
  8
0
  9
$CELTYPE
  6
BYLAYER
  9
$CECOLOR
 62
   256
  9
$DIMSCALE
 40
1.0
  9
$DIMASZ
 40
0.1875
  9
$DIMEXO
 40
0.0625
  9
$DIMDLI
 40
0.4443307087
  9
$DIMRND
 40
0.0
  9
$DIMDLE
 40
0.0
  9
$DIMEXE
 40
0.125
  9
$DIMTP
 40
0.01
  9
$DIMTM
 40
0.01
  9
$DIMTXT
 40
2.0
  9
$DIMCEN
 40
0.1052362205
  9
$DIMTSZ
 40
0.0
  9
$DIMTOL
 70
     1
  9
$DIMLIM
 70
     0
  9
$DIMTIH
 70
     1
  9
$DIMTOH
 70
     1
  9
$DIMSE1
 70
     0
  9
$DIMSE2
 70
     0
  9
$DIMTAD
 70
     0
  9
$DIMZIN
 70
     0
  9
$DIMBLK
  1

  9
$DIMASO
 70
     1
  9
$DIMSHO
 70
     1
  9
$DIMPOST
  1
\X
  9
$DIMAPOST
  1

  9
$DIMALT
 70
     1
  9
$DIMALTD
 70
     2
  9
$DIMALTF
 40
25.3999999999999986
  9
$DIMLFAC
 40
1.0
  9
$DIMTOFL
 70
     0
  9
$DIMTVP
 40
0.0
  9
$DIMTIX
 70
     0
  9
$DIMSOXD
 70
     0
  9
$DIMSAH
 70
     0
  9
$DIMBLK1
  1

  9
$DIMBLK2
  1

  9
$DIMSTYLE
  2
STANDARD
  9
$DIMCLRD
 70
     0
  9
$DIMCLRE
 70
     0
  9
$DIMCLRT
 70
     0
  9
$DIMTFAC
 40
1.0
  9
$DIMGAP
 40
0.09
  9
$LUNITS
 70
     2
  9
$LUPREC
 70
     4
  9
$SKETCHINC
 40
0.1
  9
$FILLETRAD
 40
0.0
  9
$AUNITS
 70
     0
  9
$AUPREC
 70
     0
  9
$MENU
  1
.
  9
$ELEVATION
 40
0.0
  9
$PELEVATION
 40
0.0
  9
$THICKNESS
 40
0.0
  9
$LIMCHECK
 70
     0
  9
$BLIPMODE
 70
     0
  9
$CHAMFERA
 40
0.0
  9
$CHAMFERB
 40
0.0
  9
$SKPOLY
 70
     0
  9
$TDCREATE
 40
2458060.468368056230247
  9
$TDUPDATE
 40
2459214.6164583340287209
  9
$TDINDWG
 40
0.6154353009
  9
$TDUSRTIMER
 40
0.6154353009
  9
$USRTIMER
 70
     1
  9
$ANGBASE
 50
0.0
  9
$ANGDIR
 70
     0
  9
$PDMODE
 70
     0
  9
$PDSIZE
 40
0.3125
  9
$PLINEWID
 40
0.0
  9
$COORDS
 70
     1
  9
$SPLFRAME
 70
     0
  9
$SPLINETYPE
 70
     6
  9
$SPLINESEGS
 70
     8
  9
$ATTDIA
 70
     1
  9
$ATTREQ
 70
     1
  9
$HANDLING
 70
     1
  9
$HANDSEED
  5
127FA
  9
$SURFTAB1
 70
     6
  9
$SURFTAB2
 70
     6
  9
$SURFTYPE
 70
     6
  9
$SURFU
 70
     6
  9
$SURFV
 70
     6
  9
$UCSNAME
  2

  9
$UCSORG
 10
0.0
 20
0.0
 30
0.0
  9
$UCSXDIR
 10
1.0
 20
0.0
 30
0.0
  9
$UCSYDIR
 10
0.0
 20
1.0
 30
0.0
  9
$PUCSNAME
  2

  9
$PUCSORG
 10
0.0
 20
0.0
 30
0.0
  9
$PUCSXDIR
 10
1.0
 20
0.0
 30
0.0
  9
$PUCSYDIR
 10
0.0
 20
1.0
 30
0.0
  9
$USERI1
 70
     0
  9
$USERI2
 70
     0
  9
$USERI3
 70
     0
  9
$USERI4
 70
     0
  9
$USERI5
 70
     0
  9
$USERR1
 40
0.0
  9
$USERR2
 40
0.0
  9
$USERR3
 40
0.0
  9
$USERR4
 40
0.0
  9
$USERR5
 40
0.0
  9
$WORLDVIEW
 70
     1
  9
$SHADEDGE
 70
     3
  9
$SHADEDIF
 70
    70
  9
$TILEMODE
 70
     1
  9
$MAXACTVP
 70
    64
  9
$PLIMCHECK
 70
     0
  9
$PEXTMIN
 10
1.0000000000000000E+20
 20
1.0000000000000000E+20
 30
1.0000000000000000E+20
  9
$PEXTMAX
 10
-1.0000000000000000E+20
 20
-1.0000000000000000E+20
 30
-1.0000000000000000E+20
  9
$PLIMMIN
 10
0.0
 20
0.0
  9
$PLIMMAX
 10
12.0
 20
9.0
  9
$UNITMODE
 70
     0
  9
$VISRETAIN
 70
     1
  9
$PLINEGEN
 70
     0
  9
$PSLTSCALE
 70
     1
  0
ENDSEC
  0
SECTION
  2
TABLES
  0
TABLE
  2
VPORT
 70
     1
  0
VPORT
  2
*ACTIVE
 70
     0
 10
0.0
 20
0.0
 11
1.0
 21
1.0
 12
116.0595417625727066
 22
-1.2898644131425381
 13
0.0
 23
0.0
 14
1.0
 24
1.0
 15
0.0
 25
0.0
 16
0.0
 26
0.0
 36
202.37134017897489
 17
4161.556396484375
 27
226.1108322143554972
 37
0.0
 40
8.4449616299116226
 41
2.8789237668161429
 42
50.0
 43
0.0
 44
0.0
 50
0.0
 51
0.0
 71
     0
 72
   100
 73
     1
 74
     1
 75
     0
 76
     0
 77
     0
 78
     0
  0
ENDTAB
  0
TABLE
  2
LTYPE
 70
     3
  0
LTYPE
  2
CONTINUOUS
 70
     0
  3
Solid line
 72
    65
 73
     0
 40
0.0
  0
LTYPE
  2
PHANTOM2
 70
     0
  3
___ _ _ ___ _ _ ___ _ _ ___ _ _
 72
    65
 73
     6
 40
1.25
 49
0.625
 49
-0.125
 49
0.125
 49
-0.125
 49
0.125
 49
-0.125
  0
ENDTAB
  0
TABLE
  2
LAYER
 70
     2
  0
LAYER
  2
0
 70
     0
 62
   255
  6
CONTINUOUS
  0
LAYER
  2
DEFPOINTS
 70
     0
 62
     7
  6
CONTINUOUS
  0
ENDTAB
  0
TABLE
  2
STYLE
 70
     1
  0
STYLE
  2
STANDARD
 70
     0
 40
0.0
 41
0.8
 50
0.0
 71
     0
 42
0.2
  3
txt
  4

  0
ENDTAB
  0
TABLE
  2
VIEW
 70
     0
  0
ENDTAB
  0
TABLE
  2
UCS
 70
     0
  0
ENDTAB
  0
TABLE
  2
APPID
 70
     9
  0
APPID
  2
ACAD
 70
     0
  0
APPID
  2
ACAD_MLEADERVER
 70
     0
  0
APPID
  2
ACAD_EXEMPT_FROM_CAD_STANDARDS
 70
     0
  0
APPID
  2
ACAD_NAV_VCDISPLAY
 70
     0
  0
APPID
  2
ACAECLAYERSTANDARD
 70
     0
  0
APPID
  2
ACCMTRANSPARENCY
 70
     0
  0
APPID
  2
ACAD_DSTYLE_DIMJAG
 70
     0
  0
APPID
  2
ACAD_DSTYLE_DIMTALN
 70
     0
  0
APPID
  2
ACDBATTR
 70
     0
  0
ENDTAB
  0
TABLE
  2
DIMSTYLE
 70
     2
  0
DIMSTYLE
  2
STANDARD
 70
     0
  3

  4

  5

  6

  7

 40
1.0
 41
0.1875
 42
0.0625
 43
0.38
 44
0.125
 45
0.0
 46
0.0
 47
0.01
 48
0.01
140
0.15625
141
0.09
142
0.0
143
25.3999999999999986
144
1.0
145
0.0
146
1.0
147
0.09
 71
     1
 72
     0
 73
     1
 74
     1
 75
     0
 76
     0
 77
     0
 78
     4
170
     0
171
     2
172
     0
173
     0
174
     0
175
     0
176
     0
177
     0
178
     0
  0
ENDTAB
  0
ENDSEC
  0
SECTION
  2
BLOCKS
  0
BLOCK
  8
0
  2
$MODEL_SPACE
 70
     0
 10
0.0
 20
0.0
 30
0.0
  3
$MODEL_SPACE
  1

  0
ENDBLK
  5
21
  8
0
  0
BLOCK
 67
     1
  8
0
  2
$PAPER_SPACE
 70
     0
 10
0.0
 20
0.0
 30
0.0
  3
$PAPER_SPACE
  1

  0
ENDBLK
  5
1D
 67
     1
  8
0
  0
ENDSEC
  0
SECTION
  2
ENTITIES
  0
ATTDEF
  5
3930
  8
DEFPOINTS
 10
4280.7578526432098442
 20
220.6622181054258931
 30
0.0
 40
0.001
  1
K-72330IN-4
  3

  2
MODELNUMBER
 70
     0
1001
ACDBATTR
1070
     0
1070
     1
  0
ATTDEF
  5
3931
  8
DEFPOINTS
 10
4280.7578526432098442
 20
220.6605514387591995
 30
0.0
 40
0.001
  1

  3

  2
TRADENAME
 70
     0
1001
ACDBATTR
1070
     0
1070
     1
  0
ATTDEF
  5
3932
  8
DEFPOINTS
 10
4280.7578526432098442
 20
220.6588847720925912
 30
0.0
 40
0.001
  1
BATH AND SHOWER FAUCET
  3

  2
PRODUCT
 70
     0
1001
ACDBATTR
1070
     0
1070
     1
  0
LINE
  5
123E3
  8
0
 10
4273.7112343234102809
 20
226.5436730786470036
 30
0.0
 11
4275.4869990215565849
 21
226.5436730786470036
 31
0.0
  0
LINE
  5
123E4
  8
0
 10
4276.8378294067251773
 20
226.5436730786470036
 30
0.0
 11
4281.7138119821138389
 21
226.5436730786470036
 31
0.0
  0
LINE
  5
123E5
  8
0
 10
4279.7571227808412004
 20
220.6578463069469933
 30
0.0
 11
4281.764996796640844
 21
220.6578463069469933
 31
0.0
  0
LINE
  5
123E6
  8
0
 10
4279.9463988376955967
 20
222.1301297313924863
 30
0.0
 11
4280.5866923797366326
 21
222.7704232733512129
 31
0.0
  0
LINE
  5
123E7
  8
0
 10
4279.7571227808412004
 20
221.1184872517470126
 30
0.0
 11
4279.7571227808412004
 21
220.6578463069469933
 31
0.0
  0
LINE
  5
123E8
  8
0
 10
4281.7531967966424418
 20
221.1302872517470064
 30
0.0
 11
4279.7689227808414216
 21
221.1302872517470064
 31
0.0
  0
LINE
  5
123E9
  8
0
 10
4280.1744456155411171
 20
221.2089974880470038
 30
0.0
 11
4280.1744456155411171
 21
221.1302872517470064
 31
0.0
  0
LINE
  5
123EA
  8
0
 10
4281.3082739619412678
 20
221.2483974880470043
 30
0.0
 11
4280.2138456155407766
 21
221.2483974880470043
 31
0.0
  0
ARC
  5
123EB
  8
0
 10
4280.2138456155407766
 20
221.2089974880470038
 30
0.0
 40
0.0394
 50
90.0
 51
179.9999999999984084
  0
ARC
  5
123EC
  8
0
 10
4279.7689227808414216
 20
221.1184872517470126
 30
0.0
 40
0.0118
 50
90.0
 51
179.9999999999917861
  0
LINE
  5
123ED
  8
0
 10
4281.764996796640844
 20
221.1184872517470126
 30
0.0
 11
4281.764996796640844
 21
220.6578463069469933
 31
0.0
  0
LINE
  5
123EE
  8
0
 10
4281.3476739619409273
 20
221.2089974880470038
 30
0.0
 11
4281.3476739619409273
 21
221.1302872517470064
 31
0.0
  0
ARC
  5
123EF
  8
0
 10
4281.3082739619412678
 20
221.2089974880470038
 30
0.0
 40
0.0394
 50
0.0000000000016284
 51
90.0
  0
ARC
  5
123F0
  8
0
 10
4281.7531967966424418
 20
221.1184872517470126
 30
0.0
 40
0.0118
 50
0.0000000000081422
 51
90.0
  0
LINE
  5
123F1
  8
0
 10
4280.1969484845412808
 20
221.8795800844468999
 30
0.0
 11
4280.8372420266414338
 21
222.5198736264470085
 31
0.0
  0
LINE
  5
123F2
  8
0
 10
4280.0020765370409208
 20
222.0744520320469064
 30
0.0
 11
4280.6423700790410294
 21
222.7147455740469866
 31
0.0
  0
LINE
  5
123F3
  8
0
 10
4280.1640147718408116
 20
221.8707555227470039
 30
0.0
 11
4279.9932519752401276
 21
222.0415183193470057
 31
0.0
  0
LINE
  5
123F4
  8
0
 10
4280.846066588341273
 20
222.5528073392470105
 30
0.0
 11
4280.6753037917405891
 21
222.7235701357469964
 31
0.0
  0
LINE
  5
123F5
  8
0
 10
4279.9932519752401276
 20
222.0415183193470057
 30
0.0
 11
4280.0020765370409208
 21
222.0744520320469064
 31
0.0
  0
LINE
  5
123F6
  8
0
 10
4280.6753037917405891
 20
222.7235701357469964
 30
0.0
 11
4280.6423700790410294
 21
222.7147455740469866
 31
0.0
  0
LINE
  5
123F7
  8
0
 10
4280.8929197259421926
 20
222.4085182279470132
 30
0.0
 11
4280.3083038832410239
 21
221.8239023851469938
 31
0.0
  0
LINE
  5
123F8
  8
0
 10
4280.8929197259421926
 20
222.4641959271469887
 30
0.0
 11
4280.8929197259421926
 21
222.4085182279470132
 31
0.0
  0
LINE
  5
123F9
  8
0
 10
4280.1969484845412808
 20
221.8795800844468999
 30
0.0
 11
4280.1640147718408116
 21
221.8707555227470039
 31
0.0
  0
LINE
  5
123FA
  8
0
 10
4280.846066588341273
 20
222.5528073392470105
 30
0.0
 11
4280.8372420266414338
 21
222.5198736264470085
 31
0.0
  0
LINE
  5
123FB
  8
0
 10
4280.3083038832410239
 20
221.8239023851469938
 30
0.0
 11
4280.2526261838402206
 21
221.8239023851469938
 31
0.0
  0
LINE
  5
123FC
  8
0
 10
4280.2526261838402206
 20
221.8239023851469938
 30
0.0
 11
4280.8929197259421926
 21
222.4641959271469887
 31
0.0
  0
LINE
  5
123FD
  8
0
 10
4280.8929197259421926
 20
222.4641959271469887
 30
0.0
 11
4280.8372420266450717
 21
222.5198736264513002
 31
0.0
  0
LINE
  5
123FE
  8
0
 10
4280.2526261838402206
 20
221.8239023851469938
 30
0.0
 11
4280.1969484845412808
 21
221.8795800844468999
 31
0.0
  0
LINE
  5
123FF
  8
0
 10
4280.0020765370409208
 20
222.0744520320469064
 30
0.0
 11
4279.9463988376955967
 21
222.1301297313924863
 31
0.0
  0
LINE
  5
12400
  8
0
 10
4280.6423700790410294
 20
222.7147455740469866
 30
0.0
 11
4280.5866923797366326
 21
222.7704232733512129
 31
0.0
  0
ARC
  5
12401
  8
0
 10
4280.0906646469584302
 20
222.0716469908311979
 30
0.0
 40
0.2109658342369245
 50
291.8082305004868999
 51
338.191769499500424
  0
ARC
  5
12402
  8
0
 10
4279.9384756331910467
 20
222.7783464780387988
 30
0.0
 40
0.8182917175884387
 50
303.2841475631943808
 51
326.7158524223721088
  0
ARC
  5
12403
  8
0
 10
4280.645175120793283
 20
222.6261574635954048
 30
0.0
 40
0.210965833540423
 50
291.8082304194397238
 51
338.1917695805457811
  0
LINE
  5
12404
  8
0
 10
4280.1640147718408116
 20
221.8707555227470039
 30
0.0
 11
4280.1690387092412493
 21
221.8757794601469868
 31
0.0
  0
LINE
  5
12405
  8
0
 10
4280.2865321776407654
 20
221.9932729285469861
 30
0.0
 11
4280.3875472117106256
 21
222.0942879626765887
 31
0.0
  0
LINE
  5
12406
  8
0
 10
4280.6225341484414457
 20
222.3292748993470127
 30
0.0
 11
4280.7235491825422287
 21
222.4302899334469998
 31
0.0
  0
LINE
  5
12407
  8
0
 10
4280.8410426509417448
 20
222.5477834018469139
 30
0.0
 11
4280.846066588341273
 21
222.5528073392470105
 31
0.0
  0
ARC
  5
12408
  8
0
 10
4280.194143443327448
 20
221.9681681944543072
 30
0.0
 40
0.2109658342369245
 50
111.8082304962775027
 51
158.1917694952956026
  0
ARC
  5
12409
  8
0
 10
4280.9008429305231402
 20
221.815979180637413
 30
0.0
 40
0.8182917175884387
 50
123.2841475734165044
 51
146.7158524326034978
  0
ARC
  5
1240A
  8
0
 10
4280.7486539161309338
 20
222.522678668249398
 30
0.0
 40
0.210965833540423
 50
111.8082304152793967
 51
158.1917695763438871
  0
LINE
  5
1240B
  8
0
 10
4279.9932519752474036
 20
222.0415183193532016
 30
0.0
 11
4279.9982759126478413
 21
222.0465422567529004
 31
0.0
  0
LINE
  5
1240C
  8
0
 10
4280.1157693810564524
 20
222.1640357251442026
 30
0.0
 11
4280.2167844151936151
 21
222.2650507592072984
 31
0.0
  0
LINE
  5
1240D
  8
0
 10
4280.451771351881689
 20
222.5000376959195876
 30
0.0
 11
4280.552786385987929
 21
222.6010527300122135
 31
0.0
  0
LINE
  5
1240E
  8
0
 10
4280.6702798543974495
 20
222.718546198403601
 30
0.0
 11
4280.6753037917978872
 21
222.7235701358031861
 31
0.0
  0
LINE
  5
1240F
  8
0
 10
4280.1690387092412493
 20
221.8757794601469868
 30
0.0
 11
4279.9982759126542078
 21
222.0465422567590963
 31
0.0
  0
LINE
  5
12410
  8
0
 10
4280.1157693810564524
 20
222.1640357251442026
 30
0.0
 11
4280.2865321776407654
 21
221.9932729285469861
 31
0.0
  0
LINE
  5
12411
  8
0
 10
4280.3875472117106256
 20
222.0942879626765887
 30
0.0
 11
4280.2167844151936151
 21
222.2650507592072984
 31
0.0
  0
LINE
  5
12412
  8
0
 10
4280.6225341484414457
 20
222.3292748993470127
 30
0.0
 11
4280.4517713518798701
 21
222.5000376959195876
 31
0.0
  0
LINE
  5
12413
  8
0
 10
4280.7235491825422287
 20
222.4302899334469998
 30
0.0
 11
4280.5527863859952049
 21
222.6010527300184947
 31
0.0
  0
LINE
  5
12414
  8
0
 10
4280.8410426509417448
 20
222.5477834018469139
 30
0.0
 11
4280.6702798544029065
 21
222.718546198409598
 31
0.0
  0
LINE
  5
12415
  8
0
 10
4280.3083038831409795
 20
221.6420982773549042
 30
0.0
 11
4280.3289368671412376
 21
221.2483974880470043
 31
0.0
  0
LINE
  5
12416
  8
0
 10
4281.2138156942410205
 20
221.642098275446898
 30
0.0
 11
4281.1931827102416719
 21
221.2483974880470043
 31
0.0
  0
LINE
  5
12417
  8
0
 10
4280.3083038831409795
 20
221.7682246857469011
 30
0.0
 11
4280.3083038831409795
 21
221.6420982773549042
 31
0.0
  0
LINE
  5
12418
  8
0
 10
4281.2138156942410205
 20
221.642098275446898
 30
0.0
 11
4281.2138156942410205
 21
221.9964289840567062
 31
0.0
  0
LINE
  5
12419
  8
0
 10
4280.3083038831409795
 20
221.7682246857469011
 30
0.0
 11
4280.9485974252411324
 21
222.4085182278469972
 31
0.0
  0
ARC
  5
1241A
  8
0
 10
4280.7610597887660333
 20
221.9964289840567062
 30
0.0
 40
0.4527559054746213
 50
0.0
 51
65.5301994817415903
  0
LINE
  5
1241B
  8
0
 10
4280.8513266831605506
 20
222.3112474857670122
 30
0.0
 11
4280.8233530511133722
 21
222.3389515531067104
 31
0.0
  0
LINE
  5
1241C
  8
0
 10
4280.405844189979689
 20
221.8657649925854969
 30
0.0
 11
4280.3778705579688904
 21
221.893469059887309
 31
0.0
  0
LINE
  5
1241D
  8
0
 10
4281.2138156942410205
 20
221.642098275446898
 30
0.0
 11
4280.3083038831409795
 21
221.6420982754466991
 31
0.0
  0
LINE
  5
1241E
  8
0
 10
4274.1228877927233043
 20
225.9177158394765002
 30
0.0
 11
4274.7722840823416846
 21
225.7558031594469981
 31
0.0
  0
LINE
  5
1241F
  8
0
 10
4274.8000948028320636
 20
225.7859764672375036
 30
0.0
 11
4274.805903107555423
 21
225.8092723051248072
 31
0.0
  0
LINE
  5
12420
  8
0
 10
4274.7821576514043045
 20
225.7617357982811086
 30
0.0
 11
4274.7722840823416846
 21
225.7558031594469981
 31
0.0
  0
ARC
  5
12421
  8
0
 10
4274.7618651512111683
 20
225.7955081899050924
 30
0.0
 40
0.0394
 50
301.0000000666987034
 51
346.0000000284695716
  0
ARC
  5
12422
  8
0
 10
4274.5778392040028848
 20
226.372229273676993
 30
0.0
 40
0.6013126047042316
 50
261.184015115585396
 51
279.5869799903221065
  0
LINE
  5
12423
  8
0
 10
4274.4856811111412753
 20
225.7780207795470062
 30
0.0
 11
4274.4972396245248092
 21
225.824379444843288
 31
0.0
  0
LINE
  5
12424
  8
0
 10
4274.5269319597446156
 20
225.8132778586520999
 30
0.0
 11
4274.5236459582247335
 21
225.8000984257911909
 31
0.0
  0
LINE
  5
12425
  8
0
 10
4274.5223999430127151
 20
225.7951009315025885
 30
0.0
 11
4274.5201216551931793
 21
225.7859632177257083
 31
0.0
  0
LINE
  5
12426
  8
0
 10
4274.5193107603936369
 20
225.7827108961706983
 30
0.0
 11
4274.5179693892641808
 21
225.7773309501700965
 31
0.0
  0
LINE
  5
12427
  8
0
 10
4274.5175695476418696
 20
225.7757272729390081
 30
0.0
 11
4274.5171360332251425
 21
225.7739885415016943
 31
0.0
  0
LINE
  5
12428
  8
0
 10
4274.5193107602999589
 20
225.7827108961708973
 30
0.0
 11
4274.5201755026946557
 21
225.7827095413101972
 31
0.0
  0
LINE
  5
12429
  8
0
 10
4274.5201755026946557
 20
225.7827095413101972
 30
0.0
 11
4274.5369700739302061
 21
225.7796009201412915
 31
0.0
  0
LINE
  5
1242A
  8
0
 10
4274.5369700739302061
 20
225.7796009201412915
 30
0.0
 11
4274.5362793561716899
 21
225.7768306026256937
 31
0.0
  0
LINE
  5
1242B
  8
0
 10
4274.5362793561716899
 20
225.7768306026256937
 30
0.0
 11
4274.5187999489371578
 21
225.7771924965418862
 31
0.0
  0
LINE
  5
1242C
  8
0
 10
4274.5187999489371578
 20
225.7771924965418862
 30
0.0
 11
4274.5179693892641808
 21
225.7773309501700965
 31
0.0
  0
LINE
  5
1242D
  8
0
 10
4274.5175695476418696
 20
225.7757272729390081
 30
0.0
 11
4274.5184224653739875
 21
225.7756784925242926
 31
0.0
  0
LINE
  5
1242E
  8
0
 10
4274.5184224653739875
 20
225.7756784925242926
 30
0.0
 11
4274.5354419975237761
 21
225.7734721406390008
 31
0.0
  0
LINE
  5
1242F
  8
0
 10
4274.5354419975237761
 20
225.7734721406390008
 30
0.0
 11
4274.535182559578061
 21
225.7724315917353977
 31
0.0
  0
LINE
  5
12430
  8
0
 10
4274.5223999430127151
 20
225.7951009315025885
 30
0.0
 11
4274.5232774286268977
 21
225.7951506867900093
 31
0.0
  0
LINE
  5
12431
  8
0
 10
4274.5232774286268977
 20
225.7951506867900093
 30
0.0
 11
4274.5398187819619125
 21
225.7910264643712992
 31
0.0
  0
LINE
  5
12432
  8
0
 10
4274.5398187819619125
 20
225.7910264643712992
 30
0.0
 11
4274.5386685417706758
 21
225.7864131027498047
 31
0.0
  0
LINE
  5
12433
  8
0
 10
4274.5386685417706758
 20
225.7864131027498047
 30
0.0
 11
4274.5209410584147918
 21
225.7857800174026011
 31
0.0
  0
LINE
  5
12434
  8
0
 10
4274.5209410584147918
 20
225.7857800174026011
 30
0.0
 11
4274.5201216551931793
 21
225.7859632177257083
 31
0.0
  0
LINE
  5
12435
  8
0
 10
4274.5269319597446156
 20
225.8132778586520999
 30
0.0
 11
4274.5278230902640644
 21
225.813382339818304
 31
0.0
  0
LINE
  5
12436
  8
0
 10
4274.5278230902640644
 20
225.813382339818304
 30
0.0
 11
4274.5441441774819396
 21
225.8083746779886951
 31
0.0
  0
LINE
  5
12437
  8
0
 10
4274.5441441774819396
 20
225.8083746779886951
 30
0.0
 11
4274.5424525027483469
 21
225.8015897414115045
 31
0.0
  0
LINE
  5
12438
  8
0
 10
4274.5424525027483469
 20
225.8015897414115045
 30
0.0
 11
4274.5244537868593397
 21
225.799868802151309
 31
0.0
  0
LINE
  5
12439
  8
0
 10
4274.5244537868593397
 20
225.799868802151309
 30
0.0
 11
4274.5236459582247335
 21
225.8000984257911909
 31
0.0
  0
LINE
  5
1243A
  8
0
 10
4274.5354705556073895
 20
225.7994489067386894
 30
0.0
 11
4274.5340828627367955
 21
225.7937269299245884
 31
0.0
  0
LINE
  5
1243B
  8
0
 10
4274.5340828627367955
 20
225.7937269299245884
 30
0.0
 11
4274.5506971278673518
 21
225.7900513852071924
 31
0.0
  0
LINE
  5
1243C
  8
0
 10
4274.5506971278673518
 20
225.7900513852071924
 30
0.0
 11
4274.568774972657593
 21
225.7920896935779069
 31
0.0
  0
LINE
  5
1243D
  8
0
 10
4274.568774972657593
 20
225.7920896935779069
 30
0.0
 11
4274.5702170659151307
 21
225.7978736136201121
 31
0.0
  0
LINE
  5
1243E
  8
0
 10
4274.5702170659151307
 20
225.7978736136201121
 30
0.0
 11
4274.5535636076629089
 21
225.8015482077717877
 31
0.0
  0
LINE
  5
1243F
  8
0
 10
4274.5535636076629089
 20
225.8015482077717877
 30
0.0
 11
4274.535470554584208
 21
225.7994489025242899
 31
0.0
  0
LINE
  5
12440
  8
0
 10
4274.5390851337151616
 20
225.8139461876035909
 30
0.0
 11
4274.5385607267126034
 21
225.811842905975908
 31
0.0
  0
LINE
  5
12441
  8
0
 10
4274.5385607267126034
 20
225.811842905975908
 30
0.0
 11
4274.5549712359970727
 21
225.8071938966103005
 31
0.0
  0
LINE
  5
12442
  8
0
 10
4274.5549712359970727
 20
225.8071938966103005
 30
0.0
 11
4274.5615353605171549
 21
225.8083487173888955
 31
0.0
  0
LINE
  5
12443
  8
0
 10
4274.5319040189833686
 20
225.7851443094978094
 30
0.0
 11
4274.5497216386529544
 21
225.7861389117722979
 31
0.0
  0
LINE
  5
12444
  8
0
 10
4274.5497216386529544
 20
225.7861389117722979
 30
0.0
 11
4274.5666069961189351
 21
225.7833944144057057
 31
0.0
  0
LINE
  5
12445
  8
0
 10
4274.5666069961189351
 20
225.7833944144057057
 30
0.0
 11
4274.5656691989970568
 21
225.7796331158438079
 31
0.0
  0
LINE
  5
12446
  8
0
 10
4274.5656691989970568
 20
225.7796331158438079
 30
0.0
 11
4274.5478570493851294
 21
225.7786604527481131
 31
0.0
  0
LINE
  5
12447
  8
0
 10
4274.5478570493851294
 20
225.7786604527481131
 30
0.0
 11
4274.5309771625534268
 21
225.7814268914819991
 31
0.0
  0
LINE
  5
12448
  8
0
 10
4274.5309771625534268
 20
225.7814268914819991
 30
0.0
 11
4274.531904018917885
 21
225.7851443094943136
 31
0.0
  0
LINE
  5
12449
  8
0
 10
4274.5297161120161036
 20
225.7763690942410051
 30
0.0
 11
4274.547282883600019
 21
225.7763575994447933
 31
0.0
  0
LINE
  5
1244A
  8
0
 10
4274.547282883600019
 20
225.7763575994447933
 30
0.0
 11
4274.5643934995368909
 21
225.7745165647181977
 31
0.0
  0
LINE
  5
1244B
  8
0
 10
4274.5643934995368909
 20
225.7745165647181977
 30
0.0
 11
4274.5639312765551949
 21
225.7726626895378956
 31
0.0
  0
LINE
  5
1244C
  8
0
 10
4274.5639312765551949
 20
225.7726626895378956
 30
0.0
 11
4274.5463637212451431
 21
225.7726710405879942
 31
0.0
  0
LINE
  5
1244D
  8
0
 10
4274.5463637212451431
 20
225.7726710405879942
 30
0.0
 11
4274.5293186874414459
 21
225.7745285766889083
 31
0.0
  0
LINE
  5
1244E
  8
0
 10
4274.5293186874414459
 20
225.7745285766889083
 30
0.0
 11
4274.5297161120161036
 21
225.7763690942377082
 31
0.0
  0
LINE
  5
1244F
  8
0
 10
4274.5951243612425969
 20
225.7999740389157068
 30
0.0
 11
4274.5811941975316586
 21
225.7972947423149037
 31
0.0
  0
LINE
  5
12450
  8
0
 10
4274.5811941975316586
 20
225.7972947423149037
 30
0.0
 11
4274.5644516246857165
 21
225.800611917623911
 31
0.0
  0
LINE
  5
12451
  8
0
 10
4274.5644516246857165
 20
225.800611917623911
 30
0.0
 11
4274.5660970505650766
 21
225.8072113603188029
 31
0.0
  0
LINE
  5
12452
  8
0
 10
4274.5618205630717057
 20
225.7900593058857908
 30
0.0
 11
4274.5799938842892516
 21
225.7924805494116924
 31
0.0
  0
LINE
  5
12453
  8
0
 10
4274.5799938842892516
 20
225.7924805494116924
 30
0.0
 11
4274.5969759244517263
 21
225.7901238250751135
 31
0.0
  0
LINE
  5
12454
  8
0
 10
4274.5969759244517263
 20
225.7901238250751135
 30
0.0
 11
4274.5957753702668924
 21
225.7853086650654859
 31
0.0
  0
LINE
  5
12455
  8
0
 10
4274.5957753702668924
 20
225.7853086650654859
 30
0.0
 11
4274.5776111804316315
 21
225.7829240458823961
 31
0.0
  0
LINE
  5
12456
  8
0
 10
4274.5776111804316315
 20
225.7829240458823961
 30
0.0
 11
4274.5606382733003556
 21
225.7853174008139945
 31
0.0
  0
LINE
  5
12457
  8
0
 10
4274.5606382733003556
 20
225.7853174008139945
 30
0.0
 11
4274.5618205649161609
 21
225.7900593061312975
 31
0.0
  0
LINE
  5
12458
  8
0
 10
4274.5589271395947435
 20
225.7784544183807895
 30
0.0
 11
4274.5768307909147552
 21
225.7797940743706988
 31
0.0
  0
LINE
  5
12459
  8
0
 10
4274.5768307909147552
 20
225.7797940743706988
 30
0.0
 11
4274.5940383694032789
 21
225.7783419351972896
 31
0.0
  0
LINE
  5
1245A
  8
0
 10
4274.5940383694032789
 20
225.7783419351972896
 30
0.0
 11
4274.5933322587034127
 21
225.7755098796118034
 31
0.0
  0
LINE
  5
1245B
  8
0
 10
4274.5933322587034127
 20
225.7755098796118034
 30
0.0
 11
4274.5754290011809644
 21
225.7741718030056859
 31
0.0
  0
LINE
  5
1245C
  8
0
 10
4274.5754290011809644
 20
225.7741718030056859
 30
0.0
 11
4274.5582313602008071
 21
225.7756637995352094
 31
0.0
  0
LINE
  5
1245D
  8
0
 10
4274.5582313602008071
 20
225.7756637995352094
 30
0.0
 11
4274.5589271395947435
 21
225.7784544183807895
 31
0.0
  0
LINE
  5
1245E
  8
0
 10
4274.5571457385567555
 20
225.7712728450867132
 30
0.0
 11
4274.557387932740312
 21
225.7722809967197009
 31
0.0
  0
LINE
  5
1245F
  8
0
 10
4274.557387932740312
 20
225.7722809967197009
 30
0.0
 11
4274.5750444099412562
 21
225.7726292918046909
 31
0.0
  0
LINE
  5
12460
  8
0
 10
4274.5750444099412562
 20
225.7726292918046909
 30
0.0
 11
4274.5924764487090215
 21
225.7720774134130011
 31
0.0
  0
LINE
  5
12461
  8
0
 10
4274.5924764487090215
 20
225.7720774134130011
 30
0.0
 11
4274.5922523676326819
 21
225.7710894319677095
 31
0.0
  0
LINE
  5
12462
  8
0
 10
4274.5866095317787767
 20
225.7744087205780943
 30
0.0
 11
4274.6046063135108852
 21
225.7761219025609023
 31
0.0
  0
LINE
  5
12463
  8
0
 10
4274.6046063135108852
 20
225.7761219025609023
 30
0.0
 11
4274.6221422335056559
 21
225.7759866689019077
 31
0.0
  0
LINE
  5
12464
  8
0
 10
4274.6221422335056559
 20
225.7759866689019077
 30
0.0
 11
4274.6216672841610489
 21
225.7740817512637079
 31
0.0
  0
LINE
  5
12465
  8
0
 10
4274.6216672841610489
 20
225.7740817512637079
 30
0.0
 11
4274.6036649723000664
 21
225.7723463890669962
 31
0.0
  0
LINE
  5
12466
  8
0
 10
4274.6036649723000664
 20
225.7723463890669962
 30
0.0
 11
4274.5861430303248198
 21
225.77253768547601
 31
0.0
  0
LINE
  5
12467
  8
0
 10
4274.5861430303248198
 20
225.77253768547601
 30
0.0
 11
4274.5866095317724103
 21
225.7744087205458925
 31
0.0
  0
LINE
  5
12468
  8
0
 10
4274.6146885240459596
 20
225.7720468212606022
 30
0.0
 11
4274.614960950436398
 21
225.7730463418083104
 31
0.0
  0
LINE
  5
12469
  8
0
 10
4274.614960950436398
 20
225.7730463418083104
 30
0.0
 11
4274.6330595663748682
 21
225.7751679585090869
 31
0.0
  0
LINE
  5
1246A
  8
0
 10
4274.6330595663748682
 20
225.7751679585090869
 30
0.0
 11
4274.6509351459726531
 21
225.7763950249301956
 31
0.0
  0
LINE
  5
1246B
  8
0
 10
4274.6509351459726531
 20
225.7763950249301956
 30
0.0
 11
4274.6506819134692705
 21
225.7753450401326063
 31
0.0
  0
LINE
  5
1246C
  8
0
 10
4274.587897191004231
 20
225.7795732397028985
 30
0.0
 11
4274.5888439247810311
 21
225.7833703813288082
 31
0.0
  0
LINE
  5
1246D
  8
0
 10
4274.5888439247810311
 20
225.7833703813288082
 30
0.0
 11
4274.6066112186890678
 21
225.7860604330340948
 31
0.0
  0
LINE
  5
1246E
  8
0
 10
4274.6066112186890678
 20
225.7860604330340948
 30
0.0
 11
4274.6244179211280425
 21
225.7851139535704874
 31
0.0
  0
LINE
  5
1246F
  8
0
 10
4274.6244179211280425
 20
225.7851139535704874
 30
0.0
 11
4274.6234535201447216
 21
225.7812459525032978
 31
0.0
  0
LINE
  5
12470
  8
0
 10
4274.6234535201447216
 20
225.7812459525032978
 30
0.0
 11
4274.6051944885366538
 21
225.7784809435466968
 31
0.0
  0
LINE
  5
12471
  8
0
 10
4274.6051944885366538
 20
225.7784809435466968
 30
0.0
 11
4274.5878971910460677
 21
225.7795732397677
 31
0.0
  0
LINE
  5
12472
  8
0
 10
4274.5924895930156708
 20
225.7979923581494859
 30
0.0
 11
4274.5981905095877664
 21
225.7992095622722104
 31
0.0
  0
LINE
  5
12473
  8
0
 10
4274.6224137313920437
 20
225.7931700347542971
 30
0.0
 11
4274.6081056723369329
 21
225.7901570643577998
 31
0.0
  0
LINE
  5
12474
  8
0
 10
4274.6081056723369329
 20
225.7901570643577998
 30
0.0
 11
4274.5910330462484126
 21
225.7921504682201999
 31
0.0
  0
LINE
  5
12475
  8
0
 10
4274.5910330462484126
 20
225.7921504682201999
 30
0.0
 11
4274.5924895930156708
 21
225.7979923581494859
 31
0.0
  0
LINE
  5
12476
  8
0
 10
4274.6195132732418642
 20
225.7913047113437983
 30
0.0
 11
4274.6248907148683429
 21
225.7925524534105932
 31
0.0
  0
LINE
  5
12477
  8
0
 10
4274.6195132732527782
 20
225.7913047113842993
 30
0.0
 11
4274.618379097372781
 21
225.7867557801648104
 31
0.0
  0
LINE
  5
12478
  8
0
 10
4274.618379097372781
 20
225.7867557801648104
 30
0.0
 11
4274.6357040855909872
 21
225.7857745456205976
 31
0.0
  0
LINE
  5
12479
  8
0
 10
4274.6357040855909872
 20
225.7857745456205976
 30
0.0
 11
4274.6442042595308521
 21
225.7877370458897133
 31
0.0
  0
LINE
  5
1247A
  8
0
 10
4274.6165408127317278
 20
225.7793828232630062
 30
0.0
 11
4274.6348997342101939
 21
225.7825484684884998
 31
0.0
  0
LINE
  5
1247B
  8
0
 10
4274.6348997342101939
 20
225.7825484684884998
 30
0.0
 11
4274.6525497622333205
 21
225.7828708971925948
 31
0.0
  0
LINE
  5
1247C
  8
0
 10
4274.6525497622333205
 20
225.7828708971925948
 30
0.0
 11
4274.6518196720890046
 21
225.779942665431804
 31
0.0
  0
LINE
  5
1247D
  8
0
 10
4274.6518196720890046
 20
225.779942665431804
 30
0.0
 11
4274.6334556144902308
 21
225.7767564205311999
 31
0.0
  0
LINE
  5
1247E
  8
0
 10
4274.6334556144902308
 20
225.7767564205311999
 30
0.0
 11
4274.615826539329646
 21
225.7765180289592877
 31
0.0
  0
LINE
  5
1247F
  8
0
 10
4274.615826539329646
 20
225.7765180289592877
 30
0.0
 11
4274.6165408127426417
 21
225.7793828233047861
 31
0.0
  0
LINE
  5
12480
  8
0
 10
4274.6449216343462467
 20
225.7781383729827951
 30
0.0
 11
4274.6633890715920643
 21
225.7817392513246944
 31
0.0
  0
LINE
  5
12481
  8
0
 10
4274.6633890715920643
 20
225.7817392513246944
 30
0.0
 11
4274.6669064777779568
 21
225.7820767471507963
 31
0.0
  0
LINE
  5
12482
  8
0
 10
4274.6744196700446992
 20
225.780203497926891
 30
0.0
 11
4274.6624137964663532
 21
225.7778276363710006
 31
0.0
  0
LINE
  5
12483
  8
0
 10
4274.6624137964663532
 20
225.7778276363710006
 30
0.0
 11
4274.6444401430280777
 21
225.7762072171227032
 31
0.0
  0
LINE
  5
12484
  8
0
 10
4274.6444401430280777
 20
225.7762072171227032
 30
0.0
 11
4274.6449216343462467
 21
225.7781383729827951
 31
0.0
  0
LINE
  5
12485
  8
0
 10
4274.673730830743807
 20
225.7786118510072981
 30
0.0
 11
4274.6740078433504095
 21
225.7797230773767865
 31
0.0
  0
LINE
  5
12486
  8
0
 10
4274.6740078433504095
 20
225.7797230773767865
 30
0.0
 11
4274.6752501586179278
 21
225.7799964338697976
 31
0.0
  0
LINE
  5
12487
  8
0
 10
4274.6471328010948127
 20
225.7870068784696116
 30
0.0
 11
4274.6462512291700477
 21
225.7834710869329911
 31
0.0
  0
LINE
  5
12488
  8
0
 10
4274.6462512291700477
 20
225.7834710869329911
 30
0.0
 11
4274.6592231334770986
 21
225.7839924200416988
 31
0.0
  0
LINE
  5
12489
  8
0
 10
4274.6633890715920643
 20
225.7817392513246944
 30
0.0
 11
4274.6624137964663532
 21
225.7778276363710006
 31
0.0
  0
LINE
  5
1248A
  8
0
 10
4274.6330595663748682
 20
225.7751679585090869
 30
0.0
 11
4274.6326563357797568
 21
225.773420514021808
 31
0.0
  0
LINE
  5
1248B
  8
0
 10
4274.6348997342101939
 20
225.7825484684884998
 30
0.0
 11
4274.6334556144902308
 21
225.7767564205311999
 31
0.0
  0
LINE
  5
1248C
  8
0
 10
4274.6357040855909872
 20
225.7857745456205976
 30
0.0
 11
4274.6366622375253428
 21
225.7896174831747089
 31
0.0
  0
LINE
  5
1248D
  8
0
 10
4274.6036649723000664
 20
225.7723463890669962
 30
0.0
 11
4274.6046063135108852
 21
225.7761219025609023
 31
0.0
  0
LINE
  5
1248E
  8
0
 10
4274.6051944885366538
 20
225.7784809435466968
 30
0.0
 11
4274.6066112186890678
 21
225.7860604330340948
 31
0.0
  0
LINE
  5
1248F
  8
0
 10
4274.6081056723369329
 20
225.7901570643577998
 30
0.0
 11
4274.6096503206899797
 21
225.7963523104556884
 31
0.0
  0
LINE
  5
12490
  8
0
 10
4274.5811941975316586
 20
225.7972947423149037
 30
0.0
 11
4274.5826384038764445
 21
225.803087137731012
 31
0.0
  0
LINE
  5
12491
  8
0
 10
4274.5776111804316315
 20
225.7829240458823961
 30
0.0
 11
4274.5799938842892516
 21
225.7924805494116924
 31
0.0
  0
LINE
  5
12492
  8
0
 10
4274.5754290011809644
 20
225.7741718030056859
 30
0.0
 11
4274.5768307909147552
 21
225.7797940743706988
 31
0.0
  0
LINE
  5
12493
  8
0
 10
4274.5750444099412562
 20
225.7726292918046909
 30
0.0
 11
4274.5745694476427161
 21
225.7709255590123973
 31
0.0
  0
LINE
  5
12494
  8
0
 10
4274.5463637212451431
 20
225.7726710405879942
 30
0.0
 11
4274.547282883600019
 21
225.7763575994447933
 31
0.0
  0
LINE
  5
12495
  8
0
 10
4274.5478570493851294
 20
225.7786604527481131
 30
0.0
 11
4274.5497216386529544
 21
225.7861389117722979
 31
0.0
  0
LINE
  5
12496
  8
0
 10
4274.5506971278673518
 20
225.7900513852071924
 30
0.0
 11
4274.5535636076629089
 21
225.8015482077717877
 31
0.0
  0
LINE
  5
12497
  8
0
 10
4274.5549712359970727
 20
225.8071938966103005
 30
0.0
 11
4274.5555640967131694
 21
225.8098375206681965
 31
0.0
  0
LINE
  5
12498
  8
0
 10
4274.5278230902640644
 20
225.813382339818304
 30
0.0
 11
4274.5243877098691883
 21
225.7998875844006079
 31
0.0
  0
LINE
  5
12499
  8
0
 10
4274.5232774286268977
 20
225.7951506867900093
 30
0.0
 11
4274.5209410584147918
 21
225.7857800174026011
 31
0.0
  0
LINE
  5
1249A
  8
0
 10
4274.5201755026946557
 20
225.7827095413101972
 30
0.0
 11
4274.5187999489371578
 21
225.7771924965418862
 31
0.0
  0
LINE
  5
1249B
  8
0
 10
4274.5184224653739875
 20
225.7756784925242926
 30
0.0
 11
4274.5180960849920666
 21
225.7738919037034862
 31
0.0
  0
ARC
  5
1249C
  8
0
 10
4274.5839527242569602
 20
226.3707050018880977
 30
0.0
 40
0.6013126047042316
 50
232.4130199971963862
 51
250.8159849969480888
  0
LINE
  5
1249D
  8
0
 10
4274.3863595012662699
 20
225.8027844380725924
 30
0.0
 11
4274.3979180146779981
 21
225.8491431034786103
 31
0.0
  0
LINE
  5
1249E
  8
0
 10
4274.3664893597160699
 20
225.8532806915212916
 30
0.0
 11
4274.3632033579324343
 21
225.8401012587260084
 31
0.0
  0
LINE
  5
1249F
  8
0
 10
4274.3619573426203715
 20
225.8351037644621897
 30
0.0
 11
4274.3596790546180273
 21
225.825966050730699
 31
0.0
  0
LINE
  5
124A0
  8
0
 10
4274.3588681597530012
 20
225.822713729192003
 30
0.0
 11
4274.3575267885162248
 21
225.8173337832180891
 31
0.0
  0
LINE
  5
124A1
  8
0
 10
4274.3571269468620812
 20
225.815730105994902
 30
0.0
 11
4274.3566934324107933
 21
225.8139913745663137
 31
0.0
  0
LINE
  5
124A2
  8
0
 10
4274.3588681598348558
 20
225.8227137291484894
 30
0.0
 11
4274.3581040015487815
 21
225.8231185048398117
 31
0.0
  0
LINE
  5
124A3
  8
0
 10
4274.3581040015487815
 20
225.8231185048398117
 30
0.0
 11
4274.3418158660570043
 21
225.8282583288333001
 31
0.0
  0
LINE
  5
124A4
  8
0
 10
4274.3418158660570043
 20
225.8282583288333001
 30
0.0
 11
4274.3411251483503293
 21
225.8254880113049978
 31
0.0
  0
LINE
  5
124A5
  8
0
 10
4274.3411251483503293
 20
225.8254880113049978
 30
0.0
 11
4274.3567284478112924
 21
225.8176014600662995
 31
0.0
  0
LINE
  5
124A6
  8
0
 10
4274.3567284478112924
 20
225.8176014600662995
 30
0.0
 11
4274.3575267885162248
 21
225.8173337832180891
 31
0.0
  0
LINE
  5
124A7
  8
0
 10
4274.3571269468620812
 20
225.8157301059949873
 30
0.0
 11
4274.356350964185367
 21
225.8160874560645084
 31
0.0
  0
LINE
  5
124A8
  8
0
 10
4274.356350964185367
 20
225.8160874560645084
 30
0.0
 11
4274.3402877897624421
 21
225.8221295493030993
 31
0.0
  0
LINE
  5
124A9
  8
0
 10
4274.3402877897624421
 20
225.8221295493030993
 30
0.0
 11
4274.3400283517539719
 21
225.8210890004150997
 31
0.0
  0
LINE
  5
124AA
  8
0
 10
4274.3619573426203715
 20
225.8351037644621897
 30
0.0
 11
4274.3612059275001229
 21
225.8355596503147069
 31
0.0
  0
LINE
  5
124AB
  8
0
 10
4274.3612059275001229
 20
225.8355596503147069
 30
0.0
 11
4274.3446645742387773
 21
225.8396838730259901
 31
0.0
  0
LINE
  5
124AC
  8
0
 10
4274.3446645742387773
 20
225.8396838730259901
 30
0.0
 11
4274.3435143339656861
 21
225.8350705114249024
 31
0.0
  0
LINE
  5
124AD
  8
0
 10
4274.3435143339656861
 20
225.8350705114249024
 30
0.0
 11
4274.3588695571743301
 21
225.8261889809560898
 31
0.0
  0
LINE
  5
124AE
  8
0
 10
4274.3588695571743301
 20
225.8261889809560898
 30
0.0
 11
4274.3596790546180273
 21
225.825966050730699
 31
0.0
  0
LINE
  5
124AF
  8
0
 10
4274.3664893597160699
 20
225.8532806915212916
 30
0.0
 11
4274.3657515891063667
 21
225.8537913033509881
 31
0.0
  0
LINE
  5
124B0
  8
0
 10
4274.3657515891063667
 20
225.8537913033509881
 30
0.0
 11
4274.3489899696023713
 21
225.8570320866828922
 31
0.0
  0
LINE
  5
124B1
  8
0
 10
4274.3489899696023713
 20
225.8570320866828922
 30
0.0
 11
4274.3472982949697325
 21
225.8502471500794968
 31
0.0
  0
LINE
  5
124B2
  8
0
 10
4274.3472982949697325
 20
225.8502471500794968
 30
0.0
 11
4274.3623822858153289
 21
225.8402777656554861
 31
0.0
  0
LINE
  5
124B3
  8
0
 10
4274.3623822858153289
 20
225.8402777656554861
 30
0.0
 11
4274.3632033579324343
 21
225.8401012587260084
 31
0.0
  0
LINE
  5
124B4
  8
0
 10
4274.3524579274044299
 20
225.8450790796325975
 30
0.0
 11
4274.3509968820972063
 21
225.8393753916352011
 31
0.0
  0
LINE
  5
124B5
  8
0
 10
4274.3509968820972063
 20
225.8393753916352011
 30
0.0
 11
4274.3346017929607115
 21
225.8439300032576966
 31
0.0
  0
LINE
  5
124B6
  8
0
 10
4274.3346017929607115
 20
225.8439300032576966
 30
0.0
 11
4274.3195969312137095
 21
225.8542167567437104
 31
0.0
  0
LINE
  5
124B7
  8
0
 10
4274.3195969312137095
 20
225.8542167567437104
 30
0.0
 11
4274.3210390244148584
 21
225.8600006767998138
 31
0.0
  0
LINE
  5
124B8
  8
0
 10
4274.3210390244148584
 20
225.8600006767998138
 30
0.0
 11
4274.3374682727599065
 21
225.8554268258214961
 31
0.0
  0
LINE
  5
124B9
  8
0
 10
4274.3374682727599065
 20
225.8554268258214961
 30
0.0
 11
4274.3524579263275882
 21
225.8450790754316984
 31
0.0
  0
LINE
  5
124BA
  8
0
 10
4274.3560725054885552
 20
225.8595763607181937
 30
0.0
 11
4274.3555480984286987
 21
225.8574730788901093
 31
0.0
  0
LINE
  5
124BB
  8
0
 10
4274.3555480984286987
 20
225.8574730788901093
 30
0.0
 11
4274.3388759010613285
 21
225.8610725146681943
 31
0.0
  0
LINE
  5
124BC
  8
0
 10
4274.3388759010613285
 20
225.8610725146681943
 30
0.0
 11
4274.3336222781208562
 21
225.8651738310742019
 31
0.0
  0
LINE
  5
124BD
  8
0
 10
4274.3488913907367532
 20
225.8307744824026031
 30
0.0
 11
4274.3336263038054312
 21
225.840017529808307
 31
0.0
  0
LINE
  5
124BE
  8
0
 10
4274.3336263038054312
 20
225.840017529808307
 30
0.0
 11
4274.317428954596835
 21
225.8455214775908075
 31
0.0
  0
LINE
  5
124BF
  8
0
 10
4274.317428954596835
 20
225.8455214775908075
 30
0.0
 11
4274.316491157602286
 21
225.8417601789971911
 31
0.0
  0
LINE
  5
124C0
  8
0
 10
4274.316491157602286
 20
225.8417601789971911
 30
0.0
 11
4274.3317617145803524
 21
225.8325390707736062
 31
0.0
  0
LINE
  5
124C1
  8
0
 10
4274.3317617145803524
 20
225.8325390707736062
 30
0.0
 11
4274.3479645343531956
 21
225.8270570643751114
 31
0.0
  0
LINE
  5
124C2
  8
0
 10
4274.3479645343531956
 20
225.8270570643751114
 30
0.0
 11
4274.3488913907922324
 21
225.8307744823694065
 31
0.0
  0
LINE
  5
124C3
  8
0
 10
4274.3467034839231928
 20
225.821999267107401
 30
0.0
 11
4274.3311875487434008
 21
225.8302362174829909
 31
0.0
  0
LINE
  5
124C4
  8
0
 10
4274.3311875487434008
 20
225.8302362174829909
 30
0.0
 11
4274.3152154581257491
 21
225.8366436278757021
 31
0.0
  0
LINE
  5
124C5
  8
0
 10
4274.3152154581257491
 20
225.8366436278757021
 30
0.0
 11
4274.3147532351213158
 21
225.8347897527011128
 31
0.0
  0
LINE
  5
124C6
  8
0
 10
4274.3147532351213158
 20
225.8347897527011128
 30
0.0
 11
4274.3302683863921629
 21
225.8265496586255097
 31
0.0
  0
LINE
  5
124C7
  8
0
 10
4274.3302683863921629
 20
225.8265496586255097
 30
0.0
 11
4274.3461903183469985
 21
225.8201876070280889
 31
0.0
  0
LINE
  5
124C8
  8
0
 10
4274.3461903183469985
 20
225.8201876070280889
 30
0.0
 11
4274.3467034839231928
 21
225.8219992671041041
 31
0.0
  0
LINE
  5
124C9
  8
0
 10
4274.3000332772580805
 20
225.8735485095814965
 30
0.0
 11
4274.3110750288524287
 21
225.8646430148897082
 31
0.0
  0
LINE
  5
124CA
  8
0
 10
4274.3110750288524287
 20
225.8646430148897082
 30
0.0
 11
4274.3274151627301762
 21
225.8597117450372878
 31
0.0
  0
LINE
  5
124CB
  8
0
 10
4274.3274151627301762
 20
225.8597117450372878
 30
0.0
 11
4274.3290605886377307
 21
225.8663111880030954
 31
0.0
  0
LINE
  5
124CC
  8
0
 10
4274.3247841011452692
 20
225.8491591332920052
 30
0.0
 11
4274.3098747158837796
 21
225.8598288219180859
 31
0.0
  0
LINE
  5
124CD
  8
0
 10
4274.3098747158837796
 20
225.8598288219180859
 30
0.0
 11
4274.2937740493307501
 21
225.8657205427413999
 31
0.0
  0
LINE
  5
124CE
  8
0
 10
4274.2937740493307501
 20
225.8657205427413999
 30
0.0
 11
4274.2925734950731567
 21
225.8609053827491948
 31
0.0
  0
LINE
  5
124CF
  8
0
 10
4274.2925734950731567
 20
225.8609053827491948
 30
0.0
 11
4274.3074920118906448
 21
225.8502723184228955
 31
0.0
  0
LINE
  5
124D0
  8
0
 10
4274.3074920118906448
 20
225.8502723184228955
 30
0.0
 11
4274.3236018114776016
 21
225.8444172281936915
 31
0.0
  0
LINE
  5
124D1
  8
0
 10
4274.3236018114776016
 20
225.8444172281936915
 30
0.0
 11
4274.324784099633689
 21
225.8491591343739913
 31
0.0
  0
LINE
  5
124D2
  8
0
 10
4274.3218906777910888
 20
225.8375542457561096
 30
0.0
 11
4274.3067116223246558
 21
225.8471423469229933
 31
0.0
  0
LINE
  5
124D3
  8
0
 10
4274.3067116223246558
 20
225.8471423469229933
 30
0.0
 11
4274.2908364942622939
 21
225.8539386528682087
 31
0.0
  0
LINE
  5
124D4
  8
0
 10
4274.2908364942622939
 20
225.8539386528682087
 30
0.0
 11
4274.2901303834469218
 21
225.851106597311599
 31
0.0
  0
LINE
  5
124D5
  8
0
 10
4274.2901303834469218
 20
225.851106597311599
 30
0.0
 11
4274.3053098326827239
 21
225.8415200755354135
 31
0.0
  0
LINE
  5
124D6
  8
0
 10
4274.3053098326827239
 20
225.8415200755354135
 30
0.0
 11
4274.3211948983462207
 21
225.8347636269232055
 31
0.0
  0
LINE
  5
124D7
  8
0
 10
4274.3211948983462207
 20
225.8347636269232055
 30
0.0
 11
4274.3218906777910888
 21
225.8375542457561096
 31
0.0
  0
LINE
  5
124D8
  8
0
 10
4274.3200920171238977
 20
225.8303769757708039
 30
0.0
 11
4274.3203514708739021
 21
225.831380824110596
 31
0.0
  0
LINE
  5
124D9
  8
0
 10
4274.3203514708739021
 20
225.831380824110596
 30
0.0
 11
4274.3049252414530201
 21
225.8399775643316048
 31
0.0
  0
LINE
  5
124DA
  8
0
 10
4274.3049252414530201
 20
225.8399775643316048
 30
0.0
 11
4274.289274573558032
 21
225.8476741310865066
 31
0.0
  0
LINE
  5
124DB
  8
0
 10
4274.289274573558032
 20
225.8476741310865066
 30
0.0
 11
4274.2890085962117155
 21
225.8466965955545902
 31
0.0
  0
LINE
  5
124DC
  8
0
 10
4274.2955492361570577
 20
225.8469782024891117
 30
0.0
 11
4274.2804633112518786
 21
225.8569398296116901
 31
0.0
  0
LINE
  5
124DD
  8
0
 10
4274.2804633112518786
 20
225.8569398296116901
 30
0.0
 11
4274.2649165245302356
 21
225.8650530411125885
 31
0.0
  0
LINE
  5
124DE
  8
0
 10
4274.2649165245302356
 20
225.8650530411125885
 30
0.0
 11
4274.2644415752538407
 21
225.8631481234571936
 31
0.0
  0
LINE
  5
124DF
  8
0
 10
4274.2644415752538407
 20
225.8631481234571936
 30
0.0
 11
4274.2795219699955851
 21
225.8531643161290958
 31
0.0
  0
LINE
  5
124E0
  8
0
 10
4274.2795219699955851
 20
225.8531643161290958
 30
0.0
 11
4274.2950827347240192
 21
225.8451071673815989
 31
0.0
  0
LINE
  5
124E1
  8
0
 10
4274.2950827347240192
 20
225.8451071673815989
 30
0.0
 11
4274.2955492361488723
 21
225.8469782024569099
 31
0.0
  0
LINE
  5
124E2
  8
0
 10
4274.2696481129396489
 20
225.8580750575019067
 30
0.0
 11
4274.2698768211866991
 21
225.8590854782067936
 31
0.0
  0
LINE
  5
124E3
  8
0
 10
4274.2698768211866991
 20
225.8590854782067936
 30
0.0
 11
4274.2548927304969766
 21
225.8694555400456068
 31
0.0
  0
LINE
  5
124E4
  8
0
 10
4274.2548927304969766
 20
225.8694555400456068
 30
0.0
 11
4274.2396856032928554
 21
225.878931051647811
 31
0.0
  0
LINE
  5
124E5
  8
0
 10
4274.2396856032928554
 20
225.878931051647811
 30
0.0
 11
4274.2394162563196005
 21
225.8778850846381943
 31
0.0
  0
LINE
  5
124E6
  8
0
 10
4274.2968368953988829
 20
225.8521427216093969
 30
0.0
 11
4274.297783629094738
 21
225.855939863255287
 31
0.0
  0
LINE
  5
124E7
  8
0
 10
4274.297783629094738
 20
225.855939863255287
 30
0.0
 11
4274.2833589424653837
 21
225.8666562771423969
 31
0.0
  0
LINE
  5
124E8
  8
0
 10
4274.2833589424653837
 20
225.8666562771423969
 30
0.0
 11
4274.2671922122017349
 21
225.8741803257686058
 31
0.0
  0
LINE
  5
124E9
  8
0
 10
4274.2671922122017349
 20
225.8741803257686058
 30
0.0
 11
4274.2662278112293279
 21
225.8703123246990003
 31
0.0
  0
LINE
  5
124EA
  8
0
 10
4274.2662278112293279
 20
225.8703123246990003
 30
0.0
 11
4274.2810514861812408
 21
225.8592988706218136
 31
0.0
  0
LINE
  5
124EB
  8
0
 10
4274.2810514861812408
 20
225.8592988706218136
 30
0.0
 11
4274.296836895391607
 21
225.852142721686505
 31
0.0
  0
LINE
  5
124EC
  8
0
 10
4274.3014292973830379
 20
225.8705618400626065
 30
0.0
 11
4274.2969671289347389
 21
225.8743129862195076
 31
0.0
  0
LINE
  5
124ED
  8
0
 10
4274.2727439070158653
 20
225.880352513766212
 30
0.0
 11
4274.2839626701152156
 21
225.8709749913992937
 31
0.0
  0
LINE
  5
124EE
  8
0
 10
4274.2839626701152156
 20
225.8709749913992937
 30
0.0
 11
4274.2999727506630734
 21
225.864719950121696
 31
0.0
  0
LINE
  5
124EF
  8
0
 10
4274.2999727506630734
 20
225.864719950121696
 30
0.0
 11
4274.3014292973830379
 21
225.8705618400626065
 31
0.0
  0
LINE
  5
124F0
  8
0
 10
4274.2744291439666995
 20
225.8773438477491879
 30
0.0
 11
4274.2702669235686699
 21
225.8809700951026116
 31
0.0
  0
LINE
  5
124F1
  8
0
 10
4274.2744291439767039
 20
225.8773438477896889
 30
0.0
 11
4274.2732949680003003
 21
225.872794916593989
 31
0.0
  0
LINE
  5
124F2
  8
0
 10
4274.2732949680003003
 20
225.872794916593989
 30
0.0
 11
4274.2575372496266937
 21
225.8800621271784905
 31
0.0
  0
LINE
  5
124F3
  8
0
 10
4274.2575372496266937
 20
225.8800621271784905
 30
0.0
 11
4274.2509533788206681
 21
225.8857855026448931
 31
0.0
  0
LINE
  5
124F4
  8
0
 10
4274.2714566834138168
 20
225.8654219596791961
 30
0.0
 11
4274.2567328982759136
 21
225.8768360500388042
 31
0.0
  0
LINE
  5
124F5
  8
0
 10
4274.2567328982759136
 20
225.8768360500388042
 30
0.0
 11
4274.2413002196099114
 21
225.8854069238959141
 31
0.0
  0
LINE
  5
124F6
  8
0
 10
4274.2413002196099114
 20
225.8854069238959141
 30
0.0
 11
4274.2405701294110258
 21
225.8824786921489931
 31
0.0
  0
LINE
  5
124F7
  8
0
 10
4274.2405701294110258
 20
225.8824786921489931
 30
0.0
 11
4274.2552887785122948
 21
225.8710440020925887
 31
0.0
  0
LINE
  5
124F8
  8
0
 10
4274.2552887785122948
 20
225.8710440020925887
 30
0.0
 11
4274.270742409941704
 21
225.8625571653923032
 31
0.0
  0
LINE
  5
124F9
  8
0
 10
4274.270742409941704
 20
225.8625571653923032
 30
0.0
 11
4274.2714566834238212
 21
225.8654219597210897
 31
0.0
  0
LINE
  5
124FA
  8
0
 10
4274.2458136712439227
 20
225.8776471639260137
 30
0.0
 11
4274.2311984019406736
 21
225.8894964873852018
 31
0.0
  0
LINE
  5
124FB
  8
0
 10
4274.2311984019406736
 20
225.8894964873852018
 30
0.0
 11
4274.2282511600551516
 21
225.8914458015127877
 31
0.0
  0
LINE
  5
124FC
  8
0
 10
4274.2207379680930899
 20
225.8933190506608071
 30
0.0
 11
4274.2302231267876778
 21
225.8855848724383861
 31
0.0
  0
LINE
  5
124FD
  8
0
 10
4274.2302231267876778
 20
225.8855848724383861
 30
0.0
 11
4274.2453321800885533
 21
225.8757160080247957
 31
0.0
  0
LINE
  5
124FE
  8
0
 10
4274.2453321800885533
 20
225.8757160080247957
 30
0.0
 11
4274.2458136712439227
 21
225.8776471639260137
 31
0.0
  0
LINE
  5
124FF
  8
0
 10
4274.2205989450731067
 20
225.8915903186135949
 30
0.0
 11
4274.220876046637386
 21
225.8927015228036055
 31
0.0
  0
LINE
  5
12500
  8
0
 10
4274.220876046637386
 20
225.8927015228036055
 30
0.0
 11
4274.2199074795726119
 21
225.8935261147049118
 31
0.0
  0
LINE
  5
12501
  8
0
 10
4274.2480248381089041
 20
225.8865156698524004
 30
0.0
 11
4274.2471432662368898
 21
225.8829798778334919
 31
0.0
  0
LINE
  5
12502
  8
0
 10
4274.2471432662368898
 20
225.8829798778334919
 30
0.0
 11
4274.2359345041277265
 21
225.8895301286790982
 31
0.0
  0
LINE
  5
12503
  8
0
 10
4274.2311984019406736
 20
225.8894964873852018
 30
0.0
 11
4274.2302231267876778
 21
225.8855848724383861
 31
0.0
  0
LINE
  5
12504
  8
0
 10
4274.2548927304969766
 20
225.8694555400456068
 30
0.0
 11
4274.2544283864890531
 21
225.8677233328438092
 31
0.0
  0
LINE
  5
12505
  8
0
 10
4274.2567328982759136
 20
225.8768360500388042
 30
0.0
 11
4274.2552887785122948
 21
225.8710440020925887
 31
0.0
  0
LINE
  5
12506
  8
0
 10
4274.2575372496266937
 20
225.8800621271784905
 30
0.0
 11
4274.2584954016792835
 21
225.8839050651471894
 31
0.0
  0
LINE
  5
12507
  8
0
 10
4274.2795219699955851
 20
225.8531643161290958
 30
0.0
 11
4274.2804633112518786
 21
225.8569398296116901
 31
0.0
  0
LINE
  5
12508
  8
0
 10
4274.2810514861812408
 20
225.8592988706218136
 30
0.0
 11
4274.2833589424653837
 21
225.8666562771423969
 31
0.0
  0
LINE
  5
12509
  8
0
 10
4274.2839626701152156
 20
225.8709749913992937
 30
0.0
 11
4274.2855073185146466
 21
225.8771702378662098
 31
0.0
  0
LINE
  5
1250A
  8
0
 10
4274.3110750288524287
 20
225.8646430148897082
 30
0.0
 11
4274.3125192353272723
 21
225.8704354105908862
 31
0.0
  0
LINE
  5
1250B
  8
0
 10
4274.3074920118906448
 20
225.8502723184228955
 30
0.0
 11
4274.3098747158837796
 21
225.8598288219180859
 31
0.0
  0
LINE
  5
1250C
  8
0
 10
4274.3053098326827239
 20
225.8415200755354135
 30
0.0
 11
4274.3067116223246558
 21
225.8471423469229933
 31
0.0
  0
LINE
  5
1250D
  8
0
 10
4274.3049252414530201
 20
225.8399775643316048
 30
0.0
 11
4274.3045447541780959
 21
225.8382502762707134
 31
0.0
  0
LINE
  5
1250E
  8
0
 10
4274.3302683863921629
 20
225.8265496586255097
 30
0.0
 11
4274.3311875487434008
 21
225.8302362174829909
 31
0.0
  0
LINE
  5
1250F
  8
0
 10
4274.3317617145803524
 20
225.8325390707736062
 30
0.0
 11
4274.3336263038054312
 21
225.840017529808307
 31
0.0
  0
LINE
  5
12510
  8
0
 10
4274.3346017929607115
 20
225.8439300032576966
 30
0.0
 11
4274.3374682727599065
 21
225.8554268258214961
 31
0.0
  0
LINE
  5
12511
  8
0
 10
4274.3388759010613285
 20
225.8610725146681943
 30
0.0
 11
4274.3395935424969139
 21
225.8636850276523091
 31
0.0
  0
LINE
  5
12512
  8
0
 10
4274.3657515891063667
 20
225.8537913033509881
 30
0.0
 11
4274.3624494460646019
 21
225.8402633281299927
 31
0.0
  0
LINE
  5
12513
  8
0
 10
4274.3612059275001229
 20
225.8355596503147069
 30
0.0
 11
4274.3588695571743301
 21
225.8261889809560898
 31
0.0
  0
LINE
  5
12514
  8
0
 10
4274.3581040015487815
 20
225.8231185048398117
 30
0.0
 11
4274.3567284478112924
 21
225.8176014600662995
 31
0.0
  0
LINE
  5
12515
  8
0
 10
4274.356350964185367
 20
225.8160874560645084
 30
0.0
 11
4274.355800388316311
 21
225.8143567654560968
 31
0.0
  0
LINE
  5
12516
  8
0
 10
4281.7453119821129803
 20
226.5121730786470096
 30
0.0
 11
4281.7453119821129803
 21
221.1302872517470064
 31
0.0
  0
ARC
  5
12517
  8
0
 10
4281.7138119821138389
 20
226.5121730786470096
 30
0.0
 40
0.0315
 50
0.0
 51
90.0
  0
LINE
  5
12518
  8
0
 10
4279.7594849895103835
 20
224.7228266127351048
 30
0.0
 11
4279.7594849895103835
 21
223.6220174959564133
 31
0.0
  0
LINE
  5
12519
  8
0
 10
4279.7594849895103835
 20
222.2926567471803025
 30
0.0
 11
4279.7594849895103835
 21
221.1255701956808934
 31
0.0
  0
LINE
  5
1251A
  8
0
 10
4274.8743205169630528
 20
225.7923008258204902
 30
0.0
 11
4273.9830380010089357
 21
226.013390500284288
 31
0.0
  0
ARC
  5
1251B
  8
0
 10
4274.7335363983429488
 20
226.8294733335031879
 30
0.0
 40
1.108710528079802
 50
212.6666764486541013
 51
227.397270112833894
  0
ARC
  5
1251C
  8
0
 10
4274.5980079289256537
 20
226.7425768724079944
 30
0.0
 40
0.9477168605843663
 50
194.5646932951237886
 51
212.6666764486541013
  0
ARC
  5
1251D
  8
0
 10
4273.7112343234102809
 20
226.5121730786470096
 30
0.0
 40
0.0315
 50
90.0
 51
194.5646932951223107
  0
ARC
  5
1251E
  8
0
 10
4275.1879615141187969
 20
227.1420023743364993
 30
0.0
 40
1.3856640809241241
 50
256.9178969515323274
 51
258.9100269886188812
  0
ARC
  5
1251F
  8
0
 10
4274.9435166803177708
 20
225.8949014479688913
 30
0.0
 40
0.1148320710505803
 50
258.9100269886188812
 51
266.3340664176976134
  0
ARC
  5
12520
  8
0
 10
4275.2937503238135832
 20
224.6219505533701124
 30
0.0
 40
1.2122887534954021
 50
100.149685733926205
 51
107.1550990713299996
  0
ARC
  5
12521
  8
0
 10
4275.7127351191902562
 20
220.9921839416055036
 30
0.0
 40
4.8643951487393249
 50
89.6191447484103492
 51
97.4724842085695542
  0
ARC
  5
12522
  8
0
 10
4276.0708309091751289
 20
199.7350925793635952
 30
0.0
 40
26.12341026309171
 50
89.7300114023060473
 51
90.7145025943311083
  0
ARC
  5
12523
  8
0
 10
4277.0383779356498053
 20
196.6456633556655049
 30
0.0
 40
29.1981252892623395
 50
87.1052238054633392
 51
89.0115734173871118
  0
ARC
  5
12524
  8
0
 10
4278.3487344727536765
 20
222.5592406927464992
 30
0.0
 40
3.2514390912290501
 50
76.9049680202960388
 51
87.1052238054633392
  0
ARC
  5
12525
  8
0
 10
4278.8589421109509203
 20
224.7525888920532111
 30
0.0
 40
0.9995314205028019
 50
53.1668351458386468
 51
76.9049680202960388
  0
ARC
  5
12526
  8
0
 10
4279.0620607283271966
 20
225.0237757497498876
 30
0.0
 40
0.6607106942884926
 50
10.8182828707169794
 51
53.1668351458386468
  0
ARC
  5
12527
  8
0
 10
4276.918061547607067
 20
224.6140769515457123
 30
0.0
 40
2.843503765603653
 50
2.191808799327863
 51
10.8182828707169794
  0
LINE
  5
12528
  8
0
 10
4280.6459378821646169
 20
224.4109452878394961
 30
0.0
 11
4279.7594849895103835
 21
224.4109452878394961
 31
0.0
  0
LINE
  5
12529
  8
0
 10
4280.6459378821646169
 20
224.5788860764710932
 30
0.0
 11
4280.6459378821646169
 21
224.4109452878394961
 31
0.0
  0
ARC
  5
1252A
  8
0
 10
4274.1120745260795957
 20
224.6916460433010059
 30
0.0
 40
6.5348362769169253
 50
359.0113002730324183
 51
6.3151777164544312
  0
ARC
  5
1252B
  8
0
 10
4279.4384033507903951
 20
225.2811064095444067
 30
0.0
 40
1.1759891740124599
 50
6.3151777164544312
 51
27.9675454575607816
  0
ARC
  5
1252C
  8
0
 10
4279.7735083168126948
 20
225.45904147353599
 30
0.0
 40
0.7965735374734823
 50
27.9675454575607816
 51
76.4773018423069715
  0
ARC
  5
1252D
  8
0
 10
4279.2473046079658161
 20
223.2710641602496082
 30
0.0
 40
3.0469368562867469
 50
76.4773018423069715
 51
85.2544391679327447
  0
ARC
  5
1252E
  8
0
 10
4279.1568154689512085
 20
222.1810381754947059
 30
0.0
 40
4.1407123962036056
 50
85.2544391679327447
 51
90.0428333524729254
  0
LINE
  5
1252F
  8
0
 10
4274.1119600144911601
 20
225.9572689472865079
 30
0.0
 11
4274.117319849244268
 21
225.9800808262124008
 31
0.0
  0
LINE
  5
12530
  8
0
 10
4274.1168216819060035
 20
225.9275079724571071
 30
0.0
 11
4274.1228877927233043
 21
225.9177158394765002
 31
0.0
  0
ARC
  5
12531
  8
0
 10
4274.1503155227637762
 20
225.9482570115814895
 30
0.0
 40
0.0394
 50
166.777726208607902
 51
211.7777261703778038
  0
LINE
  5
12532
  8
0
 10
4274.3966865465454248
 20
225.8442039545487035
 30
0.0
 11
4274.4079599133410738
 21
225.8375379698470056
 31
0.0
  0
LINE
  5
12533
  8
0
 10
4274.4079599133410738
 20
225.8375379698470056
 30
0.0
 11
4274.4287514961879424
 21
225.8317169711137069
 31
0.0
  0
LINE
  5
12534
  8
0
 10
4274.4287514961879424
 20
225.8317169711137069
 30
0.0
 11
4274.430549778441673
 21
225.8389294872469861
 31
0.0
  0
LINE
  5
12535
  8
0
 10
4274.430549778441673
 20
225.8389294872469861
 30
0.0
 11
4274.439704323769547
 21
225.8387246064810085
 31
0.0
  0
LINE
  5
12536
  8
0
 10
4274.4289390427766193
 20
225.8324691793955878
 30
0.0
 11
4274.4466427386996656
 21
225.8330068581448984
 31
0.0
  0
LINE
  5
12537
  8
0
 10
4274.4466427386996656
 20
225.8330068581448984
 30
0.0
 11
4274.4475788196323265
 21
225.8367612741535027
 31
0.0
  0
LINE
  5
12538
  8
0
 10
4274.4079599133410738
 20
225.8375379698470056
 30
0.0
 11
4274.4100963392656922
 21
225.8461067061296887
 31
0.0
  0
LINE
  5
12539
  8
0
 10
4274.4132851740232582
 20
225.8453116403281911
 30
0.0
 11
4274.4200127499298105
 21
225.8412735154992959
 31
0.0
  0
LINE
  5
1253A
  8
0
 10
4274.4200127499298105
 20
225.8412735154992959
 30
0.0
 11
4274.4314649751086108
 21
225.8407789068286036
 31
0.0
  0
LINE
  5
1253B
  8
0
 10
4274.4960081566623558
 20
225.8194402963464995
 30
0.0
 11
4274.4829248743371863
 21
225.8188471062065901
 31
0.0
  0
LINE
  5
1253C
  8
0
 10
4274.4829248743371863
 20
225.8188471062065901
 30
0.0
 11
4274.4618342028970801
 21
225.8234685260835874
 31
0.0
  0
LINE
  5
1253D
  8
0
 10
4274.4618342028970801
 20
225.8234685260835874
 30
0.0
 11
4274.4636324850644087
 21
225.8306810422386093
 31
0.0
  0
LINE
  5
1253E
  8
0
 10
4274.4636324850644087
 20
225.8306810422386093
 30
0.0
 11
4274.4554533155696845
 21
225.8347979418863929
 31
0.0
  0
LINE
  5
1253F
  8
0
 10
4274.4620217494766621
 20
225.824220734367799
 30
0.0
 11
4274.4466427385777934
 21
225.8330068581753949
 31
0.0
  0
LINE
  5
12540
  8
0
 10
4274.4829248743371863
 20
225.8188471062065901
 30
0.0
 11
4274.4850613001435704
 21
225.8274158425188034
 31
0.0
  0
LINE
  5
12541
  8
0
 10
4274.4818724653823665
 20
225.8282109082898899
 30
0.0
 11
4274.4740365836569254
 21
225.827803861195207
 31
0.0
  0
LINE
  5
12542
  8
0
 10
4274.4740365836569254
 20
225.827803861195207
 30
0.0
 11
4274.4636926642506296
 21
225.832743641616986
 31
0.0
  0
LINE
  5
12543
  8
0
 10
4279.1537199429121756
 20
226.3217494146169031
 30
0.0
 11
4277.0597530707609621
 21
226.3217494146169031
 31
0.0
  0
LINE
  5
12544
  8
0
 10
4275.7134291557467805
 20
226.3217494146169031
 30
0.0
 11
4273.7488486396250664
 21
226.3217494146169031
 31
0.0
  0
LINE
  5
12545
  8
0
 10
4273.8148365239530904
 20
228.2373052129127871
 30
0.0
 11
4274.154961569801344
 21
227.8971801670550121
 31
0.0
  0
LINE
  5
12546
  8
0
 10
4274.2070661562529494
 20
227.8450755806011898
 30
0.0
 11
4274.2990074549807105
 21
227.7531342818703024
 31
0.0
  0
LINE
  5
12547
  8
0
 10
4274.3511120414341349
 20
227.7010296954165085
 30
0.0
 11
4274.4410444180566628
 21
227.611097318790911
 31
0.0
  0
LINE
  5
12548
  8
0
 10
4274.4931490045082683
 20
227.5589927323370887
 30
0.0
 11
4274.5816867445846583
 21
227.4704549922595049
 31
0.0
  0
LINE
  5
12549
  8
0
 10
4274.6337913310362637
 20
227.4183504058055973
 30
0.0
 11
4274.7202488934908615
 21
227.3318928433482995
 31
0.0
  0
LINE
  5
1254A
  8
0
 10
4274.7723534799433764
 20
227.2797882568945056
 30
0.0
 11
4274.8630567290902036
 21
227.189085007745291
 31
0.0
  0
LINE
  5
1254B
  8
0
 10
4274.9151613155427185
 20
227.1369804212914971
 30
0.0
 11
4275.0047637528996347
 21
227.0473779839315966
 31
0.0
  0
LINE
  5
1254C
  8
0
 10
4275.0568683393521496
 20
226.9952733974776891
 30
0.0
 11
4275.1453198176095611
 21
226.9068219192164975
 31
0.0
  0
LINE
  5
1254D
  8
0
 10
4275.1974244040629856
 20
226.8547173327627036
 30
0.0
 11
4275.2875999799771307
 21
226.7645417568456025
 31
0.0
  0
LINE
  5
1254E
  8
0
 10
4275.3397045664287361
 20
226.7124371703918086
 30
0.0
 11
4275.4288674043564242
 21
226.6232743324626995
 31
0.0
  0
LINE
  5
1254F
  8
0
 10
4275.4809719908080297
 20
226.5711697460087919
 30
0.0
 11
4275.5696426482463721
 21
226.4824990885678062
 31
0.0
  0
LINE
  5
12550
  8
0
 10
4275.621747234698887
 20
226.4303945021140123
 30
0.0
 11
4275.7110776330237059
 21
226.3410641037851008
 31
0.0
  0
LINE
  5
12551
  8
0
 10
4275.7631822194771303
 20
226.2889595173313069
 30
0.0
 11
4275.8516035267994084
 21
226.2005382100066129
 31
0.0
  0
LINE
  5
12552
  8
0
 10
4275.9037081132519234
 20
226.1484336235527906
 30
0.0
 11
4275.9917530433604043
 21
226.0603886934412969
 31
0.0
  0
LINE
  5
12553
  8
0
 10
4276.0438576298120097
 20
226.008284106987503
 30
0.0
 11
4276.4000189159169167
 21
225.6521228208719947
 31
0.0
  0
LINE
  5
12554
  8
0
 10
4276.4438595363417335
 20
225.6082822004470074
 30
0.0
 11
4279.8026167469406573
 21
222.2495249897469876
 31
0.0
  0
LINE
  5
12555
  8
0
 10
4274.4795168977998401
 20
228.9019855874965117
 30
0.0
 11
4277.0646992902120473
 21
226.316803195166699
 31
0.0
  0
LINE
  5
12556
  8
0
 10
4277.1085399106377736
 20
226.2729625747429907
 30
0.0
 11
4277.2393546651992438
 21
226.1421478201858122
 31
0.0
  0
LINE
  5
12557
  8
0
 10
4277.3524917501636082
 20
226.0290107352234941
 30
0.0
 11
4280.4672971213412893
 21
222.914205364146909
 31
0.0
  0
LINE
  5
12558
  8
0
 10
4274.4639605487000154
 20
228.903399801148197
 30
0.0
 11
4273.813422310320675
 21
228.2528615620261121
 31
0.0
  0
LINE
  5
12559
  8
0
 10
4273.7964517475584216
 20
228.2528615620302901
 30
0.0
 11
4273.7497827000561301
 21
228.2995306096318018
 31
0.0
  0
LINE
  5
1255A
  8
0
 10
4274.4003209387174138
 20
228.967039411022796
 30
0.0
 11
4273.7497827000652251
 21
228.3165011723712041
 31
0.0
  0
LINE
  5
1255B
  8
0
 10
4274.4639605486872824
 20
228.9203703639009007
 30
0.0
 11
4274.4172915014569298
 21
228.9670394110318057
 31
0.0
  0
ARC
  5
1255C
  8
0
 10
4274.4710316164264441
 20
228.8935003061222062
 30
0.0
 40
0.012
 50
45.0000000008808811
 51
135.000000032665298
  0
ARC
  5
1255D
  8
0
 10
4273.8233218053283053
 20
228.2457904942868936
 30
0.0
 40
0.012
 50
135.0000000326411111
 51
224.9999999991640038
  0
ARC
  5
1255E
  8
0
 10
4273.8049370289400031
 20
228.2613468433953869
 30
0.0
 40
0.012
 50
224.9999999385890987
 51
315.0000000326559757
  0
ARC
  5
1255F
  8
0
 10
4274.4554752673220719
 20
228.9118850825176139
 30
0.0
 40
0.012
 50
315.0000000326410827
 51
45.0000000613798292
  0
ARC
  5
12560
  8
0
 10
4274.4088062200908098
 20
228.9585541296484905
 30
0.0
 40
0.012
 50
45.0000000613648723
 51
135.0000000000229932
  0
ARC
  5
12561
  8
0
 10
4273.7582679814386211
 20
228.3080158909970123
 30
0.0
 40
0.012
 50
134.9999999999527915
 51
224.9999999386155025
  0
LINE
  5
12562
  8
0
 10
4279.8026167469406573
 20
222.2495249897469876
 30
0.0
 11
4280.4672971213412893
 21
222.914205364146909
 31
0.0
  0
LINE
  5
12563
  8
0
 10
4277.1085399106377736
 20
226.2729625747429907
 30
0.0
 11
4276.4438595363417335
 21
225.6082822004470074
 31
0.0
  0
LINE
  5
12564
  8
0
 10
4276.4226463329423495
 20
225.6436375394470133
 30
0.0
 11
4277.0731845716409225
 21
226.2941757781470073
 31
0.0
  0
LINE
  5
12565
  8
0
 10
4277.0646992902129568
 20
226.299832632418088
 30
0.0
 11
4276.4169894786673467
 21
225.6521228208717957
 31
0.0
  0
ARC
  5
12566
  8
0
 10
4277.0562140088386514
 20
226.3083179137923935
 30
0.0
 40
0.012
 50
315.0000000000104023
 51
45.000000000932701
  0
ARC
  5
12567
  8
0
 10
4276.4085041972912222
 20
225.6606081022461012
 30
0.0
 40
0.012
 50
224.9999999991179038
 51
314.9999999999953957
  0
LINE
  5
12568
  8
0
 10
4276.4226463329423495
 20
225.6436375394470133
 30
0.0
 11
4276.4509306041400123
 21
225.6153532682469915
 31
0.0
  0
LINE
  5
12569
  8
0
 10
4277.0731845716409225
 20
226.2941757781470073
 30
0.0
 11
4277.1014688428413137
 21
226.265891506947014
 31
0.0
  0
LINE
  5
1256A
  8
0
 10
4276.5400111398930676
 20
225.7610023463984987
 30
0.0
 11
4276.5329400720429476
 21
225.7680734142485051
 31
0.0
  0
LINE
  5
1256B
  8
0
 10
4276.9824608036497011
 20
226.2175941458555997
 30
0.0
 11
4276.9895318714998211
 21
226.2105230780055933
 31
0.0
  0
LINE
  5
1256C
  8
0
 10
4279.818173096215105
 20
222.2339686405732948
 30
0.0
 11
4279.8535284352174131
 21
222.1986133015707026
 31
0.0
  0
LINE
  5
1256D
  8
0
 10
4280.4828534705147831
 20
222.8986490148732003
 30
0.0
 11
4280.5182088095170911
 21
222.8632936758706933
 31
0.0
  0
LINE
  5
1256E
  8
0
 10
4280.4545691992670982
 20
222.8986490148732003
 30
0.0
 11
4279.818173096215105
 21
222.2622529118208092
 31
0.0
  0
ARC
  5
1256F
  8
0
 10
4280.4687113348909406
 20
222.8845068792494999
 30
0.0
 40
0.02
 50
44.9999999999976907
 51
135.0000000000104023
  0
ARC
  5
12570
  8
0
 10
4279.832315231838038
 20
222.2481107761969952
 30
0.0
 40
0.02
 50
135.0000000000046043
 51
224.9999999999953957
  0
LINE
  5
12571
  8
0
 10
4279.8994903760412853
 20
222.3435701916469895
 30
0.0
 11
4279.8980761624407023
 21
222.3449844052470041
 31
0.0
  0
LINE
  5
12572
  8
0
 10
4280.3732519194409178
 20
222.8173317350469915
 30
0.0
 11
4280.3718377058421538
 21
222.8187459486468924
 31
0.0
  0
LINE
  5
12573
  8
0
 10
4279.881812706465098
 20
222.1986133015707026
 30
0.0
 11
4280.5182088095170911
 21
222.8350094046232073
 31
0.0
  0
ARC
  5
12574
  8
0
 10
4280.4828534704383856
 20
222.7713697942969873
 30
0.0
 40
0.02
 50
135.0000000000046043
 51
224.9999999999965041
  0
ARC
  5
12575
  8
0
 10
4279.8676705708412555
 20
222.2127554371944029
 30
0.0
 40
0.02
 50
225.0000000000023022
 51
315.0000000000092086
  0
ARC
  5
12576
  8
0
 10
4280.5040666738941582
 20
222.8491515402469929
 30
0.0
 40
0.02
 50
315.0000000000150067
 51
44.9999999999873381
  0
LINE
  5
12577
  8
0
 10
4279.9595944523971411
 20
222.2481107762384056
 30
0.0
 11
4279.9984853253417896
 21
222.2092199032470035
 31
0.0
  0
ARC
  5
12578
  8
0
 10
4279.9454523167651132
 20
222.2339686406232886
 30
0.0
 40
0.02
 50
44.9999999650478628
 51
135.0000000000046043
  0
LINE
  5
12579
  8
0
 10
4279.9984853253417896
 20
222.2092199032470035
 30
0.0
 11
4279.9984853253417896
 21
222.1822162190312895
 31
0.0
  0
LINE
  5
1257A
  8
0
 10
4280.4687113348154526
 20
222.7572276586732016
 30
0.0
 11
4280.5076022077910238
 21
222.7183367856970051
 31
0.0
  0
LINE
  5
1257B
  8
0
 10
4280.5076022077910238
 20
222.7183367856970051
 30
0.0
 11
4280.5131911352400493
 21
222.7183367857469989
 31
0.0
  0
LINE
  5
1257C
  8
0
 10
4280.5131911352400493
 20
222.7183367857469989
 30
0.0
 11
4280.516883160917132
 21
222.7146447567708947
 31
0.0
  0
LINE
  5
1257D
  8
0
 10
4280.516883160917132
 20
222.7146447567708947
 30
0.0
 11
4280.5295971595405717
 21
222.7183367857469989
 31
0.0
  0
LINE
  5
1257E
  8
0
 10
4280.5295971595405717
 20
222.7183367857469989
 30
0.0
 11
4280.53460589212591
 21
222.7183367857469989
 31
0.0
  0
LINE
  5
1257F
  8
0
 10
4279.9984853253417896
 20
222.2092199032470035
 30
0.0
 11
4280.5076022077910238
 21
222.7183367856970051
 31
0.0
  0
LINE
  5
12580
  8
0
 10
4280.5131911352400493
 20
222.7183367857469989
 30
0.0
 11
4280.1917748820869747
 21
222.3755057757531119
 31
0.0
  0
LINE
  5
12581
  8
0
 10
4280.516883160917132
 20
222.7146447567708947
 30
0.0
 11
4280.3965681812796902
 21
222.5802990749189973
 31
0.0
  0
LINE
  5
12582
  8
0
 10
4280.5295971595405717
 20
222.7183367857469989
 30
0.0
 11
4280.5272472014858067
 21
222.710978095108004
 31
0.0
  0
ARC
  5
12583
  8
0
 10
4275.9988320624806875
 20
226.0513544115329978
 30
0.0
 40
0.0108286306997154
 50
149.1719991514964079
 51
232.9365293007570017
  0
ARC
  5
12584
  8
0
 10
4276.039687765479357
 20
226.0183588392569902
 30
0.0
 40
0.0109035773422064
 50
229.0434620626971025
 51
312.541413029490684
  0
ARC
  5
12585
  8
0
 10
4276.278551333823998
 20
226.3549843346499131
 30
0.0
 40
0.4236149893427283
 50
227.4898100106117909
 51
234.4973022169355943
  0
ARC
  5
12586
  8
0
 10
4275.9124163263732044
 20
225.9028634424037989
 30
0.0
 40
0.160051849574485
 50
45.8022529688030033
 51
56.1977469295555281
  0
ARC
  5
12587
  8
0
 10
4276.1140848369750529
 20
226.1519033312266913
 30
0.0
 40
0.1617120934340653
 50
225.8557653489930885
 51
236.1442388182680077
  0
LINE
  5
12588
  8
0
 10
4276.0470599241443779
 20
226.0103252052433902
 30
0.0
 11
4276.0557592783952714
 21
226.0188720512456086
 31
0.0
  0
LINE
  5
12589
  8
0
 10
4275.9895334138218459
 20
226.0569036796001967
 30
0.0
 11
4276.002493683895409
 21
226.0772524449241132
 31
0.0
  0
ARC
  5
1258A
  8
0
 10
4275.9211258668756273
 20
225.9495237394741025
 30
0.0
 40
0.1514441938216312
 50
20.293021256479971
 51
63.2724145379398024
  0
ARC
  5
1258B
  8
0
 10
4276.1875157532804224
 20
226.1875592406063049
 30
0.0
 40
0.2233300823642566
 50
207.398818949061905
 51
211.8204728632458966
  0
ARC
  5
1258C
  8
0
 10
4276.1875157532804224
 20
226.1875592406063049
 30
0.0
 40
0.2233300823642566
 50
231.6935639923086114
 51
236.1666168432547011
  0
LINE
  5
1258D
  8
0
 10
4275.9538930953676754
 20
226.17644788214389
 30
0.0
 11
4275.9322683005348154
 21
226.1417994255785118
 31
0.0
  0
LINE
  5
1258E
  8
0
 10
4276.0099436872706065
 20
226.1104641003377083
 30
0.0
 11
4275.9907402483913756
 21
226.0928569949984137
 31
0.0
  0
ARC
  5
1258F
  8
0
 10
4276.0838687249943177
 20
226.2666721676511088
 30
0.0
 40
0.2049250464127427
 50
222.8587346931952879
 51
239.1976574628588992
  0
ARC
  5
12590
  8
0
 10
4275.94244830437583
 20
226.1354458815449107
 30
0.0
 40
0.012
 50
148.0308882709647094
 51
222.8587346931977038
  0
ARC
  5
12591
  8
0
 10
4275.983325004447579
 20
226.0998537346567048
 30
0.0
 40
0.0101951070906004
 50
244.4702514766746049
 51
316.6633236210503242
  0
ARC
  5
12592
  8
0
 10
4275.9566389945366609
 20
226.1714752237741095
 30
0.0
 40
0.0220246951511996
 50
154.5708651354933068
 51
225.0100786622294891
  0
ARC
  5
12593
  8
0
 10
4275.923016804926192
 20
226.0934214419752948
 30
0.0
 40
0.0885817988000061
 50
359.8168668537787198
 51
81.0824620723711718
  0
ARC
  5
12594
  8
0
 10
4276.0032470510086569
 20
226.1216442692571036
 30
0.0
 40
0.0297040495062713
 50
247.970648038427214
 51
286.3284637906651824
  0
ARC
  5
12595
  8
0
 10
4276.0061042081797495
 20
226.1712125336194106
 30
0.0
 40
0.0805613182170858
 50
220.0401715229058084
 51
240.9598214833193026
  0
ARC
  5
12596
  8
0
 10
4275.9055604793784369
 20
226.0492432525959998
 30
0.0
 40
0.0801906115188108
 50
39.9912693532045367
 51
61.0087236530171211
  0
LINE
  5
12597
  8
0
 10
4275.9755805051490825
 20
226.0765612316531872
 30
0.0
 11
4275.9639182554328727
 21
226.0656860077818919
 31
0.0
  0
ARC
  5
12598
  8
0
 10
4275.95573427508225
 20
226.0744622521741007
 30
0.0
 40
0.012
 50
230.4999999536985911
 51
313.0000001904758733
  0
LINE
  5
12599
  8
0
 10
4275.917365906931991
 20
226.1347758298722113
 30
0.0
 11
4275.9046981971468995
 21
226.1145032566541886
 31
0.0
  0
ARC
  5
1259A
  8
0
 10
4275.9148747742792693
 20
226.1081442254485125
 30
0.0
 40
0.012
 50
147.9999998033136137
 51
230.4999999536985911
  0
LINE
  5
1259B
  8
0
 10
4275.907241835628156
 20
226.0988847304539888
 30
0.0
 11
4275.9481013364320461
 21
226.0652027571796054
 31
0.0
  0
ARC
  5
1259C
  8
0
 10
4275.8586825459196916
 20
226.1915039280983137
 30
0.0
 40
0.0108286306997154
 50
149.1719991514964079
 51
232.9365293007570017
  0
ARC
  5
1259D
  8
0
 10
4275.8995382489183612
 20
226.1585083558223062
 30
0.0
 40
0.0109035773422064
 50
229.0434620626971025
 51
312.541413029490684
  0
ARC
  5
1259E
  8
0
 10
4276.1384018172620927
 20
226.4951338512152006
 30
0.0
 40
0.4236149893427283
 50
227.4898100106117909
 51
234.4973022169355943
  0
ARC
  5
1259F
  8
0
 10
4275.7722668098122085
 20
226.0430129589690864
 30
0.0
 40
0.160051849574485
 50
45.8022529688030033
 51
56.1977469295555281
  0
ARC
  5
125A0
  8
0
 10
4275.9739353204140571
 20
226.2920528477920072
 30
0.0
 40
0.1617120934340653
 50
225.8557653489930885
 51
236.1442388182680077
  0
LINE
  5
125A1
  8
0
 10
4275.906910407583382
 20
226.1504747218087061
 30
0.0
 11
4275.9156097618315471
 21
226.1590215678108962
 31
0.0
  0
LINE
  5
125A2
  8
0
 10
4275.8493838972608501
 20
226.1970531961655126
 30
0.0
 11
4275.8623441673344132
 21
226.2174019614894007
 31
0.0
  0
ARC
  5
125A3
  8
0
 10
4275.7809763503146314
 20
226.08967325603939
 30
0.0
 40
0.1514441938216312
 50
20.293021256479971
 51
63.2724145379398024
  0
ARC
  5
125A4
  8
0
 10
4276.0473662367176075
 20
226.3277087571715072
 30
0.0
 40
0.2233300823642566
 50
207.398818949061905
 51
211.8204728632458966
  0
ARC
  5
125A5
  8
0
 10
4276.0473662367176075
 20
226.3277087571715072
 30
0.0
 40
0.2233300823642566
 50
231.6935639923086114
 51
236.1666168432547011
  0
LINE
  5
125A6
  8
0
 10
4275.8137435788066796
 20
226.3165973987092059
 30
0.0
 11
4275.7921187839738195
 21
226.2819489421437993
 31
0.0
  0
LINE
  5
125A7
  8
0
 10
4275.8697941707096106
 20
226.2506136169031095
 30
0.0
 11
4275.8505907318303798
 21
226.2330065115637012
 31
0.0
  0
ARC
  5
125A8
  8
0
 10
4275.9437192084333219
 20
226.40682168421651
 30
0.0
 40
0.2049250464127427
 50
222.8587346931952879
 51
239.1976574628588992
  0
ARC
  5
125A9
  8
0
 10
4275.8022987878148342
 20
226.2755953981101129
 30
0.0
 40
0.012
 50
148.0308882709647094
 51
222.8587346931977038
  0
ARC
  5
125AA
  8
0
 10
4275.8431754878856736
 20
226.240003251222106
 30
0.0
 40
0.0101951070906004
 50
244.4702514766746049
 51
316.6633236210503242
  0
ARC
  5
125AB
  8
0
 10
4275.8164894779756651
 20
226.311624740339397
 30
0.0
 40
0.0220246951511996
 50
154.5708651354933068
 51
225.0100786622294891
  0
ARC
  5
125AC
  8
0
 10
4275.7828672883633772
 20
226.2335709585406107
 30
0.0
 40
0.0885817988000061
 50
359.8168668537787198
 51
81.0824620723711718
  0
ARC
  5
125AD
  8
0
 10
4275.863097534447661
 20
226.2617937858223911
 30
0.0
 40
0.0297040495062713
 50
247.970648038427214
 51
286.3284637906651824
  0
ARC
  5
125AE
  8
0
 10
4275.8659546916178442
 20
226.3113620501846981
 30
0.0
 40
0.0805613182170858
 50
220.0401715229058084
 51
240.9598214833193026
  0
ARC
  5
125AF
  8
0
 10
4275.765410962815622
 20
226.1893927691612873
 30
0.0
 40
0.0801906115188108
 50
39.9912693532045367
 51
61.0087236530171211
  0
LINE
  5
125B0
  8
0
 10
4275.8354309885880866
 20
226.2167107482185884
 30
0.0
 11
4275.8237687388718768
 21
226.2058355243472079
 31
0.0
  0
ARC
  5
125B1
  8
0
 10
4275.8155847585212541
 20
226.2146117687393883
 30
0.0
 40
0.012
 50
230.4999999536985911
 51
313.0000001904758733
  0
LINE
  5
125B2
  8
0
 10
4275.7772163903709952
 20
226.2749253464374988
 30
0.0
 11
4275.7645486805859036
 21
226.2546527732195045
 31
0.0
  0
ARC
  5
125B3
  8
0
 10
4275.7747252577182735
 20
226.2482937420138001
 30
0.0
 40
0.012
 50
147.9999998033136137
 51
230.4999999536985911
  0
LINE
  5
125B4
  8
0
 10
4275.7670923190671601
 20
226.2390342470193048
 30
0.0
 11
4275.8079518198710502
 21
226.205352273744893
 31
0.0
  0
ARC
  5
125B5
  8
0
 10
4275.7181566521448985
 20
226.3320298218768016
 30
0.0
 40
0.0108286306997154
 50
149.1719991514964079
 51
232.9365293007570017
  0
ARC
  5
125B6
  8
0
 10
4275.7590123551435681
 20
226.2990342496007941
 30
0.0
 40
0.0109035773422064
 50
229.0434620626971025
 51
312.541413029490684
  0
ARC
  5
125B7
  8
0
 10
4275.9978759234882091
 20
226.6356597449936885
 30
0.0
 40
0.4236149893427283
 50
227.4898100106117909
 51
234.4973022169355943
  0
ARC
  5
125B8
  8
0
 10
4275.6317409160383249
 20
226.1835388527476027
 30
0.0
 40
0.160051849574485
 50
45.8022529688030033
 51
56.1977469295555281
  0
ARC
  5
125B9
  8
0
 10
4275.8334094266401735
 20
226.4325787415704951
 30
0.0
 40
0.1617120934340653
 50
225.8557653489930885
 51
236.1442388182680077
  0
LINE
  5
125BA
  8
0
 10
4275.766384513810408
 20
226.291000615587194
 30
0.0
 11
4275.7750838680576635
 21
226.2995474615894125
 31
0.0
  0
LINE
  5
125BB
  8
0
 10
4275.7088580034851475
 20
226.3375790899440005
 30
0.0
 11
4275.7218182735596201
 21
226.3579278552678886
 31
0.0
  0
ARC
  5
125BC
  8
0
 10
4275.6404504565407478
 20
226.2301991498179916
 30
0.0
 40
0.1514441938216312
 50
20.293021256479971
 51
63.2724145379398024
  0
ARC
  5
125BD
  8
0
 10
4275.906840342943724
 20
226.4682346509499951
 30
0.0
 40
0.2233300823642566
 50
207.398818949061905
 51
211.8204728632458966
  0
ARC
  5
125BE
  8
0
 10
4275.906840342943724
 20
226.4682346509499951
 30
0.0
 40
0.2233300823642566
 50
231.6935639923086114
 51
236.1666168432547011
  0
LINE
  5
125BF
  8
0
 10
4275.673217685032796
 20
226.4571232924876938
 30
0.0
 11
4275.6515928901990264
 21
226.4224748359222872
 31
0.0
  0
LINE
  5
125C0
  8
0
 10
4275.729268276935727
 20
226.3911395106815974
 30
0.0
 11
4275.7100648380555867
 21
226.3735324053421891
 31
0.0
  0
ARC
  5
125C1
  8
0
 10
4275.8031933146603478
 20
226.5473475779949126
 30
0.0
 40
0.2049250464127427
 50
222.8587346931952879
 51
239.1976574628588992
  0
ARC
  5
125C2
  8
0
 10
4275.6617728940409506
 20
226.4161212918886008
 30
0.0
 40
0.012
 50
148.0308882709647094
 51
222.8587346931977038
  0
ARC
  5
125C3
  8
0
 10
4275.7026495941117901
 20
226.3805291450005086
 30
0.0
 40
0.0101951070906004
 50
244.4702514766746049
 51
316.6633236210503242
  0
ARC
  5
125C4
  8
0
 10
4275.675963584200872
 20
226.4521506341179133
 30
0.0
 40
0.0220246951511996
 50
154.5708651354933068
 51
225.0100786622294891
  0
ARC
  5
125C5
  8
0
 10
4275.6423413945885841
 20
226.3740968523190986
 30
0.0
 40
0.0885817988000061
 50
359.8168668537787198
 51
81.0824620723711718
  0
ARC
  5
125C6
  8
0
 10
4275.7225716406728679
 20
226.4023196796009074
 30
0.0
 40
0.0297040495062713
 50
247.970648038427214
 51
286.3284637906651824
  0
ARC
  5
125C7
  8
0
 10
4275.7254287978439606
 20
226.451887943963186
 30
0.0
 40
0.0805613182170858
 50
220.0401715229058084
 51
240.9598214833193026
  0
ARC
  5
125C8
  8
0
 10
4275.6248850690417385
 20
226.3299186629398037
 30
0.0
 40
0.0801906115188108
 50
39.9912693532045367
 51
61.0087236530171211
  0
LINE
  5
125C9
  8
0
 10
4275.6949050948132935
 20
226.3572366419971047
 30
0.0
 11
4275.6832428450961743
 21
226.3463614181256105
 31
0.0
  0
ARC
  5
125CA
  8
0
 10
4275.67505886474828
 20
226.3551376625179046
 30
0.0
 40
0.012
 50
230.4999999536985911
 51
313.0000001904758733
  0
LINE
  5
125CB
  8
0
 10
4275.6366904965962021
 20
226.4154512402161004
 30
0.0
 11
4275.6240227868111106
 21
226.3951786669979924
 31
0.0
  0
ARC
  5
125CC
  8
0
 10
4275.6341993639443899
 20
226.388819635792288
 30
0.0
 40
0.012
 50
147.9999998033136137
 51
230.4999999536985911
  0
LINE
  5
125CD
  8
0
 10
4275.6265664252923671
 20
226.3795601407977927
 30
0.0
 11
4275.6674259260962572
 21
226.3458781675234093
 31
0.0
  0
ARC
  5
125CE
  8
0
 10
4275.5767216673666553
 20
226.4734648066595071
 30
0.0
 40
0.0108286306997154
 50
149.1719991514964079
 51
232.9365293007570017
  0
ARC
  5
125CF
  8
0
 10
4275.6175773703662344
 20
226.4404692343834995
 30
0.0
 40
0.0109035773422064
 50
229.0434620626971025
 51
312.541413029490684
  0
ARC
  5
125D0
  8
0
 10
4275.8564409387090564
 20
226.7770947297763939
 30
0.0
 40
0.4236149893427283
 50
227.4898100106117909
 51
234.4973022169355943
  0
ARC
  5
125D1
  8
0
 10
4275.4903059312591722
 20
226.3249738375303082
 30
0.0
 40
0.160051849574485
 50
45.8022529688030033
 51
56.1977469295555281
  0
ARC
  5
125D2
  8
0
 10
4275.6919744418610208
 20
226.5740137263532006
 30
0.0
 40
0.1617120934340653
 50
225.8557653489930885
 51
236.1442388182680077
  0
LINE
  5
125D3
  8
0
 10
4275.6249495290312552
 20
226.4324356003700132
 30
0.0
 11
4275.6336488832803298
 21
226.4409824463720895
 31
0.0
  0
LINE
  5
125D4
  8
0
 10
4275.5674230187069043
 20
226.479014074726706
 30
0.0
 11
4275.5803832887813769
 21
226.4993628400505941
 31
0.0
  0
ARC
  5
125D5
  8
0
 10
4275.4990154717634141
 20
226.3716341346006971
 30
0.0
 40
0.1514441938216312
 50
20.293021256479971
 51
63.2724145379398024
  0
ARC
  5
125D6
  8
0
 10
4275.7654053581645712
 20
226.6096696357327005
 30
0.0
 40
0.2233300823642566
 50
207.398818949061905
 51
211.8204728632458966
  0
ARC
  5
125D7
  8
0
 10
4275.7654053581645712
 20
226.6096696357327005
 30
0.0
 40
0.2233300823642566
 50
231.6935639923086114
 51
236.1666168432547011
  0
LINE
  5
125D8
  8
0
 10
4275.5317827002536433
 20
226.5985582772703992
 30
0.0
 11
4275.5101579054198737
 21
226.5639098207049926
 31
0.0
  0
LINE
  5
125D9
  8
0
 10
4275.5878332921583933
 20
226.5325744954643028
 30
0.0
 11
4275.5686298532773435
 21
226.5149673901248946
 31
0.0
  0
ARC
  5
125DA
  8
0
 10
4275.6617583298811951
 20
226.6887825627775896
 30
0.0
 40
0.2049250464127427
 50
222.8587346931952879
 51
239.1976574628588992
  0
ARC
  5
125DB
  8
0
 10
4275.5203379092617979
 20
226.5575562766713915
 30
0.0
 40
0.012
 50
148.0308882709647094
 51
222.8587346931977038
  0
ARC
  5
125DC
  8
0
 10
4275.5612146093353658
 20
226.5219641297832993
 30
0.0
 40
0.0101951070906004
 50
244.4702514766746049
 51
316.6633236210503242
  0
ARC
  5
125DD
  8
0
 10
4275.5345285994217193
 20
226.5935856189005904
 30
0.0
 40
0.0220246951511996
 50
154.5708651354933068
 51
225.0100786622294891
  0
ARC
  5
125DE
  8
0
 10
4275.5009064098112503
 20
226.5155318371018041
 30
0.0
 40
0.0885817988000061
 50
359.8168668537787198
 51
81.0824620723711718
  0
ARC
  5
125DF
  8
0
 10
4275.5811366558937152
 20
226.5437546643834992
 30
0.0
 40
0.0297040495062713
 50
247.970648038427214
 51
286.3284637906651824
  0
ARC
  5
125E0
  8
0
 10
4275.5839938130648079
 20
226.5933229287458914
 30
0.0
 40
0.0805613182170858
 50
220.0401715229058084
 51
240.9598214833193026
  0
ARC
  5
125E1
  8
0
 10
4275.4834500842625857
 20
226.4713536477225091
 30
0.0
 40
0.0801906115188108
 50
39.9912693532045367
 51
61.0087236530171211
  0
LINE
  5
125E2
  8
0
 10
4275.5534701100350503
 20
226.4986716267798101
 30
0.0
 11
4275.5418078603188405
 21
226.4877964029084012
 31
0.0
  0
ARC
  5
125E3
  8
0
 10
4275.5336238799682178
 20
226.49657264730061
 30
0.0
 40
0.012
 50
230.4999999536985911
 51
313.0000001904758733
  0
LINE
  5
125E4
  8
0
 10
4275.4952555118179589
 20
226.5568862249986921
 30
0.0
 11
4275.4825878020328673
 21
226.5366136517806979
 31
0.0
  0
ARC
  5
125E5
  8
0
 10
4275.4927643791652372
 20
226.5302546205749934
 30
0.0
 40
0.012
 50
147.9999998033136137
 51
230.4999999536985911
  0
LINE
  5
125E6
  8
0
 10
4275.4851314405141238
 20
226.5209951255804981
 30
0.0
 11
4275.5259909413180139
 21
226.4873131523060863
 31
0.0
  0
ARC
  5
125E7
  8
0
 10
4275.4359464234767074
 20
226.6142400505544003
 30
0.0
 40
0.0108286306997154
 50
149.1719991514964079
 51
232.9365293007570017
  0
ARC
  5
125E8
  8
0
 10
4275.476802126475377
 20
226.5812444782783928
 30
0.0
 40
0.0109035773422064
 50
229.0434620626971025
 51
312.541413029490684
  0
ARC
  5
125E9
  8
0
 10
4275.7156656948191085
 20
226.9178699736712019
 30
0.0
 40
0.4236149893427283
 50
227.4898100106117909
 51
234.4973022169355943
  0
ARC
  5
125EA
  8
0
 10
4275.3495306873692243
 20
226.4657490814252014
 30
0.0
 40
0.160051849574485
 50
45.8022529688030033
 51
56.1977469295555281
  0
ARC
  5
125EB
  8
0
 10
4275.5511991979710729
 20
226.7147889702480938
 30
0.0
 40
0.1617120934340653
 50
225.8557653489930885
 51
236.1442388182680077
  0
LINE
  5
125EC
  8
0
 10
4275.4841742851413073
 20
226.5732108442647927
 30
0.0
 11
4275.4928736393885629
 21
226.5817576902668975
 31
0.0
  0
LINE
  5
125ED
  8
0
 10
4275.4266477748169564
 20
226.6197893186215993
 30
0.0
 11
4275.43960804488961
 21
226.6401380839454021
 31
0.0
  0
ARC
  5
125EE
  8
0
 10
4275.3582402278716472
 20
226.5124093784955051
 30
0.0
 40
0.1514441938216312
 50
20.293021256479971
 51
63.2724145379398024
  0
ARC
  5
125EF
  8
0
 10
4275.6246301142746233
 20
226.7504448796275938
 30
0.0
 40
0.2233300823642566
 50
207.398818949061905
 51
211.8204728632458966
  0
ARC
  5
125F0
  8
0
 10
4275.6246301142746233
 20
226.7504448796275938
 30
0.0
 40
0.2233300823642566
 50
231.6935639923086114
 51
236.1666168432547011
  0
LINE
  5
125F1
  8
0
 10
4275.3910074563646049
 20
226.7393335211652072
 30
0.0
 11
4275.3693826615290163
 21
226.7046850645998006
 31
0.0
  0
LINE
  5
125F2
  8
0
 10
4275.4470580482666264
 20
226.6733497393591108
 30
0.0
 11
4275.4278546093855766
 21
226.6557426340197026
 31
0.0
  0
ARC
  5
125F3
  8
0
 10
4275.5209830859903377
 20
226.8295578066725113
 30
0.0
 40
0.2049250464127427
 50
222.8587346931952879
 51
239.1976574628588992
  0
ARC
  5
125F4
  8
0
 10
4275.37956266537185
 20
226.6983315205661995
 30
0.0
 40
0.012
 50
148.0308882709647094
 51
222.8587346931977038
  0
ARC
  5
125F5
  8
0
 10
4275.4204393654435989
 20
226.6627393736781926
 30
0.0
 40
0.0101951070906004
 50
244.4702514766746049
 51
316.6633236210503242
  0
ARC
  5
125F6
  8
0
 10
4275.3937533555308619
 20
226.7343608627953984
 30
0.0
 40
0.0220246951511996
 50
154.5708651354933068
 51
225.0100786622294891
  0
ARC
  5
125F7
  8
0
 10
4275.360131165920393
 20
226.6563070809966973
 30
0.0
 40
0.0885817988000061
 50
359.8168668537787198
 51
81.0824620723711718
  0
ARC
  5
125F8
  8
0
 10
4275.4403614120037673
 20
226.6845299082783924
 30
0.0
 40
0.0297040495062713
 50
247.970648038427214
 51
286.3284637906651824
  0
ARC
  5
125F9
  8
0
 10
4275.4432185691757695
 20
226.7340981726406994
 30
0.0
 40
0.0805613182170858
 50
220.0401715229058084
 51
240.9598214833193026
  0
ARC
  5
125FA
  8
0
 10
4275.3426748403726378
 20
226.6121288916172887
 30
0.0
 40
0.0801906115188108
 50
39.9912693532045367
 51
61.0087236530171211
  0
LINE
  5
125FB
  8
0
 10
4275.4126948661441929
 20
226.6394468706745897
 30
0.0
 11
4275.4010326164279832
 21
226.6285716468032092
 31
0.0
  0
ARC
  5
125FC
  8
0
 10
4275.3928486360782699
 20
226.6373478911955033
 30
0.0
 40
0.012
 50
230.4999999536985911
 51
313.0000001904758733
  0
LINE
  5
125FD
  8
0
 10
4275.3544802679271015
 20
226.6976614688936138
 30
0.0
 11
4275.3418125581411005
 21
226.6773888956755911
 31
0.0
  0
ARC
  5
125FE
  8
0
 10
4275.3519891352743798
 20
226.6710298644698014
 30
0.0
 40
0.012
 50
147.9999998033136137
 51
230.4999999536985911
  0
LINE
  5
125FF
  8
0
 10
4275.3443561966232664
 20
226.6617703694753914
 30
0.0
 11
4275.3852156974271566
 21
226.6280883962008943
 31
0.0
  0
ARC
  5
12600
  8
0
 10
4275.2946789990983234
 20
226.7555074749373034
 30
0.0
 40
0.0108286306997154
 50
149.1719991514964079
 51
232.9365293007570017
  0
ARC
  5
12601
  8
0
 10
4275.3355347020960835
 20
226.7225119026612958
 30
0.0
 40
0.0109035773422064
 50
229.0434620626971025
 51
312.541413029490684
  0
ARC
  5
12602
  8
0
 10
4275.5743982704407244
 20
227.0591373980541903
 30
0.0
 40
0.4236149893427283
 50
227.4898100106117909
 51
234.4973022169355943
  0
ARC
  5
12603
  8
0
 10
4275.2082632629899308
 20
226.6070165058081045
 30
0.0
 40
0.160051849574485
 50
45.8022529688030033
 51
56.1977469295555281
  0
ARC
  5
12604
  8
0
 10
4275.4099317735917793
 20
226.8560563946309969
 30
0.0
 40
0.1617120934340653
 50
225.8557653489930885
 51
236.1442388182680077
  0
LINE
  5
12605
  8
0
 10
4275.3429068607620138
 20
226.7144782686476958
 30
0.0
 11
4275.3516062150110884
 21
226.7230251146498858
 31
0.0
  0
LINE
  5
12606
  8
0
 10
4275.2853803504376629
 20
226.7610567430045023
 30
0.0
 11
4275.2983406205121355
 21
226.7814055083283904
 31
0.0
  0
ARC
  5
12607
  8
0
 10
4275.2169728034941727
 20
226.6536768028784934
 30
0.0
 40
0.1514441938216312
 50
20.293021256479971
 51
63.2724145379398024
  0
ARC
  5
12608
  8
0
 10
4275.4833626898962393
 20
226.8917123040106105
 30
0.0
 40
0.2233300823642566
 50
207.398818949061905
 51
211.8204728632458966
  0
ARC
  5
12609
  8
0
 10
4275.4833626898962393
 20
226.8917123040106105
 30
0.0
 40
0.2233300823642566
 50
231.6935639923086114
 51
236.1666168432547011
  0
LINE
  5
1260A
  8
0
 10
4275.2497400319853114
 20
226.8806009455481956
 30
0.0
 11
4275.2281152371506323
 21
226.845952488982789
 31
0.0
  0
LINE
  5
1260B
  8
0
 10
4275.3057906238882424
 20
226.8146171637420991
 30
0.0
 11
4275.2865871850081021
 21
226.7970100584026909
 31
0.0
  0
ARC
  5
1260C
  8
0
 10
4275.3797156616119537
 20
226.970825231055386
 30
0.0
 40
0.2049250464127427
 50
222.8587346931952879
 51
239.1976574628588992
  0
ARC
  5
1260D
  8
0
 10
4275.238295240991647
 20
226.8395989449491879
 30
0.0
 40
0.012
 50
148.0308882709647094
 51
222.8587346931977038
  0
ARC
  5
1260E
  8
0
 10
4275.2791719410643054
 20
226.8040067980610104
 30
0.0
 40
0.0101951070906004
 50
244.4702514766746049
 51
316.6633236210503242
  0
ARC
  5
1260F
  8
0
 10
4275.2524859311542968
 20
226.8756282871783867
 30
0.0
 40
0.0220246951511996
 50
154.5708651354933068
 51
225.0100786622294891
  0
ARC
  5
12610
  8
0
 10
4275.2188637415420089
 20
226.7975745053796004
 30
0.0
 40
0.0885817988000061
 50
359.8168668537787198
 51
81.0824620723711718
  0
ARC
  5
12611
  8
0
 10
4275.2990939876262928
 20
226.8257973326614092
 30
0.0
 40
0.0297040495062713
 50
247.970648038427214
 51
286.3284637906651824
  0
ARC
  5
12612
  8
0
 10
4275.3019511447955665
 20
226.8753655970236878
 30
0.0
 40
0.0805613182170858
 50
220.0401715229058084
 51
240.9598214833193026
  0
ARC
  5
12613
  8
0
 10
4275.2014074159942538
 20
226.7533963160003054
 30
0.0
 40
0.0801906115188108
 50
39.9912693532045367
 51
61.0087236530171211
  0
LINE
  5
12614
  8
0
 10
4275.2714274417648994
 20
226.7807142950576065
 30
0.0
 11
4275.2597651920486896
 21
226.7698390711861975
 31
0.0
  0
ARC
  5
12615
  8
0
 10
4275.2515812116989764
 20
226.7786153155784064
 30
0.0
 40
0.012
 50
230.4999999536985911
 51
313.0000001904758733
  0
LINE
  5
12616
  8
0
 10
4275.213212843547808
 20
226.8389288932766021
 30
0.0
 11
4275.2005451337627164
 21
226.8186563200584942
 31
0.0
  0
ARC
  5
12617
  8
0
 10
4275.2107217108950863
 20
226.8122972888527897
 30
0.0
 40
0.012
 50
147.9999998033136137
 51
230.4999999536985911
  0
LINE
  5
12618
  8
0
 10
4275.2030887722439729
 20
226.8030377938582944
 30
0.0
 11
4275.2439482730487725
 21
226.7693558205839111
 31
0.0
  0
ARC
  5
12619
  8
0
 10
4275.1523988367307538
 20
226.8977876373081983
 30
0.0
 40
0.0108286306997154
 50
149.1719991514964079
 51
232.9365293007570017
  0
ARC
  5
1261A
  8
0
 10
4275.1932545397294234
 20
226.8647920650321907
 30
0.0
 40
0.0109035773422064
 50
229.0434620626971025
 51
312.541413029490684
  0
ARC
  5
1261B
  8
0
 10
4275.4321181080731549
 20
227.2014175604249999
 30
0.0
 40
0.4236149893427283
 50
227.4898100106117909
 51
234.4973022169355943
  0
ARC
  5
1261C
  8
0
 10
4275.0659831006232707
 20
226.7492966681789994
 30
0.0
 40
0.160051849574485
 50
45.8022529688030033
 51
56.1977469295555281
  0
ARC
  5
1261D
  8
0
 10
4275.2676516112251193
 20
226.9983365570018918
 30
0.0
 40
0.1617120934340653
 50
225.8557653489930885
 51
236.1442388182680077
  0
LINE
  5
1261E
  8
0
 10
4275.2006266983953537
 20
226.8567584310185907
 30
0.0
 11
4275.2093260526444283
 21
226.8653052770208092
 31
0.0
  0
LINE
  5
1261F
  8
0
 10
4275.1431001880710028
 20
226.9033369053753972
 30
0.0
 11
4275.1560604581463849
 21
226.9236856706992
 31
0.0
  0
ARC
  5
12620
  8
0
 10
4275.0746926411256936
 20
226.795956965249303
 30
0.0
 40
0.1514441938216312
 50
20.293021256479971
 51
63.2724145379398024
  0
ARC
  5
12621
  8
0
 10
4275.3410825275286697
 20
227.0339924663813918
 30
0.0
 40
0.2233300823642566
 50
207.398818949061905
 51
211.8204728632458966
  0
ARC
  5
12622
  8
0
 10
4275.3410825275286697
 20
227.0339924663813918
 30
0.0
 40
0.2233300823642566
 50
231.6935639923086114
 51
236.1666168432547011
  0
LINE
  5
12623
  8
0
 10
4275.1074598696186513
 20
227.0228811079190052
 30
0.0
 11
4275.0858350747848817
 21
226.9882326513535986
 31
0.0
  0
LINE
  5
12624
  8
0
 10
4275.1635104615206728
 20
226.9568973261129088
 30
0.0
 11
4275.1443070226423515
 21
226.9392902207735006
 31
0.0
  0
ARC
  5
12625
  8
0
 10
4275.2374354992452936
 20
227.1131053934263093
 30
0.0
 40
0.2049250464127427
 50
222.8587346931952879
 51
239.1976574628588992
  0
ARC
  5
12626
  8
0
 10
4275.0960150786258964
 20
226.9818791073199975
 30
0.0
 40
0.012
 50
148.0308882709647094
 51
222.8587346931977038
  0
ARC
  5
12627
  8
0
 10
4275.1368917786967359
 20
226.9462869604319053
 30
0.0
 40
0.0101951070906004
 50
244.4702514766746049
 51
316.6633236210503242
  0
ARC
  5
12628
  8
0
 10
4275.1102057687858178
 20
227.0179084495491963
 30
0.0
 40
0.0220246951511996
 50
154.5708651354933068
 51
225.0100786622294891
  0
ARC
  5
12629
  8
0
 10
4275.0765835791753489
 20
226.9398546677504953
 30
0.0
 40
0.0885817988000061
 50
359.8168668537787198
 51
81.0824620723711718
  0
ARC
  5
1262A
  8
0
 10
4275.1568138252578137
 20
226.9680774950321904
 30
0.0
 40
0.0297040495062713
 50
247.970648038427214
 51
286.3284637906651824
  0
ARC
  5
1262B
  8
0
 10
4275.1596709824289064
 20
227.0176457593944974
 30
0.0
 40
0.0805613182170858
 50
220.0401715229058084
 51
240.9598214833193026
  0
ARC
  5
1262C
  8
0
 10
4275.0591272536266843
 20
226.8956764783710867
 30
0.0
 40
0.0801906115188108
 50
39.9912693532045367
 51
61.0087236530171211
  0
LINE
  5
1262D
  8
0
 10
4275.1291472793991488
 20
226.9229944574283877
 30
0.0
 11
4275.1174850296820296
 21
226.9121192335570072
 31
0.0
  0
ARC
  5
1262E
  8
0
 10
4275.1093010493323163
 20
226.9208954779493013
 30
0.0
 40
0.012
 50
230.4999999536985911
 51
313.0000001904758733
  0
LINE
  5
1262F
  8
0
 10
4275.0709326811820574
 20
226.9812090556474118
 30
0.0
 11
4275.0582649713969658
 21
226.9609364824293891
 31
0.0
  0
ARC
  5
12630
  8
0
 10
4275.0684415485293357
 20
226.9545774512235994
 30
0.0
 40
0.012
 50
147.9999998033136137
 51
230.4999999536985911
  0
LINE
  5
12631
  8
0
 10
4275.0608086098782223
 20
226.9453179562291893
 30
0.0
 11
4275.101668110681203
 21
226.9116359829546923
 31
0.0
  0
ARC
  5
12632
  8
0
 10
4275.0118427720208274
 20
227.0383437020232975
 30
0.0
 40
0.0108286306997154
 50
149.1719991514964079
 51
232.9365293007570017
  0
ARC
  5
12633
  8
0
 10
4275.052698475017678
 20
227.0053481297472899
 30
0.0
 40
0.0109035773422064
 50
229.0434620626971025
 51
312.541413029490684
  0
ARC
  5
12634
  8
0
 10
4275.2915620433632284
 20
227.3419736251400991
 30
0.0
 40
0.4236149893427283
 50
227.4898100106117909
 51
234.4973022169355943
  0
ARC
  5
12635
  8
0
 10
4274.9254270359124348
 20
226.8898527328940986
 30
0.0
 40
0.160051849574485
 50
45.8022529688030033
 51
56.1977469295555281
  0
ARC
  5
12636
  8
0
 10
4275.1270955465151928
 20
227.138892621716991
 30
0.0
 40
0.1617120934340653
 50
225.8557653489930885
 51
236.1442388182680077
  0
LINE
  5
12637
  8
0
 10
4275.0600706336836083
 20
226.9973144957336899
 30
0.0
 11
4275.0687699879326829
 21
227.0058613417357947
 31
0.0
  0
LINE
  5
12638
  8
0
 10
4275.0025441233610763
 20
227.0438929700904964
 30
0.0
 11
4275.0155043934346395
 21
227.0642417354142992
 31
0.0
  0
ARC
  5
12639
  8
0
 10
4274.9341365764148577
 20
226.9365130299644022
 30
0.0
 40
0.1514441938216312
 50
20.293021256479971
 51
63.2724145379398024
  0
ARC
  5
1263A
  8
0
 10
4275.2005264628187433
 20
227.1745485310964909
 30
0.0
 40
0.2233300823642566
 50
207.398818949061905
 51
211.8204728632458966
  0
ARC
  5
1263B
  8
0
 10
4275.2005264628187433
 20
227.1745485310964909
 30
0.0
 40
0.2233300823642566
 50
231.6935639923086114
 51
236.1666168432547011
  0
LINE
  5
1263C
  8
0
 10
4274.9669038049078154
 20
227.1634371726341044
 30
0.0
 11
4274.9452790100740458
 21
227.1287887160686978
 31
0.0
  0
LINE
  5
1263D
  8
0
 10
4275.0229543968107464
 20
227.097453390828008
 30
0.0
 11
4275.0037509579306061
 21
227.0798462854885997
 31
0.0
  0
ARC
  5
1263E
  8
0
 10
4275.0968794345335482
 20
227.2536614581414085
 30
0.0
 40
0.2049250464127427
 50
222.8587346931952879
 51
239.1976574628588992
  0
ARC
  5
1263F
  8
0
 10
4274.9554590139150605
 20
227.1224351720350967
 30
0.0
 40
0.012
 50
148.0308882709647094
 51
222.8587346931977038
  0
ARC
  5
12640
  8
0
 10
4274.9963357139868094
 20
227.0868430251470897
 30
0.0
 40
0.0101951070906004
 50
244.4702514766746049
 51
316.6633236210503242
  0
ARC
  5
12641
  8
0
 10
4274.9696497040749819
 20
227.1584645142642955
 30
0.0
 40
0.0220246951511996
 50
154.5708651354933068
 51
225.0100786622294891
  0
ARC
  5
12642
  8
0
 10
4274.9360275144626939
 20
227.0804107324655945
 30
0.0
 40
0.0885817988000061
 50
359.8168668537787198
 51
81.0824620723711718
  0
ARC
  5
12643
  8
0
 10
4275.0162577605469778
 20
227.1086335597472896
 30
0.0
 40
0.0297040495062713
 50
247.970648038427214
 51
286.3284637906651824
  0
ARC
  5
12644
  8
0
 10
4275.01911491771898
 20
227.1582018241095966
 30
0.0
 40
0.0805613182170858
 50
220.0401715229058084
 51
240.9598214833193026
  0
ARC
  5
12645
  8
0
 10
4274.9185711889167578
 20
227.0362325430861858
 30
0.0
 40
0.0801906115188108
 50
39.9912693532045367
 51
61.0087236530171211
  0
LINE
  5
12646
  8
0
 10
4274.9885912146892224
 20
227.0635505221434869
 30
0.0
 11
4274.9769289649721031
 21
227.0526752982721064
 31
0.0
  0
ARC
  5
12647
  8
0
 10
4274.9687449846205709
 20
227.0614515426642868
 30
0.0
 40
0.012
 50
230.4999999536985911
 51
313.0000001904758733
  0
LINE
  5
12648
  8
0
 10
4274.9303766164712215
 20
227.121765120362511
 30
0.0
 11
4274.9177089066861299
 21
227.1014925471444883
 31
0.0
  0
ARC
  5
12649
  8
0
 10
4274.9278854838166808
 20
227.0951335159386986
 30
0.0
 40
0.012
 50
147.9999998033136137
 51
230.4999999536985911
  0
LINE
  5
1264A
  8
0
 10
4274.9202525451673864
 20
227.0858740209442885
 30
0.0
 11
4274.961112045970367
 21
227.0521920476697915
 31
0.0
  0
ARC
  5
1264B
  8
0
 10
4274.8701357482113963
 20
227.1800507258369919
 30
0.0
 40
0.0108286306997154
 50
149.1719991514964079
 51
232.9365293007570017
  0
ARC
  5
1264C
  8
0
 10
4274.9109914512091564
 20
227.147055153560899
 30
0.0
 40
0.0109035773422064
 50
229.0434620626971025
 51
312.541413029490684
  0
ARC
  5
1264D
  8
0
 10
4275.1498550195537973
 20
227.4836806489537935
 30
0.0
 40
0.4236149893427283
 50
227.4898100106117909
 51
234.4973022169355943
  0
ARC
  5
1264E
  8
0
 10
4274.7837200121030037
 20
227.031559756707793
 30
0.0
 40
0.160051849574485
 50
45.8022529688030033
 51
56.1977469295555281
  0
ARC
  5
1264F
  8
0
 10
4274.9853885227039427
 20
227.2805996455307138
 30
0.0
 40
0.1617120934340653
 50
225.8557653489930885
 51
236.1442388182680077
  0
LINE
  5
12650
  8
0
 10
4274.9183636098750867
 20
227.1390215195474127
 30
0.0
 11
4274.9270629641232517
 21
227.147568365549489
 31
0.0
  0
LINE
  5
12651
  8
0
 10
4274.8608370995507357
 20
227.1855999939041055
 30
0.0
 11
4274.8737973696242989
 21
227.2059487592279936
 31
0.0
  0
ARC
  5
12652
  8
0
 10
4274.7924295526063361
 20
227.0782200537780966
 30
0.0
 40
0.1514441938216312
 50
20.293021256479971
 51
63.2724145379398024
  0
ARC
  5
12653
  8
0
 10
4275.0588194390093122
 20
227.3162555549102137
 30
0.0
 40
0.2233300823642566
 50
207.398818949061905
 51
211.8204728632458966
  0
ARC
  5
12654
  8
0
 10
4275.0588194390093122
 20
227.3162555549102137
 30
0.0
 40
0.2233300823642566
 50
231.6935639923086114
 51
236.1666168432547011
  0
LINE
  5
12655
  8
0
 10
4274.8251967810983842
 20
227.3051441964477988
 30
0.0
 11
4274.8035719862637052
 21
227.2704957398823922
 31
0.0
  0
LINE
  5
12656
  8
0
 10
4274.8812473730013153
 20
227.2391604146417023
 30
0.0
 11
4274.8620439341202655
 21
227.2215533093024078
 31
0.0
  0
ARC
  5
12657
  8
0
 10
4274.9551724107250266
 20
227.3953684819551029
 30
0.0
 40
0.2049250464127427
 50
222.8587346931952879
 51
239.1976574628588992
  0
ARC
  5
12658
  8
0
 10
4274.8137519901047199
 20
227.2641421958487911
 30
0.0
 40
0.012
 50
148.0308882709647094
 51
222.8587346931977038
  0
ARC
  5
12659
  8
0
 10
4274.8546286901773783
 20
227.2285500489606989
 30
0.0
 40
0.0101951070906004
 50
244.4702514766746049
 51
316.6633236210503242
  0
ARC
  5
1265A
  8
0
 10
4274.8279426802673697
 20
227.3001715380781036
 30
0.0
 40
0.0220246951511996
 50
154.5708651354933068
 51
225.0100786622294891
  0
ARC
  5
1265B
  8
0
 10
4274.7943204906541723
 20
227.2221177562792036
 30
0.0
 40
0.0885817988000061
 50
359.8168668537787198
 51
81.0824620723711718
  0
ARC
  5
1265C
  8
0
 10
4274.8745507367393657
 20
227.2503405835610124
 30
0.0
 40
0.0297040495062713
 50
247.970648038427214
 51
286.3284637906651824
  0
ARC
  5
1265D
  8
0
 10
4274.8774078939086394
 20
227.2999088479234047
 30
0.0
 40
0.0805613182170858
 50
220.0401715229058084
 51
240.9598214833193026
  0
ARC
  5
1265E
  8
0
 10
4274.7768641651073267
 20
227.1779395668999086
 30
0.0
 40
0.0801906115188108
 50
39.9912693532045367
 51
61.0087236530171211
  0
LINE
  5
1265F
  8
0
 10
4274.8468841908779723
 20
227.2052575459572097
 30
0.0
 11
4274.8352219411617625
 21
227.1943823220858008
 31
0.0
  0
ARC
  5
12660
  8
0
 10
4274.8270379608120493
 20
227.2031585664780096
 30
0.0
 40
0.012
 50
230.4999999536985911
 51
313.0000001904758733
  0
LINE
  5
12661
  8
0
 10
4274.7886695926617904
 20
227.2634721441762053
 30
0.0
 11
4274.7760018828766988
 21
227.2431995709582111
 31
0.0
  0
ARC
  5
12662
  8
0
 10
4274.7861784600081592
 20
227.2368405397525066
 30
0.0
 40
0.012
 50
147.9999998033136137
 51
230.4999999536985911
  0
LINE
  5
12663
  8
0
 10
4274.7785455213579553
 20
227.2275810447580113
 30
0.0
 11
4274.8194050221618454
 21
227.1938990714835995
 31
0.0
  0
ARC
  5
12664
  8
0
 10
4274.7273279126120542
 20
227.3228585614400004
 30
0.0
 40
0.0108286306997154
 50
149.1719991514964079
 51
232.9365293007570017
  0
ARC
  5
12665
  8
0
 10
4274.7681836156107238
 20
227.2898629891639928
 30
0.0
 40
0.0109035773422064
 50
229.0434620626971025
 51
312.541413029490684
  0
ARC
  5
12666
  8
0
 10
4275.0070471839553647
 20
227.6264884845568872
 30
0.0
 40
0.4236149893427283
 50
227.4898100106117909
 51
234.4973022169355943
  0
ARC
  5
12667
  8
0
 10
4274.6409121765036616
 20
227.1743675923108015
 30
0.0
 40
0.160051849574485
 50
45.8022529688030033
 51
56.1977469295555281
  0
ARC
  5
12668
  8
0
 10
4274.8425806871046007
 20
227.4234074811336939
 30
0.0
 40
0.1617120934340653
 50
225.8557653489930885
 51
236.1442388182680077
  0
LINE
  5
12669
  8
0
 10
4274.7755557742766541
 20
227.2818293551503928
 30
0.0
 11
4274.7842551285248192
 21
227.2903762011526112
 31
0.0
  0
LINE
  5
1266A
  8
0
 10
4274.7180292639532126
 20
227.3284078295071993
 30
0.0
 11
4274.7309895340267758
 21
227.3487565948310873
 31
0.0
  0
ARC
  5
1266B
  8
0
 10
4274.6496217170079035
 20
227.2210278893811903
 30
0.0
 40
0.1514441938216312
 50
20.293021256479971
 51
63.2724145379398024
  0
ARC
  5
1266C
  8
0
 10
4274.9160116034108796
 20
227.4590633905133075
 30
0.0
 40
0.2233300823642566
 50
207.398818949061905
 51
211.8204728632458966
  0
ARC
  5
1266D
  8
0
 10
4274.9160116034108796
 20
227.4590633905133075
 30
0.0
 40
0.2233300823642566
 50
231.6935639923086114
 51
236.1666168432547011
  0
LINE
  5
1266E
  8
0
 10
4274.6823889454999517
 20
227.4479520320508925
 30
0.0
 11
4274.6607641506661821
 21
227.4133035754854859
 31
0.0
  0
LINE
  5
1266F
  8
0
 10
4274.7384395374028827
 20
227.3819682502447961
 30
0.0
 11
4274.7192360985227424
 21
227.3643611449053878
 31
0.0
  0
ARC
  5
12670
  8
0
 10
4274.812364575124775
 20
227.5381763175581114
 30
0.0
 40
0.2049250464127427
 50
222.8587346931952879
 51
239.1976574628588992
  0
ARC
  5
12671
  8
0
 10
4274.6709441545062873
 20
227.4069500314519132
 30
0.0
 40
0.012
 50
148.0308882709647094
 51
222.8587346931977038
  0
ARC
  5
12672
  8
0
 10
4274.7118208545789457
 20
227.3713578845637073
 30
0.0
 40
0.0101951070906004
 50
244.4702514766746049
 51
316.6633236210503242
  0
ARC
  5
12673
  8
0
 10
4274.6851348446680277
 20
227.4429793736811121
 30
0.0
 40
0.0220246951511996
 50
154.5708651354933068
 51
225.0100786622294891
  0
ARC
  5
12674
  8
0
 10
4274.6515126550548302
 20
227.3649255918822973
 30
0.0
 40
0.0885817988000061
 50
359.8168668537787198
 51
81.0824620723711718
  0
ARC
  5
12675
  8
0
 10
4274.7317429011400236
 20
227.3931484191641061
 30
0.0
 40
0.0297040495062713
 50
247.970648038427214
 51
286.3284637906651824
  0
ARC
  5
12676
  8
0
 10
4274.7346000583111163
 20
227.4427166835264131
 30
0.0
 40
0.0805613182170858
 50
220.0401715229058084
 51
240.9598214833193026
  0
ARC
  5
12677
  8
0
 10
4274.6340563295088941
 20
227.3207474025030024
 30
0.0
 40
0.0801906115188108
 50
39.9912693532045367
 51
61.0087236530171211
  0
LINE
  5
12678
  8
0
 10
4274.7040763552804492
 20
227.3480653815603034
 30
0.0
 11
4274.6924141055633299
 21
227.3371901576888945
 31
0.0
  0
ARC
  5
12679
  8
0
 10
4274.6842301252127072
 20
227.3459664020811033
 30
0.0
 40
0.012
 50
230.4999999536985911
 51
313.0000001904758733
  0
LINE
  5
1267A
  8
0
 10
4274.6458617570624483
 20
227.4062799797792991
 30
0.0
 11
4274.6331940472773567
 21
227.3860074065611911
 31
0.0
  0
ARC
  5
1267B
  8
0
 10
4274.6433706244088171
 20
227.3796483753554867
 30
0.0
 40
0.012
 50
147.9999998033136137
 51
230.4999999536985911
  0
LINE
  5
1267C
  8
0
 10
4274.6357376857577037
 20
227.3703888803609914
 30
0.0
 11
4274.6765971865615938
 21
227.336706907086608
 31
0.0
  0
ARC
  5
1267D
  8
0
 10
4274.5887657637049415
 20
227.4614207103510921
 30
0.0
 40
0.0108286306997154
 50
149.1719991514964079
 51
232.9365293007570017
  0
ARC
  5
1267E
  8
0
 10
4274.6296214667027016
 20
227.4284251380751982
 30
0.0
 40
0.0109035773422064
 50
229.0434620626971025
 51
312.541413029490684
  0
ARC
  5
1267F
  8
0
 10
4274.8684850350491615
 20
227.7650506334680074
 30
0.0
 40
0.4236149893427283
 50
227.4898100106117909
 51
234.4973022169355943
  0
ARC
  5
12680
  8
0
 10
4274.5023500275983679
 20
227.3129297412220069
 30
0.0
 40
0.160051849574485
 50
45.8022529688030033
 51
56.1977469295555281
  0
ARC
  5
12681
  8
0
 10
4274.7040185381993069
 20
227.5619696300448993
 30
0.0
 40
0.1617120934340653
 50
225.8557653489930885
 51
236.1442388182680077
  0
LINE
  5
12682
  8
0
 10
4274.6369936253686319
 20
227.4203915040615982
 30
0.0
 11
4274.6456929796167969
 21
227.428938350063703
 31
0.0
  0
LINE
  5
12683
  8
0
 10
4274.5794671150451904
 20
227.466969978418291
 30
0.0
 11
4274.5924273851187536
 21
227.4873187437422075
 31
0.0
  0
ARC
  5
12684
  8
0
 10
4274.5110595681007908
 20
227.3595900382923105
 30
0.0
 40
0.1514441938216312
 50
20.293021256479971
 51
63.2724145379398024
  0
ARC
  5
12685
  8
0
 10
4274.7774494545037669
 20
227.5976255394243992
 30
0.0
 40
0.2233300823642566
 50
207.398818949061905
 51
211.8204728632458966
  0
ARC
  5
12686
  8
0
 10
4274.7774494545037669
 20
227.5976255394243992
 30
0.0
 40
0.2233300823642566
 50
231.6935639923086114
 51
236.1666168432547011
  0
LINE
  5
12687
  8
0
 10
4274.5438267965928389
 20
227.5865141809620127
 30
0.0
 11
4274.5222020017581599
 21
227.5518657243966061
 31
0.0
  0
LINE
  5
12688
  8
0
 10
4274.5998773884948605
 20
227.5205303991558878
 30
0.0
 11
4274.5806739496156297
 21
227.5029232938165933
 31
0.0
  0
ARC
  5
12689
  8
0
 10
4274.6738024262185718
 20
227.6767384664692884
 30
0.0
 40
0.2049250464127427
 50
222.8587346931952879
 51
239.1976574628588992
  0
ARC
  5
1268A
  8
0
 10
4274.5323820056000841
 20
227.545512180363005
 30
0.0
 40
0.012
 50
148.0308882709647094
 51
222.8587346931977038
  0
ARC
  5
1268B
  8
0
 10
4274.573258705671833
 20
227.509920033474998
 30
0.0
 40
0.0101951070906004
 50
244.4702514766746049
 51
316.6633236210503242
  0
ARC
  5
1268C
  8
0
 10
4274.5465726957600054
 20
227.5815415225922038
 30
0.0
 40
0.0220246951511996
 50
154.5708651354933068
 51
225.0100786622294891
  0
ARC
  5
1268D
  8
0
 10
4274.5129505061477175
 20
227.5034877407933891
 30
0.0
 40
0.0885817988000061
 50
359.8168668537787198
 51
81.0824620723711718
  0
ARC
  5
1268E
  8
0
 10
4274.5931807522329109
 20
227.5317105680751979
 30
0.0
 40
0.0297040495062713
 50
247.970648038427214
 51
286.3284637906651824
  0
ARC
  5
1268F
  8
0
 10
4274.5960379094040036
 20
227.5812788324375049
 30
0.0
 40
0.0805613182170858
 50
220.0401715229058084
 51
240.9598214833193026
  0
ARC
  5
12690
  8
0
 10
4274.4954941806017814
 20
227.4593095514140941
 30
0.0
 40
0.0801906115188108
 50
39.9912693532045367
 51
61.0087236530171211
  0
LINE
  5
12691
  8
0
 10
4274.565514206372427
 20
227.4866275304713952
 30
0.0
 11
4274.5538519566562172
 21
227.4757523065999862
 31
0.0
  0
ARC
  5
12692
  8
0
 10
4274.5456679763055945
 20
227.4845285509921951
 30
0.0
 40
0.012
 50
230.4999999536985911
 51
313.0000001904758733
  0
LINE
  5
12693
  8
0
 10
4274.5072996081553356
 20
227.5448421286903908
 30
0.0
 11
4274.4946318983693345
 21
227.5245695554723966
 31
0.0
  0
ARC
  5
12694
  8
0
 10
4274.5048084755017044
 20
227.5182105242666921
 30
0.0
 40
0.012
 50
147.9999998033136137
 51
230.4999999536985911
  0
LINE
  5
12695
  8
0
 10
4274.497175536850591
 20
227.5089510292721968
 30
0.0
 11
4274.5380350376563001
 21
227.4752690559976998
 31
0.0
  0
ARC
  5
12696
  8
0
 10
4274.4481234371778555
 20
227.6020630368826119
 30
0.0
 40
0.0108286306997154
 50
149.1719991514964079
 51
232.9365293007570017
  0
ARC
  5
12697
  8
0
 10
4274.4889791401756156
 20
227.5690674646066043
 30
0.0
 40
0.0109035773422064
 50
229.0434620626971025
 51
312.541413029490684
  0
ARC
  5
12698
  8
0
 10
4274.7278427085211661
 20
227.9056929599994987
 30
0.0
 40
0.4236149893427283
 50
227.4898100106117909
 51
234.4973022169355943
  0
ARC
  5
12699
  8
0
 10
4274.3617077010703724
 20
227.453572067753413
 30
0.0
 40
0.160051849574485
 50
45.8022529688030033
 51
56.1977469295555281
  0
ARC
  5
1269A
  8
0
 10
4274.5633762116731305
 20
227.7026119565763054
 30
0.0
 40
0.1617120934340653
 50
225.8557653489930885
 51
236.1442388182680077
  0
LINE
  5
1269B
  8
0
 10
4274.4963512988415459
 20
227.5610338305930043
 30
0.0
 11
4274.5050506530906205
 21
227.5695806765951943
 31
0.0
  0
LINE
  5
1269C
  8
0
 10
4274.4388247885181045
 20
227.6076123049498108
 30
0.0
 11
4274.4517850585925771
 21
227.6279610702736136
 31
0.0
  0
ARC
  5
1269D
  8
0
 10
4274.3704172415727953
 20
227.5002323648238018
 30
0.0
 40
0.1514441938216312
 50
20.293021256479971
 51
63.2724145379398024
  0
ARC
  5
1269E
  8
0
 10
4274.6368071279766809
 20
227.7382678659558906
 30
0.0
 40
0.2233300823642566
 50
207.398818949061905
 51
211.8204728632458966
  0
ARC
  5
1269F
  8
0
 10
4274.6368071279766809
 20
227.7382678659558906
 30
0.0
 40
0.2233300823642566
 50
231.6935639923086114
 51
236.1666168432547011
  0
LINE
  5
126A0
  8
0
 10
4274.403184470065753
 20
227.727156507493504
 30
0.0
 11
4274.3815596752310739
 21
227.6925080509280974
 31
0.0
  0
LINE
  5
126A1
  8
0
 10
4274.459235061968684
 20
227.6611727256874076
 30
0.0
 11
4274.4400316230876342
 21
227.6435656203479994
 31
0.0
  0
ARC
  5
126A2
  8
0
 10
4274.5331600996905763
 20
227.8173807930008081
 30
0.0
 40
0.2049250464127427
 50
222.8587346931952879
 51
239.1976574628588992
  0
ARC
  5
126A3
  8
0
 10
4274.3917396790729981
 20
227.686154506894411
 30
0.0
 40
0.012
 50
148.0308882709647094
 51
222.8587346931977038
  0
ARC
  5
126A4
  8
0
 10
4274.432616379144747
 20
227.6505623600064041
 30
0.0
 40
0.0101951070906004
 50
244.4702514766746049
 51
316.6633236210503242
  0
ARC
  5
126A5
  8
0
 10
4274.40593036923201
 20
227.7221838491236952
 30
0.0
 40
0.0220246951511996
 50
154.5708651354933068
 51
225.0100786622294891
  0
ARC
  5
126A6
  8
0
 10
4274.3723081796206316
 20
227.6441300673249089
 30
0.0
 40
0.0885817988000061
 50
359.8168668537787198
 51
81.0824620723711718
  0
ARC
  5
126A7
  8
0
 10
4274.4525384257049154
 20
227.672352894606604
 30
0.0
 40
0.0297040495062713
 50
247.970648038427214
 51
286.3284637906651824
  0
ARC
  5
126A8
  8
0
 10
4274.4553955828769176
 20
227.7219211589689962
 30
0.0
 40
0.0805613182170858
 50
220.0401715229058084
 51
240.9598214833193026
  0
ARC
  5
126A9
  8
0
 10
4274.3548518540746954
 20
227.5999518779455002
 30
0.0
 40
0.0801906115188108
 50
39.9912693532045367
 51
61.0087236530171211
  0
LINE
  5
126AA
  8
0
 10
4274.424871879845341
 20
227.6272698570028865
 30
0.0
 11
4274.4132096301291313
 21
227.616394633131506
 31
0.0
  0
ARC
  5
126AB
  8
0
 10
4274.405025649779418
 20
227.6251708775236864
 30
0.0
 40
0.012
 50
230.4999999536985911
 51
313.0000001904758733
  0
LINE
  5
126AC
  8
0
 10
4274.3666572816273401
 20
227.6854844552217969
 30
0.0
 11
4274.353989571843158
 21
227.6652118820038027
 31
0.0
  0
ARC
  5
126AD
  8
0
 10
4274.3641661489746184
 20
227.6588528507980982
 30
0.0
 40
0.012
 50
147.9999998033136137
 51
230.4999999536985911
  0
LINE
  5
126AE
  8
0
 10
4274.3565332103244145
 20
227.6495933558036029
 30
0.0
 11
4274.3973927111283047
 21
227.6159113825291911
 31
0.0
  0
ARC
  5
126AF
  8
0
 10
4274.3060864741028126
 20
227.7440999999620033
 30
0.0
 40
0.0108286306997154
 50
149.1719991514964079
 51
232.9365293007570017
  0
ARC
  5
126B0
  8
0
 10
4274.3469421771023917
 20
227.7111044276859957
 30
0.0
 40
0.0109035773422064
 50
229.0434620626971025
 51
312.541413029490684
  0
ARC
  5
126B1
  8
0
 10
4274.5858057454452137
 20
228.0477299230788049
 30
0.0
 40
0.4236149893427283
 50
227.4898100106117909
 51
234.4973022169355943
  0
ARC
  5
126B2
  8
0
 10
4274.2196707379944201
 20
227.5956090308328044
 30
0.0
 40
0.160051849574485
 50
45.8022529688030033
 51
56.1977469295555281
  0
ARC
  5
126B3
  8
0
 10
4274.4213392485971781
 20
227.8446489196556968
 30
0.0
 40
0.1617120934340653
 50
225.8557653489930885
 51
236.1442388182680077
  0
LINE
  5
126B4
  8
0
 10
4274.3543143357674126
 20
227.7030707936723957
 30
0.0
 11
4274.3630136900155776
 21
227.7116176396746141
 31
0.0
  0
LINE
  5
126B5
  8
0
 10
4274.2967878254430616
 20
227.7496492680292022
 30
0.0
 11
4274.3097480955157152
 21
227.769998033353005
 31
0.0
  0
ARC
  5
126B6
  8
0
 10
4274.2283802784986619
 20
227.6422693279031932
 30
0.0
 40
0.1514441938216312
 50
20.293021256479971
 51
63.2724145379398024
  0
ARC
  5
126B7
  8
0
 10
4274.4947701649007286
 20
227.8803048290351967
 30
0.0
 40
0.2233300823642566
 50
207.398818949061905
 51
211.8204728632458966
  0
ARC
  5
126B8
  8
0
 10
4274.4947701649007286
 20
227.8803048290351967
 30
0.0
 40
0.2233300823642566
 50
231.6935639923086114
 51
236.1666168432547011
  0
LINE
  5
126B9
  8
0
 10
4274.2611475069888911
 20
227.8691934705728954
 30
0.0
 11
4274.239522712156031
 21
227.8345450140074888
 31
0.0
  0
LINE
  5
126BA
  8
0
 10
4274.3171980988936411
 20
227.803209688766799
 30
0.0
 11
4274.2979946600116818
 21
227.7856025834273908
 31
0.0
  0
ARC
  5
126BB
  8
0
 10
4274.3911231366164429
 20
227.9594177560800858
 30
0.0
 40
0.2049250464127427
 50
222.8587346931952879
 51
239.1976574628588992
  0
ARC
  5
126BC
  8
0
 10
4274.2497027159970457
 20
227.8281914699738024
 30
0.0
 40
0.012
 50
148.0308882709647094
 51
222.8587346931977038
  0
ARC
  5
126BD
  8
0
 10
4274.2905794160697042
 20
227.7925993230857955
 30
0.0
 40
0.0101951070906004
 50
244.4702514766746049
 51
316.6633236210503242
  0
ARC
  5
126BE
  8
0
 10
4274.2638934061578766
 20
227.8642208122030866
 30
0.0
 40
0.0220246951511996
 50
154.5708651354933068
 51
225.0100786622294891
  0
ARC
  5
126BF
  8
0
 10
4274.2302712165474077
 20
227.7861670304043002
 30
0.0
 40
0.0885817988000061
 50
359.8168668537787198
 51
81.0824620723711718
  0
ARC
  5
126C0
  8
0
 10
4274.310501462630782
 20
227.8143898576859954
 30
0.0
 40
0.0297040495062713
 50
247.970648038427214
 51
286.3284637906651824
  0
ARC
  5
126C1
  8
0
 10
4274.3133586198009652
 20
227.8639581220483876
 30
0.0
 40
0.0805613182170858
 50
220.0401715229058084
 51
240.9598214833193026
  0
ARC
  5
126C2
  8
0
 10
4274.2128148909996526
 20
227.7419888410248916
 30
0.0
 40
0.0801906115188108
 50
39.9912693532045367
 51
61.0087236530171211
  0
LINE
  5
126C3
  8
0
 10
4274.2828349167702982
 20
227.7693068200821926
 30
0.0
 11
4274.2711726670540884
 21
227.7584315962108121
 31
0.0
  0
ARC
  5
126C4
  8
0
 10
4274.2629886867043751
 20
227.7672078406031062
 30
0.0
 40
0.012
 50
230.4999999536985911
 51
313.0000001904758733
  0
LINE
  5
126C5
  8
0
 10
4274.2246203185532067
 20
227.8275214183011883
 30
0.0
 11
4274.2119526087681152
 21
227.8072488450831941
 31
0.0
  0
ARC
  5
126C6
  8
0
 10
4274.2221291858995755
 20
227.8008898138774896
 30
0.0
 40
0.012
 50
147.9999998033136137
 51
230.4999999536985911
  0
LINE
  5
126C7
  8
0
 10
4274.2144962472493717
 20
227.7916303188829943
 30
0.0
 11
4274.2553557480532618
 21
227.7579483456086109
 31
0.0
  0
ARC
  5
126C8
  8
0
 10
4274.1620405889216272
 20
227.888145885146713
 30
0.0
 40
0.0108286306997154
 50
149.1719991514964079
 51
232.9365293007570017
  0
ARC
  5
126C9
  8
0
 10
4274.2028962919212063
 20
227.8551503128707054
 30
0.0
 40
0.0109035773422064
 50
229.0434620626971025
 51
312.541413029490684
  0
ARC
  5
126CA
  8
0
 10
4274.4417598602649377
 20
228.1917758082634862
 30
0.0
 40
0.4236149893427283
 50
227.4898100106117909
 51
234.4973022169355943
  0
ARC
  5
126CB
  8
0
 10
4274.0756248528141441
 20
227.7396549160175141
 30
0.0
 40
0.160051849574485
 50
45.8022529688030033
 51
56.1977469295555281
  0
ARC
  5
126CC
  8
0
 10
4274.2772933634169021
 20
227.9886948048404065
 30
0.0
 40
0.1617120934340653
 50
225.8557653489930885
 51
236.1442388182680077
  0
LINE
  5
126CD
  8
0
 10
4274.2102684505871366
 20
227.8471166788571054
 30
0.0
 11
4274.2189678048353016
 21
227.8556635248592954
 31
0.0
  0
LINE
  5
126CE
  8
0
 10
4274.1527419402618762
 20
227.8936951532139119
 30
0.0
 11
4274.1657022103363488
 21
227.9140439185376863
 31
0.0
  0
ARC
  5
126CF
  8
0
 10
4274.084334393316567
 20
227.7863152130877893
 30
0.0
 40
0.1514441938216312
 50
20.293021256479971
 51
63.2724145379398024
  0
ARC
  5
126D0
  8
0
 10
4274.3507242797204526
 20
228.0243507142199064
 30
0.0
 40
0.2233300823642566
 50
207.398818949061905
 51
211.8204728632458966
  0
ARC
  5
126D1
  8
0
 10
4274.3507242797204526
 20
228.0243507142199064
 30
0.0
 40
0.2233300823642566
 50
231.6935639923086114
 51
236.1666168432547011
  0
LINE
  5
126D2
  8
0
 10
4277.2377187435813539
 20
226.1405118985686045
 30
0.0
 11
4277.2605674535343496
 21
226.1633606085146084
 31
0.0
  0
LINE
  5
126D3
  8
0
 10
4277.2605674535343496
 20
226.1633606085146084
 30
0.0
 11
4277.3737045386487807
 21
226.0502235237792945
 31
0.0
  0
LINE
  5
126D4
  8
0
 10
4277.3737045386487807
 20
226.0502235237792945
 30
0.0
 11
4277.3504951833074301
 21
226.0270141683596989
 31
0.0
  0
LINE
  5
126D5
  8
0
 10
4277.2687081582516839
 20
226.100790635236109
 30
0.0
 11
4277.2943179581807271
 21
226.1264004353095061
 31
0.0
  0
LINE
  5
126D6
  8
0
 10
4277.2943179581807271
 20
226.1264004353095061
 30
0.0
 11
4277.3367443715324043
 21
226.0839740219815042
 31
0.0
  0
LINE
  5
126D7
  8
0
 10
4277.3367443715324043
 20
226.0839740219815042
 30
0.0
 11
4277.311127809592108
 21
226.0583574754151925
 31
0.0
  0
ARC
  5
126D8
  8
0
 10
4277.6975897165593778
 20
226.5382157773038045
 30
0.0
 40
0.5763852765382204
 50
220.6260154796568997
 51
225.6005411815795014
  0
ARC
  5
126D9
  8
0
 10
4277.7485830919167711
 20
226.487269725555791
 30
0.0
 40
0.5764187334215578
 50
224.3995326363580887
 51
229.3737692142944127
  0
ARC
  5
126DA
  8
0
 10
4277.3733195053500822
 20
226.2143546391783104
 30
0.0
 40
0.1544030988449668
 50
208.5709402387624039
 51
227.3497697514085019
  0
ARC
  5
126DB
  8
0
 10
4277.43299072420632
 20
226.1710235189237892
 30
0.0
 40
0.1659644760725563
 50
222.7543410859937865
 51
240.1938262412232064
  0
LINE
  5
126DC
  8
0
 10
4277.311127809592108
 20
226.0583574754151073
 30
0.0
 11
4277.2687014038920097
 21
226.1007838808756105
 31
0.0
  0
LINE
  5
126DD
  8
0
 10
4276.9341587802073263
 20
223.966164916250392
 30
0.0
 11
4276.9334898225706638
 21
223.9278403612923967
 31
0.0
  0
ARC
  5
126DE
  8
0
 10
4276.9538557798014153
 20
223.9658211038228899
 30
0.0
 40
0.0197
 50
90.0
 51
178.9999999396906958
  0
LINE
  5
126DF
  8
0
 10
4279.7594849895103835
 20
223.9610559738871132
 30
0.0
 11
4279.4174640840010397
 21
223.9640384014527115
 31
0.0
  0
LINE
  5
126E0
  8
0
 10
4278.0764093170582782
 20
223.9757324196824868
 30
0.0
 11
4276.9538557798014153
 21
223.9855211038228902
 31
0.0
  0
LINE
  5
126E1
  8
0
 10
4278.2188878234192089
 20
223.8332539133149908
 30
0.0
 11
4277.61474248434115
 21
223.8385567327470085
 31
0.0
  0
ARC
  5
126E2
  8
0
 10
4277.5871302113164347
 20
229.869059339484096
 30
0.0
 40
6.0305658215034113
 50
266.5231937307272005
 51
270.2623422547796963
  0
ARC
  5
126E3
  8
0
 10
4277.3482066668902917
 20
225.9365698782436027
 30
0.0
 40
2.090824989564243
 50
261.994538675060312
 51
266.5231937307272005
  0
ARC
  5
126E4
  8
0
 10
4277.1261497965497256
 20
224.357645176310001
 30
0.0
 40
0.4963619238140588
 50
250.4030105875881986
 51
261.994538675060312
  0
ARC
  5
126E5
  8
0
 10
4276.9728838217588418
 20
223.9271527364373071
 30
0.0
 40
0.0394
 50
178.9999999396956127
 51
250.4030105875341121
  0
LINE
  5
126E6
  8
0
 10
4276.9334887337081454
 20
223.9277748597035043
 30
0.0
 11
4278.1527588493672738
 21
223.8993828873705922
 31
0.0
  0
ENDSEC
  0
EOF
