  0
SECTION
  2
HEADER
  9
$ACADVER
  1
AC1015
  9
$ACADMAINTVER
 70
    20
  9
$DWGCODEPAGE
  3
ANSI_1252
  9
$INSBASE
 10
963.2751525414928
 20
139.4951689309106
 30
0.0
  9
$EXTMIN
 10
962.2617472222355
 20
139.4802641034242
 30
-0.0015258207003583
  9
$EXTMAX
 10
964.8107645535738
 20
150.1058251680749
 30
0.0000000349246037
  9
$LIMMIN
 10
0.0
 20
0.0
  9
$LIMMAX
 10
11.6929133858
 20
8.267716535399999
  9
$ORTHOMODE
 70
     0
  9
$REGENMODE
 70
     1
  9
$FILLMODE
 70
     1
  9
$QTEXTMODE
 70
     0
  9
$MIRRTEXT
 70
     0
  9
$LTSCALE
 40
0.6431102362
  9
$ATTMODE
 70
     1
  9
$TEXTSIZE
 40
0.2
  9
$TRACEWID
 40
0.05
  9
$TEXTSTYLE
  7
STANDARD
  9
$CLAYER
  8
0
  9
$CELTYPE
  6
BYLAYER
  9
$CECOLOR
 62
   256
  9
$CELTSCALE
 40
1.0
  9
$DISPSILH
 70
     0
  9
$DIMSCALE
 40
1.0
  9
$DIMASZ
 40
0.1875
  9
$DIMEXO
 40
0.0625
  9
$DIMDLI
 40
0.4443307087
  9
$DIMRND
 40
0.0
  9
$DIMDLE
 40
0.0
  9
$DIMEXE
 40
0.125
  9
$DIMTP
 40
0.01
  9
$DIMTM
 40
0.01
  9
$DIMTXT
 40
1.0
  9
$DIMCEN
 40
0.1052362205
  9
$DIMTSZ
 40
0.0
  9
$DIMTOL
 70
     1
  9
$DIMLIM
 70
     0
  9
$DIMTIH
 70
     0
  9
$DIMTOH
 70
     1
  9
$DIMSE1
 70
     0
  9
$DIMSE2
 70
     0
  9
$DIMTAD
 70
     0
  9
$DIMZIN
 70
     0
  9
$DIMBLK
  1

  9
$DIMASO
 70
     1
  9
$DIMSHO
 70
     1
  9
$DIMPOST
  1
\X
  9
$DIMAPOST
  1

  9
$DIMALT
 70
     1
  9
$DIMALTD
 70
     2
  9
$DIMALTF
 40
25.4
  9
$DIMLFAC
 40
1.0
  9
$DIMTOFL
 70
     0
  9
$DIMTVP
 40
0.0
  9
$DIMTIX
 70
     0
  9
$DIMSOXD
 70
     0
  9
$DIMSAH
 70
     0
  9
$DIMBLK1
  1

  9
$DIMBLK2
  1

  9
$DIMSTYLE
  2
STANDARD
  9
$DIMCLRD
 70
     0
  9
$DIMCLRE
 70
     0
  9
$DIMCLRT
 70
     0
  9
$DIMTFAC
 40
1.0
  9
$DIMGAP
 40
0.09
  9
$DIMJUST
 70
     0
  9
$DIMSD1
 70
     0
  9
$DIMSD2
 70
     0
  9
$DIMTOLJ
 70
     1
  9
$DIMTZIN
 70
     0
  9
$DIMALTZ
 70
     4
  9
$DIMALTTZ
 70
     0
  9
$DIMUPT
 70
     0
  9
$DIMDEC
 70
     4
  9
$DIMTDEC
 70
     4
  9
$DIMALTU
 70
     2
  9
$DIMALTTD
 70
     2
  9
$DIMTXSTY
  7
STANDARD
  9
$DIMAUNIT
 70
     0
  9
$DIMADEC
 70
     0
  9
$DIMALTRND
 40
0.0
  9
$DIMAZIN
 70
     0
  9
$DIMDSEP
 70
    46
  9
$DIMATFIT
 70
     3
  9
$DIMFRAC
 70
     0
  9
$DIMLDRBLK
  1

  9
$DIMLUNIT
 70
     2
  9
$DIMLWD
 70
    -2
  9
$DIMLWE
 70
    -2
  9
$DIMTMOVE
 70
     0
  9
$LUNITS
 70
     2
  9
$LUPREC
 70
     4
  9
$SKETCHINC
 40
0.1
  9
$FILLETRAD
 40
0.0
  9
$AUNITS
 70
     0
  9
$AUPREC
 70
     0
  9
$MENU
  1
.
  9
$ELEVATION
 40
0.0
  9
$PELEVATION
 40
0.0
  9
$THICKNESS
 40
0.0
  9
$LIMCHECK
 70
     0
  9
$CHAMFERA
 40
0.0
  9
$CHAMFERB
 40
0.0
  9
$CHAMFERC
 40
0.0
  9
$CHAMFERD
 40
0.0
  9
$SKPOLY
 70
     0
  9
$TDCREATE
 40
2458172.520763889
  9
$TDUCREATE
 40
2458172.291599722
  9
$TDUPDATE
 40
2459207.474780093
  9
$TDUUPDATE
 40
2459207.245613426
  9
$TDINDWG
 40
0.4463664583
  9
$TDUSRTIMER
 40
0.4463664583
  9
$USRTIMER
 70
     1
  9
$ANGBASE
 50
0.0
  9
$ANGDIR
 70
     0
  9
$PDMODE
 70
     0
  9
$PDSIZE
 40
0.3125
  9
$PLINEWID
 40
0.0
  9
$SPLFRAME
 70
     0
  9
$SPLINETYPE
 70
     6
  9
$SPLINESEGS
 70
     8
  9
$HANDSEED
  5
C0A6
  9
$SURFTAB1
 70
     6
  9
$SURFTAB2
 70
     6
  9
$SURFTYPE
 70
     6
  9
$SURFU
 70
     6
  9
$SURFV
 70
     6
  9
$UCSBASE
  2

  9
$UCSNAME
  2

  9
$UCSORG
 10
0.0
 20
0.0
 30
0.0
  9
$UCSXDIR
 10
1.0
 20
0.0
 30
0.0
  9
$UCSYDIR
 10
0.0
 20
1.0
 30
0.0
  9
$UCSORTHOREF
  2

  9
$UCSORTHOVIEW
 70
     0
  9
$UCSORGTOP
 10
0.0
 20
0.0
 30
0.0
  9
$UCSORGBOTTOM
 10
0.0
 20
0.0
 30
0.0
  9
$UCSORGLEFT
 10
0.0
 20
0.0
 30
0.0
  9
$UCSORGRIGHT
 10
0.0
 20
0.0
 30
0.0
  9
$UCSORGFRONT
 10
0.0
 20
0.0
 30
0.0
  9
$UCSORGBACK
 10
0.0
 20
0.0
 30
0.0
  9
$PUCSBASE
  2

  9
$PUCSNAME
  2

  9
$PUCSORG
 10
0.0
 20
0.0
 30
0.0
  9
$PUCSXDIR
 10
1.0
 20
0.0
 30
0.0
  9
$PUCSYDIR
 10
0.0
 20
1.0
 30
0.0
  9
$PUCSORTHOREF
  2

  9
$PUCSORTHOVIEW
 70
     0
  9
$PUCSORGTOP
 10
0.0
 20
0.0
 30
0.0
  9
$PUCSORGBOTTOM
 10
0.0
 20
0.0
 30
0.0
  9
$PUCSORGLEFT
 10
0.0
 20
0.0
 30
0.0
  9
$PUCSORGRIGHT
 10
0.0
 20
0.0
 30
0.0
  9
$PUCSORGFRONT
 10
0.0
 20
0.0
 30
0.0
  9
$PUCSORGBACK
 10
0.0
 20
0.0
 30
0.0
  9
$USERI1
 70
     0
  9
$USERI2
 70
     0
  9
$USERI3
 70
     0
  9
$USERI4
 70
     0
  9
$USERI5
 70
     0
  9
$USERR1
 40
0.0
  9
$USERR2
 40
0.0
  9
$USERR3
 40
0.0
  9
$USERR4
 40
0.0
  9
$USERR5
 40
0.0
  9
$WORLDVIEW
 70
     1
  9
$SHADEDGE
 70
     3
  9
$SHADEDIF
 70
    70
  9
$TILEMODE
 70
     1
  9
$MAXACTVP
 70
    64
  9
$PINSBASE
 10
0.0
 20
0.0
 30
0.0
  9
$PLIMCHECK
 70
     0
  9
$PEXTMIN
 10
1.000000000000000E+20
 20
1.000000000000000E+20
 30
1.000000000000000E+20
  9
$PEXTMAX
 10
-1.000000000000000E+20
 20
-1.000000000000000E+20
 30
-1.000000000000000E+20
  9
$PLIMMIN
 10
0.0
 20
0.0
  9
$PLIMMAX
 10
12.0
 20
9.0
  9
$UNITMODE
 70
     0
  9
$VISRETAIN
 70
     1
  9
$PLINEGEN
 70
     0
  9
$PSLTSCALE
 70
     1
  9
$TREEDEPTH
 70
  3020
  9
$CMLSTYLE
  2
Standard
  9
$CMLJUST
 70
     0
  9
$CMLSCALE
 40
1.0
  9
$PROXYGRAPHICS
 70
     1
  9
$MEASUREMENT
 70
     0
  9
$CELWEIGHT
370
    -1
  9
$ENDCAPS
280
     0
  9
$JOINSTYLE
280
     0
  9
$LWDISPLAY
290
     0
  9
$INSUNITS
 70
     1
  9
$HYPERLINKBASE
  1

  9
$STYLESHEET
  1

  9
$XEDIT
290
     1
  9
$CEPSNTYPE
380
     0
  9
$PSTYLEMODE
290
     1
  9
$FINGERPRINTGUID
  2
{84EEDA32-26B6-4E43-B227-EA6CDC4AF655}
  9
$VERSIONGUID
  2
{79D7F4DC-3615-D44C-9A95-60561AF90934}
  9
$EXTNAMES
290
     1
  9
$PSVPSCALE
 40
0.0
  9
$OLESTARTUP
290
     0
  0
ENDSEC
  0
SECTION
  2
CLASSES
  0
CLASS
  1
ACDBDICTIONARYWDFLT
  2
AcDbDictionaryWithDefault
  3
ObjectDBX Classes
 90
        0
280
     0
281
     0
  0
CLASS
  1
ACDBPLACEHOLDER
  2
AcDbPlaceHolder
  3
ObjectDBX Classes
 90
        0
280
     0
281
     0
  0
CLASS
  1
LAYOUT
  2
AcDbLayout
  3
ObjectDBX Classes
 90
        0
280
     0
281
     0
  0
CLASS
  1
MATERIAL
  2
AcDbMaterial
  3
ObjectDBX Classes
 90
     1153
280
     0
281
     0
  0
CLASS
  1
VISUALSTYLE
  2
AcDbVisualStyle
  3
ObjectDBX Classes
 90
     4095
280
     0
281
     0
  0
CLASS
  1
TABLESTYLE
  2
AcDbTableStyle
  3
ObjectDBX Classes
 90
     4095
280
     0
281
     0
  0
CLASS
  1
SCALE
  2
AcDbScale
  3
ObjectDBX Classes
 90
     1153
280
     0
281
     0
  0
CLASS
  1
MLEADERSTYLE
  2
AcDbMLeaderStyle
  3
ACDB_MLEADERSTYLE_CLASS
 90
     4095
280
     0
281
     0
  0
CLASS
  1
ACDBSECTIONVIEWSTYLE
  2
AcDbSectionViewStyle
  3
ObjectDBX Classes
 90
     1025
280
     0
281
     0
  0
CLASS
  1
ACDBDETAILVIEWSTYLE
  2
AcDbDetailViewStyle
  3
ObjectDBX Classes
 90
     1025
280
     0
281
     0
  0
CLASS
  1
CELLSTYLEMAP
  2
AcDbCellStyleMap
  3
ObjectDBX Classes
 90
     1152
280
     0
281
     0
  0
CLASS
  1
DICTIONARYVAR
  2
AcDbDictionaryVar
  3
ObjectDBX Classes
 90
        0
280
     0
281
     0
  0
CLASS
  1
SOLID_BACKGROUND
  2
AcDbSolidBackground
  3
SCENEOE
 90
    36863
280
     0
281
     0
  0
CLASS
  1
NPOCOLLECTION
  2
AcDbImpNonPersistentObjectsCollection
  3
ObjectDBX Classes
 90
    33921
280
     0
281
     0
  0
CLASS
  1
SORTENTSTABLE
  2
AcDbSortentsTable
  3
ObjectDBX Classes
 90
        0
280
     0
281
     0
  0
CLASS
  1
EXACXREFPANELOBJECT
  2
ExAcXREFPanelObject
  3
EXAC_ESW
 90
    33793
280
     0
281
     0
  0
ENDSEC
  0
SECTION
  2
TABLES
  0
TABLE
  2
VPORT
  5
8
102
{ACAD_XDICTIONARY
360
35C
102
}
330
0
100
AcDbSymbolTable
 70
     1
  0
VPORT
  5
1F4
330
8
100
AcDbSymbolTableRecord
100
AcDbViewportTableRecord
  2
*ACTIVE
 70
     0
 10
0.0
 20
0.0
 11
1.0
 21
1.0
 12
496.7940541800746
 22
55.65989751581978
 13
0.0
 23
0.0
 14
1.0
 24
1.0
 15
0.0
 25
0.0
 16
0.0
 26
0.0
 36
24.11794336758865
 17
466.74220170783
 27
89.13314711992979
 37
0.0
 40
10.76776504906914
 41
2.918279569892473
 42
50.0
 43
0.0
 44
0.0
 50
0.0
 51
0.0
 71
     0
 72
   100
 73
     1
 74
     1
 75
     0
 76
     0
 77
     0
 78
     0
281
     0
 65
     1
110
0.0
120
0.0
130
0.0
111
1.0
121
0.0
131
0.0
112
0.0
122
1.0
132
0.0
 79
     0
146
0.0
1001
ACAD_NAV_VCDISPLAY
1070
     3
  0
ENDTAB
  0
TABLE
  2
LTYPE
  5
5
330
0
100
AcDbSymbolTable
 70
     2
  0
LTYPE
  5
14
330
5
100
AcDbSymbolTableRecord
100
AcDbLinetypeTableRecord
  2
BYBLOCK
 70
     0
  3

 72
    65
 73
     0
 40
0.0
  0
LTYPE
  5
15
330
5
100
AcDbSymbolTableRecord
100
AcDbLinetypeTableRecord
  2
BYLAYER
 70
     0
  3

 72
    65
 73
     0
 40
0.0
  0
LTYPE
  5
16
330
5
100
AcDbSymbolTableRecord
100
AcDbLinetypeTableRecord
  2
CONTINUOUS
 70
     0
  3
Solid line
 72
    65
 73
     0
 40
0.0
  0
LTYPE
  5
355
330
5
100
AcDbSymbolTableRecord
100
AcDbLinetypeTableRecord
  2
PHANTOM2
 70
     0
  3
___ _ _ ___ _ _ ___ _ _ ___ _ _
 72
    65
 73
     6
 40
1.25
 49
0.625
 74
     0
 49
-0.125
 74
     0
 49
0.125
 74
     0
 49
-0.125
 74
     0
 49
0.125
 74
     0
 49
-0.125
 74
     0
  0
ENDTAB
  0
TABLE
  2
LAYER
  5
2
102
{ACAD_XDICTIONARY
360
819
102
}
330
0
100
AcDbSymbolTable
 70
     2
  0
LAYER
  5
10
102
{ACAD_XDICTIONARY
360
3B3
102
}
330
2
100
AcDbSymbolTableRecord
100
AcDbLayerTableRecord
  2
0
 70
     0
 62
   255
  6
CONTINUOUS
370
    -3
390
F
  0
LAYER
  5
65A
330
2
100
AcDbSymbolTableRecord
100
AcDbLayerTableRecord
  2
Defpoints
 70
     0
 62
     7
  6
CONTINUOUS
290
     0
370
    -3
390
F
  0
ENDTAB
  0
TABLE
  2
STYLE
  5
3
330
0
100
AcDbSymbolTable
 70
     1
  0
STYLE
  5
11
330
3
100
AcDbSymbolTableRecord
100
AcDbTextStyleTableRecord
  2
STANDARD
 70
     0
 40
0.0
 41
0.8
 50
0.0
 71
     0
 42
0.2
  3
txt
  4

  0
ENDTAB
  0
TABLE
  2
VIEW
  5
6
330
0
100
AcDbSymbolTable
 70
     0
  0
ENDTAB
  0
TABLE
  2
UCS
  5
7
330
0
100
AcDbSymbolTable
 70
     0
  0
ENDTAB
  0
TABLE
  2
APPID
  5
9
330
0
100
AcDbSymbolTable
 70
    11
  0
APPID
  5
208
330
9
100
AcDbSymbolTableRecord
100
AcDbRegAppTableRecord
  2
ACAD
 70
     0
  0
APPID
  5
396
330
9
100
AcDbSymbolTableRecord
100
AcDbRegAppTableRecord
  2
ACAD_MLEADERVER
 70
     0
  0
APPID
  5
3A9
330
9
100
AcDbSymbolTableRecord
100
AcDbRegAppTableRecord
  2
ACAD_EXEMPT_FROM_CAD_STANDARDS
 70
     0
  0
APPID
  5
3B1
330
9
100
AcDbSymbolTableRecord
100
AcDbRegAppTableRecord
  2
ACAD_DSTYLE_DIMJAG
 70
     0
  0
APPID
  5
3B2
330
9
100
AcDbSymbolTableRecord
100
AcDbRegAppTableRecord
  2
ACAD_DSTYLE_DIMTALN
 70
     0
  0
APPID
  5
3B5
330
9
100
AcDbSymbolTableRecord
100
AcDbRegAppTableRecord
  2
ACAD_NAV_VCDISPLAY
 70
     0
  0
APPID
  5
4BE
330
9
100
AcDbSymbolTableRecord
100
AcDbRegAppTableRecord
  2
AcAecLayerStandard
 70
     0
  0
APPID
  5
4BF
330
9
100
AcDbSymbolTableRecord
100
AcDbRegAppTableRecord
  2
AcCmTransparency
 70
     0
  0
APPID
  5
4D6
330
9
100
AcDbSymbolTableRecord
100
AcDbRegAppTableRecord
  2
DCO15
 70
     0
  0
APPID
  5
8F1
330
9
100
AcDbSymbolTableRecord
100
AcDbRegAppTableRecord
  2
AcDbAttr
 70
     0
  0
APPID
  5
8F01
330
9
100
AcDbSymbolTableRecord
100
AcDbRegAppTableRecord
  2
AcadAnnotative
 70
     0
  0
ENDTAB
  0
TABLE
  2
DIMSTYLE
  5
A
330
0
100
AcDbSymbolTable
 70
     1
100
AcDbDimStyleTable
 71
     1
340
20B
  0
DIMSTYLE
105
20B
330
A
100
AcDbSymbolTableRecord
100
AcDbDimStyleTableRecord
  2
STANDARD
 70
     0
 41
0.1875
 44
0.125
 47
0.01
 48
0.01
 71
     1
 78
     4
140
0.15625
271
     3
272
     3
284
     4
340
11
  0
ENDTAB
  0
TABLE
  2
BLOCK_RECORD
  5
1
330
0
100
AcDbSymbolTable
 70
     2
  0
BLOCK_RECORD
  5
209
102
{ACAD_XDICTIONARY
360
A37
102
}
330
1
100
AcDbSymbolTableRecord
100
AcDbBlockTableRecord
  2
*Model_Space
340
307
  0
BLOCK_RECORD
  5
20A
330
1
100
AcDbSymbolTableRecord
100
AcDbBlockTableRecord
  2
*Paper_Space
340
308
  0
ENDTAB
  0
ENDSEC
  0
SECTION
  2
BLOCKS
  0
BLOCK
  5
20
330
209
100
AcDbEntity
  8
0
100
AcDbBlockBegin
  2
*Model_Space
 70
     0
 10
0.0
 20
0.0
 30
0.0
  3
*Model_Space
  1

  0
ENDBLK
  5
21
330
209
100
AcDbEntity
  8
0
100
AcDbBlockEnd
  0
BLOCK
  5
1C
330
20A
100
AcDbEntity
 67
     1
  8
0
100
AcDbBlockBegin
  2
*Paper_Space
 70
     0
 10
0.0
 20
0.0
 30
0.0
  3
*Paper_Space
  1

  0
ENDBLK
  5
1D
330
20A
100
AcDbEntity
 67
     1
  8
0
100
AcDbBlockEnd
  0
ENDSEC
  0
SECTION
  2
ENTITIES
  0
ATTDEF
  5
829
330
209
100
AcDbEntity
  8
Defpoints
100
AcDbText
 10
963.2722614328221
 20
139.4934692336757
 30
0.0
 40
0.001
  1
K-72337IN-4
100
AcDbAttributeDefinition
  3

  2
MODELNUMBER
 70
     0
1001
AcDbAttr
1070
     0
1070
     1
  0
ATTDEF
  5
82A
330
209
100
AcDbEntity
  8
Defpoints
100
AcDbText
 10
963.2722614328221
 20
139.4918025670091
 30
0.0
 40
0.001
  1
ALEO
100
AcDbAttributeDefinition
  3

  2
TRADENAME
 70
     0
1001
AcDbAttr
1070
     0
1070
     1
  0
ATTDEF
  5
82B
330
209
100
AcDbEntity
  8
Defpoints
100
AcDbText
 10
963.2722614328221
 20
139.4901359003424
 30
0.0
 40
0.001
  1
BATHROOM SINK FAUCET
100
AcDbAttributeDefinition
  3

  2
PRODUCT
 70
     0
1001
AcDbAttr
1070
     0
1070
     1
  0
LINE
  5
BCB8
330
209
100
AcDbEntity
  8
0
100
AcDbLine
 10
964.2366519480415
 20
148.6211531829106
 30
0.0
 11
962.3136531349441
 21
148.6211531829106
 31
0.0
  0
LINE
  5
BCB9
330
209
100
AcDbEntity
  8
0
100
AcDbLine
 10
963.8137682886927
 20
149.1532397971107
 30
0.0
 11
962.7365367942928
 21
149.1532397971107
 31
0.0
  0
LINE
  5
BCBA
330
209
100
AcDbEntity
  8
0
100
AcDbLine
 10
964.1783098895091
 20
148.4189448448106
 30
0.0
 11
962.3719951934765
 21
148.4189448448106
 31
0.0
  0
LINE
  5
BCBB
330
209
100
AcDbEntity
  8
0
100
AcDbLine
 10
962.282153134944
 20
148.5896531829106
 30
0.0
 11
962.282153134944
 21
139.4951689309106
 31
0.0
  0
LINE
  5
BCBC
330
209
100
AcDbEntity
  8
0
100
AcDbLine
 10
962.9752506498927
 20
147.856658147511
 30
0.0
 11
962.9630819331774
 21
147.9361345539926
 31
0.0
  0
ARC
  5
BCBD
330
209
100
AcDbEntity
  8
0
100
AcDbCircle
 10
963.3422036899821
 20
150.7887078369138
 30
0.0
 40
3.037902061893889
100
AcDbArc
 50
267.674915170193
 51
268.7352917475418
  0
ARC
  5
BCBE
330
209
100
AcDbEntity
  8
0
100
AcDbCircle
 10
963.2665197875311
 20
148.5110692928872
 30
0.0
 40
0.7592536502048785
100
AcDbArc
 50
258.2082902895239
 51
266.4085009900166
  0
ARC
  5
BCBF
330
209
100
AcDbEntity
  8
0
100
AcDbCircle
 10
963.1829319172743
 20
148.1106673104352
 30
0.0
 40
0.3502198134559196
100
AcDbArc
 50
241.8308884184196
 51
258.2082902895239
  0
ARC
  5
BCC0
330
209
100
AcDbEntity
  8
0
100
AcDbCircle
 10
963.0576084394173
 20
147.8766371495079
 30
0.0
 40
0.084746480848196
100
AcDbArc
 50
193.635850133497
 51
241.8308884184196
  0
ARC
  5
BCC1
330
209
100
AcDbEntity
  8
0
100
AcDbCircle
 10
963.2749963548976
 20
147.0921611547814
 30
0.0
 40
0.8248004356042486
100
AcDbArc
 50
89.98915030545965
 51
94.65387606331836
  0
ARC
  5
BCC2
330
209
100
AcDbEntity
  8
0
100
AcDbCircle
 10
963.2630436023434
 20
147.2389926353031
 30
0.0
 40
0.6774832541018763
100
AcDbArc
 50
94.65387606331836
 51
101.2339747787144
  0
ARC
  5
BCC3
330
209
100
AcDbEntity
  8
0
100
AcDbCircle
 10
963.2025455639942
 20
147.543582020069
 30
0.0
 40
0.3669438750269739
100
AcDbArc
 50
101.2339747787144
 51
112.9526882441727
  0
ARC
  5
BCC4
330
209
100
AcDbEntity
  8
0
100
AcDbCircle
 10
963.1031464911535
 20
147.7782902256787
 30
0.0
 40
0.1120554338176728
100
AcDbArc
 50
112.9526882441727
 51
133.0624095943176
  0
ARC
  5
BCC5
330
209
100
AcDbEntity
  8
0
100
AcDbCircle
 10
963.0532144162597
 20
147.8317190225695
 30
0.0
 40
0.0389264488636173
100
AcDbArc
 50
133.0624095943182
 51
162.5004524909798
  0
ARC
  5
BCC6
330
209
100
AcDbEntity
  8
0
100
AcDbCircle
 10
963.0464222610223
 20
147.8368659367298
 30
0.0
 40
0.0310336238688487
100
AcDbArc
 50
167.7999483805228
 51
227.4674315453352
  0
ARC
  5
BCC7
330
209
100
AcDbEntity
  8
0
100
AcDbCircle
 10
963.1457529115422
 20
147.9622515812403
 30
0.0
 40
0.1909285126027903
100
AcDbArc
 50
230.9403313666913
 51
258.5180112438331
  0
ARC
  5
BCC8
330
209
100
AcDbEntity
  8
0
100
AcDbCircle
 10
963.2669978946744
 20
148.4474843083421
 30
0.0
 40
0.690943089858399
100
AcDbArc
 50
256.674443177081
 51
266.9803746576609
  0
ARC
  5
BCC9
330
209
100
AcDbEntity
  8
0
100
AcDbCircle
 10
963.2751788867885
 20
148.6369019961481
 30
0.0
 40
0.8838868028383508
100
AcDbArc
 50
264.855511553936
 51
269.9982922312584
  0
ARC
  5
BCCA
330
209
100
AcDbEntity
  8
0
100
AcDbCircle
 10
963.251473524695
 20
148.373597821354
 30
0.0
 40
0.6195176808592949
100
AcDbArc
 50
256.009420985702
 51
264.855511553936
  0
ARC
  5
BCCB
330
209
100
AcDbEntity
  8
0
100
AcDbCircle
 10
963.1756156476816
 20
148.0691352340079
 30
0.0
 40
0.3057472479015213
100
AcDbArc
 50
243.5091398014233
 51
256.009420985702
  0
ARC
  5
BCCC
330
209
100
AcDbEntity
  8
0
100
AcDbCircle
 10
963.0752066010934
 20
147.8676653657804
 30
0.0
 40
0.0806426401291949
100
AcDbArc
 50
214.1426188227232
 51
243.5091398014233
  0
ARC
  5
BCCD
330
209
100
AcDbEntity
  8
0
100
AcDbCircle
 10
963.0293495974594
 20
147.8365680688672
 30
0.0
 40
0.0252359017521174
100
AcDbArc
 50
147.5310941513864
 51
214.1426188227225
  0
ARC
  5
BCCE
330
209
100
AcDbEntity
  8
0
100
AcDbCircle
 10
963.0983853553972
 20
147.7800685079609
 30
0.0
 40
0.1143046723091786
100
AcDbArc
 50
106.2095491525475
 51
142.2069089603441
  0
ARC
  5
BCCF
330
209
100
AcDbEntity
  8
0
100
AcDbCircle
 10
963.2227181744863
 20
147.4453242618769
 30
0.0
 40
0.4711644751581943
100
AcDbArc
 50
97.38497258910966
 51
109.3662992777144
  0
ARC
  5
BCD0
330
209
100
AcDbEntity
  8
0
100
AcDbCircle
 10
963.2693729665696
 20
147.1473533373985
 30
0.0
 40
0.7727015835494522
100
AcDbArc
 50
92.82103209653948
 51
97.9758057323311
  0
ARC
  5
BCD1
330
209
100
AcDbEntity
  8
0
100
AcDbCircle
 10
963.2750287072891
 20
147.0542401560333
 30
0.0
 40
0.865980936201408
100
AcDbArc
 50
89.99180677430109
 51
92.89157432939282
  0
ARC
  5
BCD2
330
209
100
AcDbEntity
  8
0
100
AcDbCircle
 10
962.9945286987743
 20
147.941223603587
 30
0.0
 40
0.0318558863052444
100
AcDbArc
 50
150.9639844590262
 51
189.1925163716697
  0
ARC
  5
BCD3
330
209
100
AcDbEntity
  8
0
100
AcDbCircle
 10
963.0221798639817
 20
147.9258735827329
 30
0.0
 40
0.0634819843501293
100
AcDbArc
 50
124.1328770551293
 51
150.9639844590269
  0
ARC
  5
BCD4
330
209
100
AcDbEntity
  8
0
100
AcDbCircle
 10
963.1451388385906
 20
147.7272105153617
 30
0.0
 40
0.2970752934375349
100
AcDbArc
 50
100.229280159029
 51
122.2627531569369
  0
ARC
  5
BCD5
330
209
100
AcDbEntity
  8
0
100
AcDbCircle
 10
963.2644879431223
 20
147.2059161098509
 30
0.0
 40
0.8316507867537612
100
AcDbArc
 50
91.46624354239465
 51
101.9433843005711
  0
ARC
  5
BCD6
330
209
100
AcDbEntity
  8
0
100
AcDbCircle
 10
963.2751506932928
 20
147.0324418162087
 30
0.0
 40
1.005360362401963
100
AcDbArc
 50
89.99989467116099
 51
91.8207482893179
  0
ARC
  5
BCD7
330
209
100
AcDbEntity
  8
0
100
AcDbCircle
 10
963.0908394218963
 20
148.3733878423892
 30
0.0
 40
0.5539230403153156
100
AcDbArc
 50
241.3722905250208
 51
259.2346045583525
  0
ARC
  5
BCD8
330
209
100
AcDbEntity
  8
0
100
AcDbCircle
 10
962.884473002051
 20
147.9953202119599
 30
0.0
 40
0.1232001219347993
100
AcDbArc
 50
216.2403502539596
 51
241.3722905250208
  0
ARC
  5
BCD9
330
209
100
AcDbEntity
  8
0
100
AcDbCircle
 10
962.8312950505659
 20
147.956342294337
 30
0.0
 40
0.0572670301950935
100
AcDbArc
 50
148.7804684464859
 51
216.2403502539589
  0
ARC
  5
BCDA
330
209
100
AcDbEntity
  8
0
100
AcDbCircle
 10
963.2271945854263
 20
146.986298900887
 30
0.0
 40
1.122686709641105
100
AcDbArc
 50
94.51301158489661
 51
104.8707896639786
  0
ARC
  5
BCDB
330
209
100
AcDbEntity
  8
0
100
AcDbCircle
 10
963.2743544840172
 20
146.5321618305845
 30
0.0
 40
1.579166808043968
100
AcDbArc
 50
89.97104465033665
 51
94.92226768203591
  0
ARC
  5
BCDC
330
209
100
AcDbEntity
  8
0
100
AcDbCircle
 10
963.2749214232056
 20
146.5391592204989
 30
0.0
 40
1.569127728785228
100
AcDbArc
 50
89.99156085113499
 51
93.83024236193373
  0
ARC
  5
BCDD
330
209
100
AcDbEntity
  8
0
100
AcDbCircle
 10
963.2596838698745
 20
146.7667548882182
 30
0.0
 40
1.341022553490778
100
AcDbArc
 50
93.83024236193373
 51
100.7205637106051
  0
ARC
  5
BCDE
330
209
100
AcDbEntity
  8
0
100
AcDbCircle
 10
963.1482358938495
 20
147.3554184996802
 30
0.0
 40
0.7419019489214597
100
AcDbArc
 50
100.7205637106051
 51
110.8358420502943
  0
ARC
  5
BCDF
330
209
100
AcDbEntity
  8
0
100
AcDbCircle
 10
962.9829677779314
 20
147.7896713710321
 30
0.0
 40
0.277263265193445
100
AcDbArc
 50
110.8358420502943
 51
126.5143804580689
  0
ARC
  5
BCE0
330
209
100
AcDbEntity
  8
0
100
AcDbCircle
 10
962.8803663855842
 20
147.9282564367944
 30
0.0
 40
0.1048310577496916
100
AcDbArc
 50
126.5143804580689
 51
152.6211916620519
  0
ARC
  5
BCE1
330
209
100
AcDbEntity
  8
0
100
AcDbCircle
 10
962.8375078677066
 20
147.9562126607391
 30
0.0
 40
0.0541591576872695
100
AcDbArc
 50
158.0408396729631
 51
218.8441655396189
  0
ARC
  5
BCE2
330
209
100
AcDbEntity
  8
0
100
AcDbCircle
 10
963.0313007507817
 20
148.1840859394747
 30
0.0
 40
0.3524847597169859
100
AcDbArc
 50
227.9744782515197
 51
262.2729755085666
  0
ARC
  5
BCE3
330
209
100
AcDbEntity
  8
0
100
AcDbCircle
 10
962.9067297736401
 20
147.8933853237767
 30
0.0
 40
0.1551116618932778
100
AcDbArc
 50
117.826322800978
 51
143.3272203723274
  0
ARC
  5
BCE4
330
209
100
AcDbEntity
  8
0
100
AcDbCircle
 10
963.0649173088196
 20
147.5936897852704
 30
0.0
 40
0.4939932224520187
100
AcDbArc
 50
104.7592952766572
 51
117.826322800978
  0
ARC
  5
BCE5
330
209
100
AcDbEntity
  8
0
100
AcDbCircle
 10
962.3772472001874
 20
148.3751824131704
 30
0.0
 40
0.0440764562726688
100
AcDbArc
 50
96.84343799083325
 51
129.3304806528297
  0
ARC
  5
BCE6
330
209
100
AcDbEntity
  8
0
100
AcDbCircle
 10
962.4166721803833
 20
148.3483249760503
 30
0.0
 40
0.0908427235650117
100
AcDbArc
 50
137.8597504008426
 51
166.8784439738409
  0
ARC
  5
BCE7
330
209
100
AcDbEntity
  8
0
100
AcDbCircle
 10
963.7153373950409
 20
148.0674021134815
 30
0.0
 40
1.419533863181195
100
AcDbArc
 50
167.7354453024393
 51
178.1927753268631
  0
ARC
  5
BCE8
330
209
100
AcDbEntity
  8
0
100
AcDbCircle
 10
981.735391585142
 20
147.2679718458949
 30
0.0
 40
19.45720437282743
100
AcDbArc
 50
177.5133036046481
 51
178.8431503868757
  0
ARC
  5
BCE9
330
209
100
AcDbEntity
  8
0
100
AcDbCircle
 10
963.2632453009946
 20
147.0539704528473
 30
0.0
 40
1.002834408508707
100
AcDbArc
 50
92.17701496741767
 51
102.4112754972609
  0
ARC
  5
BCEA
330
209
100
AcDbEntity
  8
0
100
AcDbCircle
 10
963.0430583936586
 20
147.8306080340818
 30
0.0
 40
0.1925937051114371
100
AcDbArc
 50
110.0600249691776
 51
129.0156606337146
  0
ARC
  5
BCEB
330
209
100
AcDbEntity
  8
0
100
AcDbCircle
 10
962.9631777654076
 20
147.9291972838069
 30
0.0
 40
0.0657049548963248
100
AcDbArc
 50
129.0156606337135
 51
155.269345623879
  0
ARC
  5
BCEC
330
209
100
AcDbEntity
  8
0
100
AcDbCircle
 10
963.0189913580107
 20
148.0050543394646
 30
0.0
 40
0.140079856535719
100
AcDbArc
 50
214.4646679851687
 51
250.7361856737826
  0
LINE
  5
BCED
330
209
100
AcDbEntity
  8
0
100
AcDbLine
 10
962.9646668032714
 20
147.9257834395106
 30
0.0
 11
962.9034989745928
 21
147.9257834395106
 31
0.0
  0
LINE
  5
BCEE
330
209
100
AcDbEntity
  8
0
100
AcDbLine
 10
962.9666766262928
 20
147.9566851543106
 30
0.0
 11
962.9034989745928
 21
147.9566851543106
 31
0.0
  0
LINE
  5
BCEF
330
209
100
AcDbEntity
  8
0
100
AcDbLine
 10
963.0220630900394
 20
147.997591894324
 30
0.0
 11
962.9769979037094
 21
148.0115178097055
 31
0.0
  0
LINE
  5
BCF0
330
209
100
AcDbEntity
  8
0
100
AcDbLine
 10
963.092381927705
 20
148.0195637919378
 30
0.0
 11
963.0477085817929
 21
148.0333686219106
 31
0.0
  0
LINE
  5
BCF1
330
209
100
AcDbEntity
  8
0
100
AcDbLine
 10
963.2251506932927
 20
148.0366360457403
 30
0.0
 11
963.2251506932927
 21
148.0560810514107
 31
0.0
  0
LINE
  5
BCF2
330
209
100
AcDbEntity
  8
0
100
AcDbLine
 10
962.9666766262928
 20
148.0042379777106
 30
0.0
 11
962.9666766262928
 21
147.9566851543106
 31
0.0
  0
LINE
  5
BCF3
330
209
100
AcDbEntity
  8
0
100
AcDbLine
 10
963.0923819277928
 20
148.0195637919564
 30
0.0
 11
963.0923819277928
 21
148.042141773311
 31
0.0
  0
ARC
  5
BCF4
330
209
100
AcDbEntity
  8
0
100
AcDbCircle
 10
963.275142881123
 20
146.8231406682427
 30
0.0
 40
1.237373634746665
100
AcDbArc
 50
89.99955268290738
 51
93.59610233963378
  0
ARC
  5
BCF5
330
209
100
AcDbEntity
  8
0
100
AcDbCircle
 10
963.2671803367966
 20
146.9498392216408
 30
0.0
 40
1.110425119413346
100
AcDbArc
 50
93.59610233963378
 51
99.06081798368232
  0
ARC
  5
BCF6
330
209
100
AcDbEntity
  8
0
100
AcDbCircle
 10
963.1980785601374
 20
147.3831532973937
 30
0.0
 40
0.6716357123135609
100
AcDbArc
 50
99.06081798368232
 51
105.966721209309
  0
ARC
  5
BCF7
330
209
100
AcDbEntity
  8
0
100
AcDbCircle
 10
963.130983830608
 20
147.6176543962923
 30
0.0
 40
0.4277249333076596
100
AcDbArc
 50
105.966721209309
 51
116.6440931715614
  0
ARC
  5
BCF8
330
209
100
AcDbEntity
  8
0
100
AcDbCircle
 10
962.9973650025135
 20
147.8839729232261
 30
0.0
 40
0.1297659612837534
100
AcDbArc
 50
116.6440931715614
 51
137.8718740003002
  0
ARC
  5
BCF9
330
209
100
AcDbEntity
  8
0
100
AcDbCircle
 10
962.9342658930418
 20
147.9410436325271
 30
0.0
 40
0.0446862135394641
100
AcDbArc
 50
137.8718740003002
 51
199.4745630409499
  0
ARC
  5
BCFA
330
209
100
AcDbEntity
  8
0
100
AcDbCircle
 10
963.0096226559256
 20
148.0045678956885
 30
0.0
 40
0.1412554354346345
100
AcDbArc
 50
213.7230808235099
 51
255.1889424688114
  0
ARC
  5
BCFB
330
209
100
AcDbEntity
  8
0
100
AcDbCircle
 10
963.2747007354049
 20
146.6901614500307
 30
0.0
 40
1.402918017937459
100
AcDbArc
 50
89.98154804335268
 51
94.25192404681167
  0
ARC
  5
BCFC
330
209
100
AcDbEntity
  8
0
100
AcDbCircle
 10
963.2616941887198
 20
146.8651061834953
 30
0.0
 40
1.227490454471274
100
AcDbArc
 50
94.25192404681167
 51
98.56393192990276
  0
ARC
  5
BCFD
330
209
100
AcDbEntity
  8
0
100
AcDbCircle
 10
963.20636110604
 20
147.2325434026488
 30
0.0
 40
0.855910234252186
100
AcDbArc
 50
98.56393192990276
 51
107.3911291476596
  0
ARC
  5
BCFE
330
209
100
AcDbEntity
  8
0
100
AcDbCircle
 10
963.0490224551868
 20
147.7348841891017
 30
0.0
 40
0.3295057160473083
100
AcDbArc
 50
107.3911291476596
 51
123.4357339820144
  0
ARC
  5
BCFF
330
209
100
AcDbEntity
  8
0
100
AcDbCircle
 10
962.9183312798732
 20
147.9328190337596
 30
0.0
 40
0.0923172128802999
100
AcDbArc
 50
123.4357339820144
 51
152.5841095035998
  0
ARC
  5
BD00
330
209
100
AcDbEntity
  8
0
100
AcDbCircle
 10
962.8866229364863
 20
147.955301515813
 30
0.0
 40
0.0540841388690653
100
AcDbArc
 50
158.269013376756
 51
214.975204477807
  0
ARC
  5
BD01
330
209
100
AcDbEntity
  8
0
100
AcDbCircle
 10
963.0271371356689
 20
148.1231048478645
 30
0.0
 40
0.2714517480795343
100
AcDbArc
 50
227.0862016463298
 51
258.9804214801429
  0
ARC
  5
BD02
330
209
100
AcDbEntity
  8
0
100
AcDbCircle
 10
962.8807802808491
 20
147.9811152359849
 30
0.0
 40
0.0686169875089141
100
AcDbArc
 50
150.7474839356189
 51
235.8954226181917
  0
ARC
  5
BD03
330
209
100
AcDbEntity
  8
0
100
AcDbCircle
 10
963.2654384357692
 20
146.9547096636942
 30
0.0
 40
1.128070433227911
100
AcDbArc
 50
89.50660515314295
 51
99.73432781336001
  0
ARC
  5
BD04
330
209
100
AcDbEntity
  8
0
100
AcDbCircle
 10
963.1953635347736
 20
147.3631909776776
 30
0.0
 40
0.7136220339993247
100
AcDbArc
 50
99.73432781336001
 51
109.6019132683658
  0
ARC
  5
BD05
330
209
100
AcDbEntity
  8
0
100
AcDbCircle
 10
963.0347374044522
 20
147.8142338960909
 30
0.0
 40
0.2348314033549939
100
AcDbArc
 50
109.6019132683658
 51
128.1470525390066
  0
ARC
  5
BD06
330
209
100
AcDbEntity
  8
0
100
AcDbCircle
 10
962.9329260761402
 20
147.9438593242266
 30
0.0
 40
0.070003316573582
100
AcDbArc
 50
128.1470525390061
 51
156.3512913649996
  0
ARC
  5
BD07
330
209
100
AcDbEntity
  8
0
100
AcDbCircle
 10
962.9076275855126
 20
147.9549375845129
 30
0.0
 40
0.042385541880546
100
AcDbArc
 50
156.3512913650003
 51
230.1343284794537
  0
ARC
  5
BD08
330
209
100
AcDbEntity
  8
0
100
AcDbCircle
 10
962.9808482925154
 20
148.0185026287597
 30
0.0
 40
0.1389707405037738
100
AcDbArc
 50
223.748834158482
 51
246.6234556793685
  0
ARC
  5
BD09
330
209
100
AcDbEntity
  8
0
100
AcDbCircle
 10
961.899841045847
 20
147.2221994238773
 30
0.0
 40
1.128755464829749
100
AcDbArc
 50
38.33966663075762
 51
43.09900160552941
  0
ARC
  5
BD0A
330
209
100
AcDbEntity
  8
0
100
AcDbCircle
 10
963.7717270865232
 20
148.8749971149095
 30
0.0
 40
1.369242265643722
100
AcDbArc
 50
199.4551627697878
 51
220.0782172092796
  0
ARC
  5
BD0B
330
209
100
AcDbEntity
  8
0
100
AcDbCircle
 10
962.3136531349441
 20
148.5896531829106
 30
0.0
 40
0.0315
100
AcDbArc
 50
90.0
 51
180.0000000000032
  0
LINE
  5
BD0C
330
209
100
AcDbEntity
  8
0
100
AcDbLine
 10
962.3107975841929
 20
148.6290271987106
 30
0.0
 11
964.2395074987929
 21
148.6290271987106
 31
0.0
  0
LINE
  5
BD0D
330
209
100
AcDbEntity
  8
0
100
AcDbLine
 10
962.3114663262651
 20
148.6674008508774
 30
0.0
 11
962.3107975841929
 21
148.6290271987106
 31
0.0
  0
ARC
  5
BD0E
330
209
100
AcDbEntity
  8
0
100
AcDbCircle
 10
962.1621071620737
 20
149.8456151016212
 30
0.0
 40
1.138425774688166
100
AcDbArc
 50
280.0243908244332
 51
289.2795481694367
  0
ARC
  5
BD0F
330
209
100
AcDbEntity
  8
0
100
AcDbCircle
 10
962.3587177360038
 20
149.2835403335997
 30
0.0
 40
0.5429564113893163
100
AcDbArc
 50
289.2795481694367
 51
310.7126240585133
  0
ARC
  5
BD10
330
209
100
AcDbEntity
  8
0
100
AcDbCircle
 10
962.4908687942918
 20
149.1106643344294
 30
0.0
 40
0.3259637523085858
100
AcDbArc
 50
312.9264744144628
 51
340.6808843703402
  0
ARC
  5
BD11
330
209
100
AcDbEntity
  8
0
100
AcDbCircle
 10
962.0291455260669
 20
149.2302126759341
 30
0.0
 40
0.8022323539801273
100
AcDbArc
 50
343.5342324590171
 51
354.4940937957045
  0
ARC
  5
BD12
330
209
100
AcDbEntity
  8
0
100
AcDbCircle
 10
962.3705573538449
 20
148.666371064709
 30
0.0
 40
0.0591
100
AcDbArc
 50
100.0243908244331
 51
179.0016008916645
  0
LINE
  5
BD13
330
209
100
AcDbEntity
  8
0
100
AcDbLine
 10
962.3500453251388
 20
148.6211531829106
 30
0.0
 11
962.3500453251388
 21
148.6290271987106
 31
0.0
  0
LINE
  5
BD14
330
209
100
AcDbEntity
  8
0
100
AcDbLine
 10
962.7365367942928
 20
149.1532397971107
 30
0.0
 11
962.7523941461769
 21
150.0619049743688
 31
0.0
  0
LINE
  5
BD15
330
209
100
AcDbEntity
  8
0
100
AcDbLine
 10
962.9150854971195
 20
150.104313712507
 30
0.0
 11
963.6352195858663
 21
150.104313712507
 31
0.0
  0
LINE
  5
BD16
330
209
100
AcDbEntity
  8
0
100
AcDbLine
 10
964.2681519480415
 20
148.5896531829106
 30
0.0
 11
964.2681519480415
 21
139.4951689309106
 31
0.0
  0
LINE
  5
BD17
330
209
100
AcDbEntity
  8
0
100
AcDbLine
 10
963.5750544330928
 20
147.856658147511
 30
0.0
 11
963.5872231498083
 21
147.9361345539926
 31
0.0
  0
ARC
  5
BD18
330
209
100
AcDbEntity
  8
0
100
AcDbCircle
 10
963.4926966435685
 20
147.8766371495079
 30
0.0
 40
0.084746480848196
100
AcDbArc
 50
298.1691115815804
 51
346.3641498665022
  0
ARC
  5
BD19
330
209
100
AcDbEntity
  8
0
100
AcDbCircle
 10
963.4471585918323
 20
147.7782902256787
 30
0.0
 40
0.1120554338176728
100
AcDbArc
 50
46.93759040568236
 51
67.04731175582728
  0
ARC
  5
BD1A
330
209
100
AcDbEntity
  8
0
100
AcDbCircle
 10
963.4970906667261
 20
147.8317190225695
 30
0.0
 40
0.0389264488636173
100
AcDbArc
 50
17.49954750902023
 51
52.10868842829519
  0
ARC
  5
BD1B
330
209
100
AcDbEntity
  8
0
100
AcDbCircle
 10
963.5038828219633
 20
147.8368659367298
 30
0.0
 40
0.0310336238688487
100
AcDbArc
 50
312.5325684546853
 51
12.20005161947797
  0
ARC
  5
BD1C
330
209
100
AcDbEntity
  8
0
100
AcDbCircle
 10
963.4750984818921
 20
147.8676653657804
 30
0.0
 40
0.0806426401291949
100
AcDbArc
 50
296.4908601985825
 51
325.8573811772767
  0
ARC
  5
BD1D
330
209
100
AcDbEntity
  8
0
100
AcDbCircle
 10
963.5209554855261
 20
147.8365680688672
 30
0.0
 40
0.0252359017521174
100
AcDbArc
 50
325.8573811772775
 51
46.12557507750851
  0
ARC
  5
BD1E
330
209
100
AcDbEntity
  8
0
100
AcDbCircle
 10
963.4519197275883
 20
147.7800685079609
 30
0.0
 40
0.1143046723091786
100
AcDbArc
 50
40.80138988648097
 51
73.79045084745249
  0
ARC
  5
BD1F
330
209
100
AcDbEntity
  8
0
100
AcDbCircle
 10
963.5557763842113
 20
147.941223603587
 30
0.0
 40
0.0318558863052444
100
AcDbArc
 50
350.8074836283294
 51
29.03601554097378
  0
ARC
  5
BD20
330
209
100
AcDbEntity
  8
0
100
AcDbCircle
 10
963.528125219004
 20
147.9258735827329
 30
0.0
 40
0.0634819843501293
100
AcDbArc
 50
29.03601554097307
 51
55.86712294487065
  0
ARC
  5
BD21
330
209
100
AcDbEntity
  8
0
100
AcDbCircle
 10
963.4051662443951
 20
147.7272105153617
 30
0.0
 40
0.2970752934375349
100
AcDbArc
 50
57.73724684306303
 51
79.77071984097098
  0
ARC
  5
BD22
330
209
100
AcDbEntity
  8
0
100
AcDbCircle
 10
963.2858171398634
 20
147.2059161098509
 30
0.0
 40
0.8316507867537612
100
AcDbArc
 50
78.05661569943527
 51
88.53375645760534
  0
ARC
  5
BD23
330
209
100
AcDbEntity
  8
0
100
AcDbCircle
 10
963.2751543896928
 20
147.0324418162087
 30
0.0
 40
1.005360362401963
100
AcDbArc
 50
88.17925171068209
 51
90.00010533006358
  0
ARC
  5
BD24
330
209
100
AcDbEntity
  8
0
100
AcDbCircle
 10
963.4594656610893
 20
148.3733878423892
 30
0.0
 40
0.5539230403153156
100
AcDbArc
 50
280.7653954416411
 51
298.6277094749788
  0
ARC
  5
BD25
330
209
100
AcDbEntity
  8
0
100
AcDbCircle
 10
963.6658320809347
 20
147.9953202119599
 30
0.0
 40
0.1232001219347993
100
AcDbArc
 50
298.6277094749788
 51
323.7596497460397
  0
ARC
  5
BD26
330
209
100
AcDbEntity
  8
0
100
AcDbCircle
 10
963.7190100324197
 20
147.956342294337
 30
0.0
 40
0.0572670301950935
100
AcDbArc
 50
323.759649746041
 51
31.21953155351409
  0
ARC
  5
BD27
330
209
100
AcDbEntity
  8
0
100
AcDbCircle
 10
963.3231104975592
 20
146.986298900887
 30
0.0
 40
1.122686709641105
100
AcDbArc
 50
75.12921033602141
 51
85.4869884151034
  0
ARC
  5
BD28
330
209
100
AcDbEntity
  8
0
100
AcDbCircle
 10
963.2759505989682
 20
146.5321618305833
 30
0.0
 40
1.579166808045163
100
AcDbArc
 50
85.07773231796411
 51
90.02895534966336
  0
ARC
  5
BD29
330
209
100
AcDbEntity
  8
0
100
AcDbCircle
 10
963.2753836597801
 20
146.5391592204989
 30
0.0
 40
1.569127728785228
100
AcDbArc
 50
86.16975763806628
 51
90.008439148852
  0
ARC
  5
BD2A
330
209
100
AcDbEntity
  8
0
100
AcDbCircle
 10
963.2906212131112
 20
146.7667548882182
 30
0.0
 40
1.341022553490778
100
AcDbArc
 50
79.27943628939488
 51
86.16975763806628
  0
ARC
  5
BD2B
330
209
100
AcDbEntity
  8
0
100
AcDbCircle
 10
963.4020691891363
 20
147.3554184996802
 30
0.0
 40
0.7419019489214597
100
AcDbArc
 50
69.16415794970593
 51
79.27943628939488
  0
ARC
  5
BD2C
330
209
100
AcDbEntity
  8
0
100
AcDbCircle
 10
963.5673373050542
 20
147.7896713710321
 30
0.0
 40
0.277263265193445
100
AcDbArc
 50
53.48561954193158
 51
69.16415794970564
  0
ARC
  5
BD2D
330
209
100
AcDbEntity
  8
0
100
AcDbCircle
 10
963.6699386974013
 20
147.9282564367944
 30
0.0
 40
0.1048310577496916
100
AcDbArc
 50
27.37880833794812
 51
53.48561954193109
  0
ARC
  5
BD2E
330
209
100
AcDbEntity
  8
0
100
AcDbCircle
 10
963.7127972152789
 20
147.9562126607391
 30
0.0
 40
0.0541591576872695
100
AcDbArc
 50
321.1558344603811
 51
21.95916032703764
  0
ARC
  5
BD2F
330
209
100
AcDbEntity
  8
0
100
AcDbCircle
 10
963.5190043322038
 20
148.1840859394747
 30
0.0
 40
0.3524847597169859
100
AcDbArc
 50
277.7270244914269
 51
312.0255217484803
  0
ARC
  5
BD30
330
209
100
AcDbEntity
  8
0
100
AcDbCircle
 10
963.6435753093456
 20
147.8933853237767
 30
0.0
 40
0.1551116618932778
100
AcDbArc
 50
36.67277962767192
 51
62.17367719902199
  0
ARC
  5
BD31
330
209
100
AcDbEntity
  8
0
100
AcDbCircle
 10
963.4853877741662
 20
147.5936897852704
 30
0.0
 40
0.4939932224520187
100
AcDbArc
 50
62.17367719902199
 51
75.24070472334277
  0
ARC
  5
BD32
330
209
100
AcDbEntity
  8
0
100
AcDbCircle
 10
964.1730578827983
 20
148.3751824131704
 30
0.0
 40
0.0440764562726688
100
AcDbArc
 50
50.66951934717025
 51
83.15656200916675
  0
ARC
  5
BD33
330
209
100
AcDbEntity
  8
0
100
AcDbCircle
 10
964.1336329026023
 20
148.3483249760503
 30
0.0
 40
0.0908427235650117
100
AcDbArc
 50
13.12155602615904
 51
42.14024959915803
  0
ARC
  5
BD34
330
209
100
AcDbEntity
  8
0
100
AcDbCircle
 10
962.8349676879448
 20
148.0674021134815
 30
0.0
 40
1.419533863181195
100
AcDbArc
 50
1.80722467313684
 51
12.26455469756071
  0
ARC
  5
BD35
330
209
100
AcDbEntity
  8
0
100
AcDbCircle
 10
944.8149134978436
 20
147.2679718458949
 30
0.0
 40
19.45720437282743
100
AcDbArc
 50
1.15684961312504
 51
2.48669639535189
  0
ARC
  5
BD36
330
209
100
AcDbEntity
  8
0
100
AcDbCircle
 10
963.2870597819909
 20
147.0539704528473
 30
0.0
 40
1.002834408508707
100
AcDbArc
 50
77.58872450273905
 51
87.82298503258234
  0
ARC
  5
BD37
330
209
100
AcDbEntity
  8
0
100
AcDbCircle
 10
963.5072466893271
 20
147.8306080340818
 30
0.0
 40
0.1925937051114371
100
AcDbArc
 50
50.98433936628542
 51
69.9399750308224
  0
ARC
  5
BD38
330
209
100
AcDbEntity
  8
0
100
AcDbCircle
 10
963.5871273175782
 20
147.9291972838069
 30
0.0
 40
0.0657049548963248
100
AcDbArc
 50
24.73065437612096
 51
50.98433936628644
  0
ARC
  5
BD39
330
209
100
AcDbEntity
  8
0
100
AcDbCircle
 10
963.5313137249751
 20
148.0050543394646
 30
0.0
 40
0.140079856535719
100
AcDbArc
 50
289.2638143262173
 51
325.5353320148313
  0
LINE
  5
BD3A
330
209
100
AcDbEntity
  8
0
100
AcDbLine
 10
963.5856382797141
 20
147.9257834395106
 30
0.0
 11
963.6468061083929
 21
147.9257834395106
 31
0.0
  0
LINE
  5
BD3B
330
209
100
AcDbEntity
  8
0
100
AcDbLine
 10
963.5836284566929
 20
147.9566851543106
 30
0.0
 11
963.6468061083929
 21
147.9566851543106
 31
0.0
  0
LINE
  5
BD3C
330
209
100
AcDbEntity
  8
0
100
AcDbLine
 10
963.5282419929461
 20
147.997591894324
 30
0.0
 11
963.5733071792763
 21
148.0115178097055
 31
0.0
  0
LINE
  5
BD3D
330
209
100
AcDbEntity
  8
0
100
AcDbLine
 10
963.4579231552807
 20
148.0195637919378
 30
0.0
 11
963.5025965011928
 21
148.0333686219106
 31
0.0
  0
LINE
  5
BD3E
330
209
100
AcDbEntity
  8
0
100
AcDbLine
 10
963.3251543896928
 20
148.0366360457403
 30
0.0
 11
963.3251543896928
 21
148.0560810514107
 31
0.0
  0
LINE
  5
BD3F
330
209
100
AcDbEntity
  8
0
100
AcDbLine
 10
963.5836284566929
 20
148.0042379777106
 30
0.0
 11
963.5836284566929
 21
147.9566851543106
 31
0.0
  0
LINE
  5
BD40
330
209
100
AcDbEntity
  8
0
100
AcDbLine
 10
963.4579231551928
 20
148.0195637919564
 30
0.0
 11
963.4579231551928
 21
148.042141773311
 31
0.0
  0
ARC
  5
BD41
330
209
100
AcDbEntity
  8
0
100
AcDbCircle
 10
963.2751622018627
 20
146.8231406682427
 30
0.0
 40
1.237373634746665
100
AcDbArc
 50
86.40389766036623
 51
90.0004473171708
  0
ARC
  5
BD42
330
209
100
AcDbEntity
  8
0
100
AcDbCircle
 10
963.283124746189
 20
146.9498392216408
 30
0.0
 40
1.110425119413346
100
AcDbArc
 50
80.93918201631771
 51
86.40389766036623
  0
ARC
  5
BD43
330
209
100
AcDbEntity
  8
0
100
AcDbCircle
 10
963.3522265228481
 20
147.3831532973937
 30
0.0
 40
0.6716357123135609
100
AcDbArc
 50
74.03327879069095
 51
80.93918201631771
  0
ARC
  5
BD44
330
209
100
AcDbEntity
  8
0
100
AcDbCircle
 10
963.4193212523776
 20
147.6176543962923
 30
0.0
 40
0.4277249333076596
100
AcDbArc
 50
63.35590682843855
 51
74.03327879069095
  0
ARC
  5
BD45
330
209
100
AcDbEntity
  8
0
100
AcDbCircle
 10
963.552940080472
 20
147.8839729232261
 30
0.0
 40
0.1297659612837534
100
AcDbArc
 50
42.12812599969974
 51
63.35590682843855
  0
ARC
  5
BD46
330
209
100
AcDbEntity
  8
0
100
AcDbCircle
 10
963.6160391899437
 20
147.9410436325271
 30
0.0
 40
0.0446862135394641
100
AcDbArc
 50
340.5254369590508
 51
42.12812599969974
  0
ARC
  5
BD47
330
209
100
AcDbEntity
  8
0
100
AcDbCircle
 10
963.5406824270599
 20
148.0045678956885
 30
0.0
 40
0.1412554354346345
100
AcDbArc
 50
284.8110575311823
 51
326.2769191764887
  0
ARC
  5
BD48
330
209
100
AcDbEntity
  8
0
100
AcDbCircle
 10
963.2756043475806
 20
146.6901614500307
 30
0.0
 40
1.402918017937459
100
AcDbArc
 50
85.74807595318835
 51
90.01845195664079
  0
ARC
  5
BD49
330
209
100
AcDbEntity
  8
0
100
AcDbCircle
 10
963.2886108942658
 20
146.8651061834953
 30
0.0
 40
1.227490454471274
100
AcDbArc
 50
81.43606807009723
 51
85.74807595318835
  0
ARC
  5
BD4A
330
209
100
AcDbEntity
  8
0
100
AcDbCircle
 10
963.3439439769457
 20
147.2325434026488
 30
0.0
 40
0.855910234252186
100
AcDbArc
 50
72.60887085234037
 51
81.43606807009723
  0
ARC
  5
BD4B
330
209
100
AcDbEntity
  8
0
100
AcDbCircle
 10
963.5012826277989
 20
147.7348841891017
 30
0.0
 40
0.3295057160473083
100
AcDbArc
 50
56.5642660179856
 51
72.60887085234037
  0
ARC
  5
BD4C
330
209
100
AcDbEntity
  8
0
100
AcDbCircle
 10
963.6319738031126
 20
147.9328190337596
 30
0.0
 40
0.0923172128802999
100
AcDbArc
 50
27.41589049640094
 51
56.5642660179856
  0
ARC
  5
BD4D
330
209
100
AcDbEntity
  8
0
100
AcDbCircle
 10
963.6636821464993
 20
147.955301515813
 30
0.0
 40
0.0540841388690653
100
AcDbArc
 50
325.024795522193
 51
21.73098662324316
  0
ARC
  5
BD4E
330
209
100
AcDbEntity
  8
0
100
AcDbCircle
 10
963.5231679473166
 20
148.1231048478645
 30
0.0
 40
0.2714517480795343
100
AcDbArc
 50
281.0195785198506
 51
312.9137983536654
  0
ARC
  5
BD4F
330
209
100
AcDbEntity
  8
0
100
AcDbCircle
 10
963.6695248021364
 20
147.9811152359849
 30
0.0
 40
0.0686169875089141
100
AcDbArc
 50
304.1045773818078
 51
29.2525160643811
  0
ARC
  5
BD50
330
209
100
AcDbEntity
  8
0
100
AcDbCircle
 10
963.2848666472163
 20
146.9547096636942
 30
0.0
 40
1.128070433227911
100
AcDbArc
 50
80.26567218664002
 51
90.49339484686358
  0
ARC
  5
BD51
330
209
100
AcDbEntity
  8
0
100
AcDbCircle
 10
963.354941548212
 20
147.3631909776776
 30
0.0
 40
0.7136220339993247
100
AcDbArc
 50
70.39808673163418
 51
80.26567218664002
  0
ARC
  5
BD52
330
209
100
AcDbEntity
  8
0
100
AcDbCircle
 10
963.5155676785336
 20
147.8142338960909
 30
0.0
 40
0.2348314033549939
100
AcDbArc
 50
51.85294746099391
 51
70.39808673163418
  0
ARC
  5
BD53
330
209
100
AcDbEntity
  8
0
100
AcDbCircle
 10
963.6173790068456
 20
147.9438593242266
 30
0.0
 40
0.070003316573582
100
AcDbArc
 50
23.64870863500043
 51
51.85294746099391
  0
ARC
  5
BD54
330
209
100
AcDbEntity
  8
0
100
AcDbCircle
 10
963.6426774974729
 20
147.9549375845129
 30
0.0
 40
0.042385541880546
100
AcDbArc
 50
309.8656715205462
 51
23.64870863500043
  0
ARC
  5
BD55
330
209
100
AcDbEntity
  8
0
100
AcDbCircle
 10
963.5694567904703
 20
148.0185026287597
 30
0.0
 40
0.1389707405037738
100
AcDbArc
 50
293.3765443206311
 51
316.2511658415174
  0
ARC
  5
BD56
330
209
100
AcDbEntity
  8
0
100
AcDbCircle
 10
964.6504640371388
 20
147.2221994238773
 30
0.0
 40
1.128755464829749
100
AcDbArc
 50
136.9009983944706
 51
141.6603333692417
  0
ARC
  5
BD57
330
209
100
AcDbEntity
  8
0
100
AcDbCircle
 10
962.7785779964623
 20
148.8749971149095
 30
0.0
 40
1.369242265643722
100
AcDbArc
 50
319.9217827907204
 51
340.5448372302121
  0
ARC
  5
BD58
330
209
100
AcDbEntity
  8
0
100
AcDbCircle
 10
964.2366519480415
 20
148.5896531829106
 30
0.0
 40
0.0315
100
AcDbArc
 50
359.9999999999968
 51
90.0
  0
LINE
  5
BD59
330
209
100
AcDbEntity
  8
0
100
AcDbLine
 10
964.2388387567207
 20
148.6674008508774
 30
0.0
 11
964.2395074987929
 21
148.6290271987106
 31
0.0
  0
ARC
  5
BD5A
330
209
100
AcDbEntity
  8
0
100
AcDbCircle
 10
964.3881979209121
 20
149.8456151016212
 30
0.0
 40
1.138425774688166
100
AcDbArc
 50
250.7204518305632
 51
259.9756091755667
  0
ARC
  5
BD5B
330
209
100
AcDbEntity
  8
0
100
AcDbCircle
 10
964.1915873469818
 20
149.2835403335997
 30
0.0
 40
0.5429564113893163
100
AcDbArc
 50
229.2873759414812
 51
250.7204518305632
  0
ARC
  5
BD5C
330
209
100
AcDbEntity
  8
0
100
AcDbCircle
 10
964.0594362886938
 20
149.1106643344294
 30
0.0
 40
0.3259637523085858
100
AcDbArc
 50
199.3191156296597
 51
227.0735255855372
  0
ARC
  5
BD5D
330
209
100
AcDbEntity
  8
0
100
AcDbCircle
 10
964.5211595569186
 20
149.2302126759341
 30
0.0
 40
0.8022323539801273
100
AcDbArc
 50
185.5059062042946
 51
196.4657675409829
  0
ARC
  5
BD5E
330
209
100
AcDbEntity
  8
0
100
AcDbCircle
 10
964.1797477291406
 20
148.666371064709
 30
0.0
 40
0.0591
100
AcDbArc
 50
0.9983991083354904
 51
79.9756091755734
  0
LINE
  5
BD5F
330
209
100
AcDbEntity
  8
0
100
AcDbLine
 10
964.2002597578468
 20
148.6211531829106
 30
0.0
 11
964.2002597578468
 21
148.6290271987106
 31
0.0
  0
LINE
  5
BD60
330
209
100
AcDbEntity
  8
0
100
AcDbLine
 10
963.8137682886927
 20
149.1532397971107
 30
0.0
 11
963.7979109368089
 21
150.0619049743687
 31
0.0
  0
ARC
  5
BD61
330
209
100
AcDbEntity
  8
0
100
AcDbCircle
 10
963.2881947007167
 20
146.8654810338334
 30
0.0
 40
1.200980541990508
100
AcDbArc
 50
90.62222104473121
 51
95.58507116881463
  0
ARC
  5
BD62
330
209
100
AcDbEntity
  8
0
100
AcDbCircle
 10
963.2695612817983
 20
147.0560305562187
 30
0.0
 40
1.009522126709674
100
AcDbArc
 50
95.58507116881463
 51
102.1598176098106
  0
ARC
  5
BD63
330
209
100
AcDbEntity
  8
0
100
AcDbCircle
 10
963.142453622939
 20
147.6250897239629
 30
0.0
 40
0.4264791777524762
100
AcDbArc
 50
101.5700756099706
 51
118.6610744279464
  0
ARC
  5
BD64
330
209
100
AcDbEntity
  8
0
100
AcDbCircle
 10
962.9194728781222
 20
147.9503666473723
 30
0.0
 40
0.0302137092511301
100
AcDbArc
 50
159.3912173850783
 51
190.3424968211062
  0
ARC
  5
BD65
330
209
100
AcDbEntity
  8
0
100
AcDbCircle
 10
962.9606686490124
 20
147.9348749677995
 30
0.0
 40
0.0742260220195726
100
AcDbArc
 50
123.3820164960894
 51
159.3912173850775
  0
ARC
  5
BD66
330
209
100
AcDbEntity
  8
0
100
AcDbCircle
 10
963.1142448665951
 20
147.7018052615271
 30
0.0
 40
0.3533445319556291
100
AcDbArc
 50
104.0985657815068
 51
123.3820164960894
  0
ARC
  5
BD67
330
209
100
AcDbEntity
  8
0
100
AcDbCircle
 10
963.2862456985618
 20
147.016968693242
 30
0.0
 40
1.059450339506978
100
AcDbArc
 50
96.1756731677017
 51
104.0985657815068
  0
ARC
  5
BD68
330
209
100
AcDbEntity
  8
0
100
AcDbCircle
 10
963.2789059267141
 20
147.0848006691484
 30
0.0
 40
0.9912224184910925
100
AcDbArc
 50
90.21695801262957
 51
96.1756731677017
  0
ARC
  5
BD69
330
209
100
AcDbEntity
  8
0
100
AcDbCircle
 10
963.280823177587
 20
146.57848215652
 30
0.0
 40
1.497544561085276
100
AcDbArc
 50
84.15525612296512
 51
90.21695801262957
  0
ARC
  5
BD6A
330
209
100
AcDbEntity
  8
0
100
AcDbCircle
 10
963.3698151139389
 20
147.4478382580258
 30
0.0
 40
0.6236454845546257
100
AcDbArc
 50
70.2845025832909
 51
84.15525612296512
  0
ARC
  5
BD6B
330
209
100
AcDbEntity
  8
0
100
AcDbCircle
 10
963.5092688732022
 20
147.8369858119345
 30
0.0
 40
0.2102653088256551
100
AcDbArc
 50
48.3874722280404
 51
70.2845025832909
  0
ARC
  5
BD6C
330
209
100
AcDbEntity
  8
0
100
AcDbCircle
 10
963.6298100956095
 20
147.9726948804263
 30
0.0
 40
0.0287518449438217
100
AcDbArc
 50
17.30375527354524
 51
48.3874722280404
  0
ARC
  5
BD6D
330
209
100
AcDbEntity
  8
0
100
AcDbCircle
 10
963.516252734972
 20
148.055743206084
 30
0.0
 40
0.1968658715718374
100
AcDbArc
 50
305.0569474258784
 51
316.112802778277
  0
ARC
  5
BD6E
330
209
100
AcDbEntity
  8
0
100
AcDbCircle
 10
963.6244030558801
 20
147.9517143625149
 30
0.0
 40
0.046804243542504
100
AcDbArc
 50
316.112802778277
 51
9.785757061228171
  0
ARC
  5
BD6F
330
209
100
AcDbEntity
  8
0
100
AcDbCircle
 10
963.5842862789425
 20
147.9215159732806
 30
0.0
 40
0.0943028530083495
100
AcDbArc
 50
23.865077844194
 51
66.90000646423489
  0
ARC
  5
BD70
330
209
100
AcDbEntity
  8
0
100
AcDbCircle
 10
963.3751656349692
 20
147.4601347840525
 30
0.0
 40
0.6008439392951313
100
AcDbArc
 50
65.81888248026934
 51
84.81902749102275
  0
ARC
  5
BD71
330
209
100
AcDbEntity
  8
0
100
AcDbCircle
 10
963.2836383620283
 20
146.7734291999242
 30
0.0
 40
1.293337403722531
100
AcDbArc
 50
83.52788230177182
 51
88.89001075506207
  0
ARC
  5
BD72
330
209
100
AcDbEntity
  8
0
100
AcDbCircle
 10
963.3655341165679
 20
129.5241411251473
 30
0.0
 40
18.5424699071199
100
AcDbArc
 50
90.17563924339325
 51
90.27927796724988
  0
LINE
  5
BD73
330
209
100
AcDbEntity
  8
0
100
AcDbLine
 10
963.0636779072871
 20
147.8832341676266
 30
0.0
 11
963.0703084622311
 21
147.8722759005137
 31
0.0
  0
LINE
  5
BD74
330
209
100
AcDbEntity
  8
0
100
AcDbLine
 10
963.0703084622311
 20
147.8722759005137
 30
0.0
 11
963.0899929242026
 21
147.8615891936003
 31
0.0
  0
LINE
  5
BD75
330
209
100
AcDbEntity
  8
0
100
AcDbLine
 10
963.0899929242026
 20
147.8615891936003
 30
0.0
 11
963.0996506932627
 21
147.8669510164469
 31
0.0
  0
LINE
  5
BD76
330
209
100
AcDbEntity
  8
0
100
AcDbLine
 10
963.0996506932627
 20
147.8669510164469
 30
0.0
 11
963.0996506932334
 21
147.8673534384322
 31
0.0
  0
LINE
  5
BD77
330
209
100
AcDbEntity
  8
0
100
AcDbLine
 10
963.0996506932334
 20
147.8673534384322
 30
0.0
 11
963.1093084623421
 21
147.8737702566245
 31
0.0
  0
LINE
  5
BD78
330
209
100
AcDbEntity
  8
0
100
AcDbLine
 10
963.1093084623421
 20
147.8737702566245
 30
0.0
 11
963.1289929243147
 21
147.8654231346447
 31
0.0
  0
LINE
  5
BD79
330
209
100
AcDbEntity
  8
0
100
AcDbLine
 10
963.1289929243147
 20
147.8654231346447
 30
0.0
 11
963.1386506932928
 21
147.8510708391063
 31
0.0
  0
LINE
  5
BD7A
330
209
100
AcDbEntity
  8
0
100
AcDbLine
 10
963.1386506932928
 20
147.8510708391063
 30
0.0
 11
963.1386506932928
 21
147.8506780536632
 31
0.0
  0
LINE
  5
BD7B
330
209
100
AcDbEntity
  8
0
100
AcDbLine
 10
963.1386506932928
 20
147.8506780536632
 30
0.0
 11
963.1483084622928
 21
147.8375466098106
 31
0.0
  0
LINE
  5
BD7C
330
209
100
AcDbEntity
  8
0
100
AcDbLine
 10
963.1483084622928
 20
147.8375466098106
 30
0.0
 11
963.1679929242961
 21
147.8317144569202
 31
0.0
  0
LINE
  5
BD7D
330
209
100
AcDbEntity
  8
0
100
AcDbLine
 10
963.1679929242961
 20
147.8317144569202
 30
0.0
 11
963.1776506932444
 21
147.8389583897186
 31
0.0
  0
LINE
  5
BD7E
330
209
100
AcDbEntity
  8
0
100
AcDbLine
 10
963.1776506932444
 20
147.8389583897186
 30
0.0
 11
963.1776506932929
 21
147.8393447778575
 31
0.0
  0
LINE
  5
BD7F
330
209
100
AcDbEntity
  8
0
100
AcDbLine
 10
963.1776506932929
 20
147.8393447778575
 30
0.0
 11
963.1873084622927
 21
147.8475790293519
 31
0.0
  0
LINE
  5
BD80
330
209
100
AcDbEntity
  8
0
100
AcDbLine
 10
963.1873084622927
 20
147.8475790293519
 30
0.0
 11
963.2069929242559
 21
147.8436858468858
 31
0.0
  0
LINE
  5
BD81
330
209
100
AcDbEntity
  8
0
100
AcDbLine
 10
963.2069929242559
 20
147.8436858468858
 30
0.0
 11
963.2166506932929
 21
147.8317363740642
 31
0.0
  0
LINE
  5
BD82
330
209
100
AcDbEntity
  8
0
100
AcDbLine
 10
963.2166506932929
 20
147.8317363740642
 30
0.0
 11
963.2166506932632
 21
147.8313539173598
 31
0.0
  0
LINE
  5
BD83
330
209
100
AcDbEntity
  8
0
100
AcDbLine
 10
963.2166506932632
 20
147.8313539173598
 30
0.0
 11
963.2069929242929
 21
147.8232274337288
 31
0.0
  0
LINE
  5
BD84
330
209
100
AcDbEntity
  8
0
100
AcDbLine
 10
963.2069929242929
 20
147.8232274337288
 30
0.0
 11
963.1874542038808
 21
147.8269829906858
 31
0.0
  0
LINE
  5
BD85
330
209
100
AcDbEntity
  8
0
100
AcDbLine
 10
963.1874542038808
 20
147.8269829906858
 30
0.0
 11
963.1776506932929
 21
147.8389583897107
 31
0.0
  0
LINE
  5
BD86
330
209
100
AcDbEntity
  8
0
100
AcDbLine
 10
963.2166506932929
 20
147.8313539173107
 30
0.0
 11
963.226308462363
 21
147.820464887186
 31
0.0
  0
LINE
  5
BD87
330
209
100
AcDbEntity
  8
0
100
AcDbLine
 10
963.226308462363
 20
147.820464887186
 30
0.0
 11
963.2459929242928
 21
147.8185996788107
 31
0.0
  0
LINE
  5
BD88
330
209
100
AcDbEntity
  8
0
100
AcDbLine
 10
963.2459929242928
 20
147.8185996788107
 30
0.0
 11
963.2556506932928
 21
147.827610385348
 31
0.0
  0
LINE
  5
BD89
330
209
100
AcDbEntity
  8
0
100
AcDbLine
 10
963.2556506932928
 20
147.827610385348
 30
0.0
 11
963.2556506932751
 21
147.8279909661394
 31
0.0
  0
LINE
  5
BD8A
330
209
100
AcDbEntity
  8
0
100
AcDbLine
 10
963.2556506932751
 20
147.8279909661394
 30
0.0
 11
963.2653084622928
 21
147.8379954770059
 31
0.0
  0
LINE
  5
BD8B
330
209
100
AcDbEntity
  8
0
100
AcDbLine
 10
963.2653084609797
 20
147.8176879551631
 30
0.0
 11
963.2556506932928
 21
147.827610385348
 31
0.0
  0
LINE
  5
BD8C
330
209
100
AcDbEntity
  8
0
100
AcDbLine
 10
963.2556506932751
 20
147.8279909661394
 30
0.0
 11
963.2459929242425
 21
147.8389317160797
 31
0.0
  0
LINE
  5
BD8D
330
209
100
AcDbEntity
  8
0
100
AcDbLine
 10
963.2459929242425
 20
147.8389317160797
 30
0.0
 11
963.2263084622929
 21
147.8408474654106
 31
0.0
  0
LINE
  5
BD8E
330
209
100
AcDbEntity
  8
0
100
AcDbLine
 10
963.2263084622929
 20
147.8408474654106
 30
0.0
 11
963.2166506932929
 21
147.8317363740642
 31
0.0
  0
LINE
  5
BD8F
330
209
100
AcDbEntity
  8
0
100
AcDbLine
 10
963.1776506932929
 20
147.8393447777765
 30
0.0
 11
963.1679929242928
 21
147.8524134405892
 31
0.0
  0
LINE
  5
BD90
330
209
100
AcDbEntity
  8
0
100
AcDbLine
 10
963.1679929242928
 20
147.8524134405892
 30
0.0
 11
963.1483084623567
 21
147.8584178899033
 31
0.0
  0
LINE
  5
BD91
330
209
100
AcDbEntity
  8
0
100
AcDbLine
 10
963.1483084623567
 20
147.8584178899033
 30
0.0
 11
963.1386506932928
 21
147.8510708390107
 31
0.0
  0
LINE
  5
BD92
330
209
100
AcDbEntity
  8
0
100
AcDbLine
 10
963.1386506932928
 20
147.8506780536632
 30
0.0
 11
963.1289929241788
 21
147.84434342228
 31
0.0
  0
LINE
  5
BD93
330
209
100
AcDbEntity
  8
0
100
AcDbLine
 10
963.1289929241788
 20
147.84434342228
 30
0.0
 11
963.109308462279
 21
147.8524311181428
 31
0.0
  0
LINE
  5
BD94
330
209
100
AcDbEntity
  8
0
100
AcDbLine
 10
963.109308462279
 20
147.8524311181428
 30
0.0
 11
963.0996506932627
 21
147.8669510164469
 31
0.0
  0
LINE
  5
BD95
330
209
100
AcDbEntity
  8
0
100
AcDbLine
 10
963.0996506932602
 20
147.8673534384486
 30
0.0
 11
963.0899929243039
 21
147.8832382220845
 31
0.0
  0
LINE
  5
BD96
330
209
100
AcDbEntity
  8
0
100
AcDbLine
 10
963.0899929243039
 20
147.8832382220845
 30
0.0
 11
963.0791437580937
 21
147.8891537227883
 31
0.0
  0
LINE
  5
BD97
330
209
100
AcDbEntity
  8
0
100
AcDbLine
 10
963.0997591316244
 20
147.8922147752725
 30
0.0
 11
963.0997591315955
 21
147.8926171972577
 31
0.0
  0
LINE
  5
BD98
330
209
100
AcDbEntity
  8
0
100
AcDbLine
 10
963.0997591315955
 20
147.8926171972577
 30
0.0
 11
963.1081105558113
 21
147.898166053338
 31
0.0
  0
LINE
  5
BD99
330
209
100
AcDbEntity
  8
0
100
AcDbLine
 10
963.1150992641583
 20
147.8999539494698
 30
0.0
 11
963.1289929242928
 21
147.8939539490106
 31
0.0
  0
LINE
  5
BD9A
330
209
100
AcDbEntity
  8
0
100
AcDbLine
 10
963.1289929242928
 20
147.8939539490106
 30
0.0
 11
963.1387591316547
 21
147.8763345979318
 31
0.0
  0
LINE
  5
BD9B
330
209
100
AcDbEntity
  8
0
100
AcDbLine
 10
963.1387591316547
 20
147.8763345979318
 30
0.0
 11
963.1387591316547
 21
147.8759418124888
 31
0.0
  0
LINE
  5
BD9C
330
209
100
AcDbEntity
  8
0
100
AcDbLine
 10
963.1387591316547
 20
147.8759418124888
 30
0.0
 11
963.1483084623649
 21
147.8616992920795
 31
0.0
  0
LINE
  5
BD9D
330
209
100
AcDbEntity
  8
0
100
AcDbLine
 10
963.1483084623649
 20
147.8616992920795
 30
0.0
 11
963.1681013626581
 21
147.8556643967106
 31
0.0
  0
LINE
  5
BD9E
330
209
100
AcDbEntity
  8
0
100
AcDbLine
 10
963.1681013626581
 20
147.8556643967106
 30
0.0
 11
963.1777591316064
 21
147.8642221485441
 31
0.0
  0
LINE
  5
BD9F
330
209
100
AcDbEntity
  8
0
100
AcDbLine
 10
963.1777591316064
 20
147.8642221485441
 30
0.0
 11
963.1777591316547
 21
147.864608536683
 31
0.0
  0
LINE
  5
BDA0
330
209
100
AcDbEntity
  8
0
100
AcDbLine
 10
963.1777591316547
 20
147.864608536683
 30
0.0
 11
963.1873084622927
 21
147.8752417240755
 31
0.0
  0
LINE
  5
BDA1
330
209
100
AcDbEntity
  8
0
100
AcDbLine
 10
963.1873084622927
 20
147.8752417240755
 30
0.0
 11
963.2069929242929
 21
147.8711714244107
 31
0.0
  0
LINE
  5
BDA2
330
209
100
AcDbEntity
  8
0
100
AcDbLine
 10
963.2069929242929
 20
147.8711714244107
 30
0.0
 11
963.2167591316546
 21
147.8570001328897
 31
0.0
  0
LINE
  5
BDA3
330
209
100
AcDbEntity
  8
0
100
AcDbLine
 10
963.2167591316546
 20
147.8570001328897
 30
0.0
 11
963.2167591316253
 21
147.8566176761853
 31
0.0
  0
LINE
  5
BDA4
330
209
100
AcDbEntity
  8
0
100
AcDbLine
 10
963.2167591316253
 20
147.8566176761853
 30
0.0
 11
963.2069929242929
 21
147.8468943800831
 31
0.0
  0
LINE
  5
BDA5
330
209
100
AcDbEntity
  8
0
100
AcDbLine
 10
963.2069929242929
 20
147.8468943800831
 30
0.0
 11
963.1873084622927
 21
147.8508062267049
 31
0.0
  0
LINE
  5
BDA6
330
209
100
AcDbEntity
  8
0
100
AcDbLine
 10
963.1873084622927
 20
147.8508062267049
 30
0.0
 11
963.1777591316547
 21
147.8642221485362
 31
0.0
  0
LINE
  5
BDA7
330
209
100
AcDbEntity
  8
0
100
AcDbLine
 10
963.2167591316546
 20
147.8566176761362
 30
0.0
 11
963.2263084622929
 21
147.8440426463977
 31
0.0
  0
LINE
  5
BDA8
330
209
100
AcDbEntity
  8
0
100
AcDbLine
 10
963.2263084622929
 20
147.8440426463977
 30
0.0
 11
963.2459741326973
 21
147.842119373995
 31
0.0
  0
LINE
  5
BDA9
330
209
100
AcDbEntity
  8
0
100
AcDbLine
 10
963.2459741326973
 20
147.842119373995
 30
0.0
 11
963.2557591316547
 21
147.8528741441736
 31
0.0
  0
LINE
  5
BDAA
330
209
100
AcDbEntity
  8
0
100
AcDbLine
 10
963.2557591316547
 20
147.8528741441736
 30
0.0
 11
963.255759131637
 21
147.853254724965
 31
0.0
  0
LINE
  5
BDAB
330
209
100
AcDbEntity
  8
0
100
AcDbLine
 10
963.255759131637
 20
147.853254724965
 30
0.0
 11
963.2653084622928
 21
147.8652294422256
 31
0.0
  0
LINE
  5
BDAC
330
209
100
AcDbEntity
  8
0
100
AcDbLine
 10
963.265416900729
 20
147.8411774527265
 30
0.0
 11
963.2557591316547
 21
147.8528741441736
 31
0.0
  0
LINE
  5
BDAD
330
209
100
AcDbEntity
  8
0
100
AcDbLine
 10
963.255759131637
 20
147.853254724965
 30
0.0
 11
963.2459929243113
 21
147.8662065014941
 31
0.0
  0
LINE
  5
BDAE
330
209
100
AcDbEntity
  8
0
100
AcDbLine
 10
963.2459929243113
 20
147.8662065014941
 30
0.0
 11
963.2263084622929
 21
147.8682064808026
 31
0.0
  0
LINE
  5
BDAF
330
209
100
AcDbEntity
  8
0
100
AcDbLine
 10
963.2263084622929
 20
147.8682064808026
 30
0.0
 11
963.2167591316546
 21
147.8570001328897
 31
0.0
  0
LINE
  5
BDB0
330
209
100
AcDbEntity
  8
0
100
AcDbLine
 10
963.1777591316547
 20
147.8646085366021
 30
0.0
 11
963.1679929242928
 21
147.8803019493106
 31
0.0
  0
LINE
  5
BDB1
330
209
100
AcDbEntity
  8
0
100
AcDbLine
 10
963.1679929242928
 20
147.8803019493106
 30
0.0
 11
963.1483084622928
 21
147.8865963544708
 31
0.0
  0
LINE
  5
BDB2
330
209
100
AcDbEntity
  8
0
100
AcDbLine
 10
963.1483084622928
 20
147.8865963544708
 30
0.0
 11
963.1387591316547
 21
147.8763345978362
 31
0.0
  0
LINE
  5
BDB3
330
209
100
AcDbEntity
  8
0
100
AcDbLine
 10
963.1387591316547
 20
147.8759418124888
 30
0.0
 11
963.1289946694996
 21
147.8689935553698
 31
0.0
  0
LINE
  5
BDB4
330
209
100
AcDbEntity
  8
0
100
AcDbLine
 10
963.1289946694996
 20
147.8689935553698
 30
0.0
 11
963.1094169006409
 21
147.877084820673
 31
0.0
  0
LINE
  5
BDB5
330
209
100
AcDbEntity
  8
0
100
AcDbLine
 10
963.1094169006409
 20
147.877084820673
 30
0.0
 11
963.0997591316244
 21
147.8922147752725
 31
0.0
  0
LINE
  5
BDB6
330
209
100
AcDbEntity
  8
0
100
AcDbLine
 10
963.1393453372059
 20
147.905087447466
 30
0.0
 11
963.1483084622928
 21
147.8904964196087
 31
0.0
  0
LINE
  5
BDB7
330
209
100
AcDbEntity
  8
0
100
AcDbLine
 10
963.1483084622928
 20
147.8904964196087
 30
0.0
 11
963.1679929242928
 21
147.8841567771316
 31
0.0
  0
LINE
  5
BDB8
330
209
100
AcDbEntity
  8
0
100
AcDbLine
 10
963.1679929242928
 20
147.8841567771316
 30
0.0
 11
963.1777799129947
 21
147.8942882347737
 31
0.0
  0
LINE
  5
BDB9
330
209
100
AcDbEntity
  8
0
100
AcDbLine
 10
963.1777799129947
 20
147.8942882347737
 30
0.0
 11
963.177779913043
 21
147.8946746229127
 31
0.0
  0
LINE
  5
BDBA
330
209
100
AcDbEntity
  8
0
100
AcDbLine
 10
963.177779913043
 20
147.8946746229127
 30
0.0
 11
963.1873084622927
 21
147.9079490325798
 31
0.0
  0
LINE
  5
BDBB
330
209
100
AcDbEntity
  8
0
100
AcDbLine
 10
963.1873084622927
 20
147.9079490325798
 30
0.0
 11
963.2071221440062
 21
147.9036182026107
 31
0.0
  0
LINE
  5
BDBC
330
209
100
AcDbEntity
  8
0
100
AcDbLine
 10
963.2071221440062
 20
147.9036182026107
 30
0.0
 11
963.216779913043
 21
147.8870662191194
 31
0.0
  0
LINE
  5
BDBD
330
209
100
AcDbEntity
  8
0
100
AcDbLine
 10
963.216779913043
 20
147.8870662191194
 30
0.0
 11
963.2167799130135
 21
147.886683762415
 31
0.0
  0
LINE
  5
BDBE
330
209
100
AcDbEntity
  8
0
100
AcDbLine
 10
963.2167799130135
 20
147.886683762415
 30
0.0
 11
963.2064841989116
 21
147.8750559451335
 31
0.0
  0
LINE
  5
BDBF
330
209
100
AcDbEntity
  8
0
100
AcDbLine
 10
963.2064841989116
 20
147.8750559451335
 30
0.0
 11
963.1873084622927
 21
147.8790614150013
 31
0.0
  0
LINE
  5
BDC0
330
209
100
AcDbEntity
  8
0
100
AcDbLine
 10
963.1873084622927
 20
147.8790614150013
 30
0.0
 11
963.177779913043
 21
147.8942882347658
 31
0.0
  0
LINE
  5
BDC1
330
209
100
AcDbEntity
  8
0
100
AcDbLine
 10
963.216779913043
 20
147.8866837623658
 30
0.0
 11
963.2263084622831
 21
147.8719790443582
 31
0.0
  0
LINE
  5
BDC2
330
209
100
AcDbEntity
  8
0
100
AcDbLine
 10
963.2263084622831
 20
147.8719790443582
 30
0.0
 11
963.2459929243498
 21
147.8699660187472
 31
0.0
  0
LINE
  5
BDC3
330
209
100
AcDbEntity
  8
0
100
AcDbLine
 10
963.2459929243498
 20
147.8699660187472
 30
0.0
 11
963.2557799130431
 21
147.8829402304032
 31
0.0
  0
LINE
  5
BDC4
330
209
100
AcDbEntity
  8
0
100
AcDbLine
 10
963.2557799130431
 20
147.8829402304032
 30
0.0
 11
963.2557799130253
 21
147.8833208111946
 31
0.0
  0
LINE
  5
BDC5
330
209
100
AcDbEntity
  8
0
100
AcDbLine
 10
963.2557799130253
 20
147.8833208111946
 30
0.0
 11
963.2653084623269
 21
147.8973078279945
 31
0.0
  0
LINE
  5
BDC6
330
209
100
AcDbEntity
  8
0
100
AcDbLine
 10
963.2653084488223
 20
147.8689821091458
 30
0.0
 11
963.2557799130431
 21
147.8829402304032
 31
0.0
  0
LINE
  5
BDC7
330
209
100
AcDbEntity
  8
0
100
AcDbLine
 10
963.2557799130253
 20
147.8833208111946
 30
0.0
 11
963.2459223013857
 21
147.8983502013825
 31
0.0
  0
LINE
  5
BDC8
330
209
100
AcDbEntity
  8
0
100
AcDbLine
 10
963.2459223013857
 20
147.8983502013825
 30
0.0
 11
963.2263084622929
 21
147.9004677070107
 31
0.0
  0
LINE
  5
BDC9
330
209
100
AcDbEntity
  8
0
100
AcDbLine
 10
963.2263084622929
 20
147.9004677070107
 30
0.0
 11
963.216779913043
 21
147.8870662191194
 31
0.0
  0
LINE
  5
BDCA
330
209
100
AcDbEntity
  8
0
100
AcDbLine
 10
963.177779913043
 20
147.8946746228317
 30
0.0
 11
963.168122144043
 21
147.9077432856444
 31
0.0
  0
LINE
  5
BDCB
330
209
100
AcDbEntity
  8
0
100
AcDbLine
 10
963.168122144043
 20
147.9077432856444
 30
0.0
 11
963.1635667149659
 21
147.9091328508297
 31
0.0
  0
ARC
  5
BDCC
330
209
100
AcDbEntity
  8
0
100
AcDbCircle
 10
963.2745650850923
 20
148.2212293677914
 30
0.0
 40
0.4133790135683793
100
AcDbArc
 50
239.5982397000415
 51
244.6688350386327
  0
ARC
  5
BDCD
330
209
100
AcDbEntity
  8
0
100
AcDbCircle
 10
963.2745650850923
 20
148.2212293677914
 30
0.0
 40
0.4133790135683793
100
AcDbArc
 50
245.2567611464566
 51
250.5144816139809
  0
ARC
  5
BDCE
330
209
100
AcDbEntity
  8
0
100
AcDbCircle
 10
963.2745650850923
 20
148.2212293677914
 30
0.0
 40
0.4133790135683793
100
AcDbArc
 50
251.0831537893189
 51
256.1665036441421
  0
ARC
  5
BDCF
330
209
100
AcDbEntity
  8
0
100
AcDbCircle
 10
963.2745650850923
 20
148.2212293677914
 30
0.0
 40
0.4133790135683793
100
AcDbArc
 50
256.7061919149199
 51
261.6890117440547
  0
ARC
  5
BDD0
330
209
100
AcDbEntity
  8
0
100
AcDbCircle
 10
963.2745650850923
 20
148.2212293677914
 30
0.0
 40
0.4133790135683793
100
AcDbArc
 50
262.2068549600105
 51
267.1180492833982
  0
ARC
  5
BDD1
330
209
100
AcDbEntity
  8
0
100
AcDbCircle
 10
963.2750652182568
 20
148.2357446079239
 30
0.0
 40
0.4279025566502125
100
AcDbArc
 50
267.6582427498209
 51
270.0116925052965
  0
LINE
  5
BDD2
330
209
100
AcDbEntity
  8
0
100
AcDbLine
 10
963.2070121152336
 20
147.8203751583312
 30
0.0
 11
963.1873466876593
 21
147.8242280202555
 31
0.0
  0
LINE
  5
BDD3
330
209
100
AcDbEntity
  8
0
100
AcDbLine
 10
963.1795108276026
 20
147.8189273705407
 30
0.0
 11
963.1873466876593
 21
147.8242280202555
 31
0.0
  0
LINE
  5
BDD4
330
209
100
AcDbEntity
  8
0
100
AcDbLine
 10
963.2148128142539
 20
147.8121916250482
 30
0.0
 11
963.2070121152336
 21
147.8203751583312
 31
0.0
  0
LINE
  5
BDD5
330
209
100
AcDbEntity
  8
0
100
AcDbLine
 10
963.2185121157835
 20
147.8116682936029
 30
0.0
 11
963.2262773957743
 21
147.8176825768076
 31
0.0
  0
LINE
  5
BDD6
330
209
100
AcDbEntity
  8
0
100
AcDbLine
 10
963.2537810821151
 20
147.8083731772371
 30
0.0
 11
963.2460632211905
 21
147.8157890450498
 31
0.0
  0
LINE
  5
BDD7
330
209
100
AcDbEntity
  8
0
100
AcDbLine
 10
963.2460632211905
 20
147.8157890450498
 30
0.0
 11
963.2262773957743
 21
147.8176825768076
 31
0.0
  0
LINE
  5
BDD8
330
209
100
AcDbEntity
  8
0
100
AcDbLine
 10
963.2575811214239
 20
147.8081994005531
 30
0.0
 11
963.2653660122642
 21
147.8150175176921
 31
0.0
  0
LINE
  5
BDD9
330
209
100
AcDbEntity
  8
0
100
AcDbLine
 10
963.1757256822073
 20
147.8198405521823
 30
0.0
 11
963.1681158150556
 21
147.82878367183
 31
0.0
  0
LINE
  5
BDDA
330
209
100
AcDbEntity
  8
0
100
AcDbLine
 10
963.140549438528
 20
147.8301769220316
 30
0.0
 11
963.1482440834938
 21
147.8347414286047
 31
0.0
  0
LINE
  5
BDDB
330
209
100
AcDbEntity
  8
0
100
AcDbLine
 10
963.1681158150556
 20
147.82878367183
 30
0.0
 11
963.1482440834938
 21
147.8347414286047
 31
0.0
  0
LINE
  5
BDDC
330
209
100
AcDbEntity
  8
0
100
AcDbLine
 10
963.1366748286652
 20
147.831526293591
 30
0.0
 11
963.1289979121557
 21
147.8415104715223
 31
0.0
  0
LINE
  5
BDDD
330
209
100
AcDbEntity
  8
0
100
AcDbLine
 10
963.1289979121557
 20
147.8415104715223
 30
0.0
 11
963.1092051625575
 21
147.8494909357084
 31
0.0
  0
LINE
  5
BDDE
330
209
100
AcDbEntity
  8
0
100
AcDbLine
 10
963.1015442366397
 20
147.8458016186045
 30
0.0
 11
963.1092051625575
 21
147.8494909357084
 31
0.0
  0
LINE
  5
BDDF
330
209
100
AcDbEntity
  8
0
100
AcDbLine
 10
963.0901016192932
 20
147.8584999204727
 30
0.0
 11
963.0977010565041
 21
147.8475967618128
 31
0.0
  0
LINE
  5
BDE0
330
209
100
AcDbEntity
  8
0
100
AcDbLine
 10
963.070298901148
 20
147.869295036069
 30
0.0
 11
963.0901016192932
 21
147.8584999204727
 31
0.0
  0
LINE
  5
BDE1
330
209
100
AcDbEntity
  8
0
100
AcDbLine
 10
963.0604566325745
 20
147.8658038197502
 30
0.0
 11
963.070298901148
 21
147.869295036069
 31
0.0
  0
LINE
  5
BDE2
330
209
100
AcDbEntity
  8
0
100
AcDbLine
 10
963.0627083649759
 20
147.8624209584243
 30
0.0
 11
963.0604566325745
 21
147.8658038197502
 31
0.0
  0
LINE
  5
BDE3
330
209
100
AcDbEntity
  8
0
100
AcDbLine
 10
963.0653703928018
 20
147.8646907449518
 30
0.0
 11
963.0627083649759
 21
147.8624209584243
 31
0.0
  0
ARC
  5
BDE4
330
209
100
AcDbEntity
  8
0
100
AcDbCircle
 10
963.2751253310894
 20
148.1751769062539
 30
0.0
 40
0.4177015219203724
100
AcDbArc
 50
262.2066392293419
 51
267.0758433831728
  0
ARC
  5
BDE5
330
209
100
AcDbEntity
  8
0
100
AcDbCircle
 10
963.2749014582055
 20
148.1735535070088
 30
0.0
 40
0.4160626714511112
100
AcDbArc
 50
256.7422120607549
 51
261.6967254146373
  0
ARC
  5
BDE6
330
209
100
AcDbEntity
  8
0
100
AcDbCircle
 10
963.246741750015
 20
147.8433610364023
 30
0.0
 40
0.0867581993920245
100
AcDbArc
 50
250.9920660600578
 51
256.3777232035961
  0
ARC
  5
BDE7
330
209
100
AcDbEntity
  8
0
100
AcDbCircle
 10
963.2392573885134
 20
147.8573319336084
 30
0.0
 40
0.1003742059185037
100
AcDbArc
 50
273.8476816616552
 51
278.3401948792241
  0
ARC
  5
BDE8
330
209
100
AcDbEntity
  8
0
100
AcDbCircle
 10
963.2751151739489
 20
148.1706065239086
 30
0.0
 40
0.414446993020608
100
AcDbArc
 50
263.2369565812524
 51
265.9706350818908
  0
ARC
  5
BDE9
330
209
100
AcDbEntity
  8
0
100
AcDbCircle
 10
963.2102343972475
 20
147.8572726760179
 30
0.0
 40
0.0955304418592017
100
AcDbArc
 50
268.0555059218742
 51
272.7493591564879
  0
ARC
  5
BDEA
330
209
100
AcDbEntity
  8
0
100
AcDbCircle
 10
963.2748641809369
 20
148.1689006587699
 30
0.0
 40
0.4127223013578617
100
AcDbArc
 50
257.7520952042947
 51
260.5348449444679
  0
ARC
  5
BDEB
330
209
100
AcDbEntity
  8
0
100
AcDbCircle
 10
963.2519119327662
 20
147.9453247635568
 30
0.0
 40
0.1910092261043988
100
AcDbArc
 50
247.7169807804394
 51
250.2314342268847
  0
ARC
  5
BDEC
330
209
100
AcDbEntity
  8
0
100
AcDbCircle
 10
963.2742639822925
 20
148.1708419893098
 30
0.0
 40
0.4132770806991502
100
AcDbArc
 50
251.1129458271364
 51
256.219004757099
  0
ARC
  5
BDED
330
209
100
AcDbEntity
  8
0
100
AcDbCircle
 10
963.1811859019032
 20
147.8612004322491
 30
0.0
 40
0.0918956473113344
100
AcDbArc
 50
261.7458228482515
 51
266.6504638060722
  0
ARC
  5
BDEE
330
209
100
AcDbEntity
  8
0
100
AcDbCircle
 10
963.2741400881766
 20
148.1659713213621
 30
0.0
 40
0.4097038577774396
100
AcDbArc
 50
252.1137499967856
 51
254.984362788812
  0
ARC
  5
BDEF
330
209
100
AcDbEntity
  8
0
100
AcDbCircle
 10
963.2580960196785
 20
148.0153394401556
 30
0.0
 40
0.263255671704776
100
AcDbArc
 50
243.464188808998
 51
245.3522899373471
  0
ARC
  5
BDF0
330
209
100
AcDbEntity
  8
0
100
AcDbCircle
 10
963.1642325281633
 20
147.9262791379795
 30
0.0
 40
0.1477539274391769
100
AcDbArc
 50
256.1156664389305
 51
259.3067665599381
  0
ARC
  5
BDF1
330
209
100
AcDbEntity
  8
0
100
AcDbCircle
 10
963.337707391574
 20
148.3151667948628
 30
0.0
 40
0.5718577332972873
100
AcDbArc
 50
246.4594397461187
 51
248.5706545467328
  0
ARC
  5
BDF2
330
209
100
AcDbEntity
  8
0
100
AcDbCircle
 10
963.1358221197572
 20
147.8456244806528
 30
0.0
 40
0.0608086600157069
100
AcDbArc
 50
235.6199267523952
 51
244.1499249594455
  0
ARC
  5
BDF3
330
209
100
AcDbEntity
  8
0
100
AcDbCircle
 10
963.2729967089888
 20
148.1671247486557
 30
0.0
 40
0.4093495445982086
100
AcDbArc
 50
245.2293684925067
 51
250.5688347275335
  0
ARC
  5
BDF4
330
209
100
AcDbEntity
  8
0
100
AcDbCircle
 10
963.1764799837743
 20
147.9949213253013
 30
0.0
 40
0.2140637171224175
100
AcDbArc
 50
222.5883851824331
 51
248.0277867388089
  0
ARC
  5
BDF5
330
209
100
AcDbEntity
  8
0
100
AcDbCircle
 10
963.2783206204367
 20
148.1730771874402
 30
0.0
 40
0.418307488665011
100
AcDbArc
 50
244.2192247548651
 51
263.449475599106
  0
ARC
  5
BDF6
330
209
100
AcDbEntity
  8
0
100
AcDbCircle
 10
963.2744292815443
 20
148.1336986837744
 30
0.0
 40
0.3787426584652945
100
AcDbArc
 50
263.3547238202634
 51
270.1094140488369
  0
ARC
  5
BDF7
330
209
100
AcDbEntity
  8
0
100
AcDbCircle
 10
963.2751185979564
 20
148.1847648015341
 30
0.0
 40
0.4224778969966936
100
AcDbArc
 50
253.4627673508244
 51
270.0046033683181
  0
ARC
  5
BDF8
330
209
100
AcDbEntity
  8
0
100
AcDbCircle
 10
963.2724506093406
 20
148.1757671347758
 30
0.0
 40
0.4130930071120674
100
AcDbArc
 50
239.5360418870806
 51
253.4622882976181
  0
LINE
  5
BDF9
330
209
100
AcDbEntity
  8
0
100
AcDbLine
 10
963.0234672162687
 20
147.8568262429221
 30
0.0
 11
963.0313084622244
 21
147.8473562274746
 31
0.0
  0
LINE
  5
BDFA
330
209
100
AcDbEntity
  8
0
100
AcDbLine
 10
963.0313084622244
 20
147.8473562274746
 30
0.0
 11
963.0509929242927
 21
147.8341264362565
 31
0.0
  0
LINE
  5
BDFB
330
209
100
AcDbEntity
  8
0
100
AcDbLine
 10
963.0509929242927
 20
147.8341264362565
 30
0.0
 11
963.0596550242621
 21
147.8330538478104
 31
0.0
  0
LINE
  5
BDFC
330
209
100
AcDbEntity
  8
0
100
AcDbLine
 10
963.0596551786929
 20
147.8343171243106
 30
0.0
 11
963.0509929243064
 21
147.8446622178356
 31
0.0
  0
LINE
  5
BDFD
330
209
100
AcDbEntity
  8
0
100
AcDbLine
 10
963.0509929243064
 20
147.8446622178356
 30
0.0
 11
963.0313084622928
 21
147.8578920089106
 31
0.0
  0
LINE
  5
BDFE
330
209
100
AcDbEntity
  8
0
100
AcDbLine
 10
963.0313084622928
 20
147.8578920089106
 30
0.0
 11
963.0251129112977
 21
147.8586555004391
 31
0.0
  0
LINE
  5
BDFF
330
209
100
AcDbEntity
  8
0
100
AcDbLine
 10
963.0214662313717
 20
147.8496954186621
 30
0.0
 11
963.0313084622928
 21
147.8461211095142
 31
0.0
  0
LINE
  5
BE00
330
209
100
AcDbEntity
  8
0
100
AcDbLine
 10
963.0313084622928
 20
147.8461211095142
 30
0.0
 11
963.0509929242927
 21
147.8328797560523
 31
0.0
  0
LINE
  5
BE01
330
209
100
AcDbEntity
  8
0
100
AcDbLine
 10
963.0509929242927
 20
147.8328797560523
 30
0.0
 11
963.0606506933027
 21
147.8230779284979
 31
0.0
  0
LINE
  5
BE02
330
209
100
AcDbEntity
  8
0
100
AcDbLine
 10
963.0606506933027
 20
147.8230779284979
 30
0.0
 11
963.0509929242927
 21
147.8261097207106
 31
0.0
  0
LINE
  5
BE03
330
209
100
AcDbEntity
  8
0
100
AcDbLine
 10
963.0509929242927
 20
147.8261097207106
 30
0.0
 11
963.0313084623502
 21
147.8395150043337
 31
0.0
  0
LINE
  5
BE04
330
209
100
AcDbEntity
  8
0
100
AcDbLine
 10
963.0313084623502
 20
147.8395150043337
 30
0.0
 11
963.0214662313717
 21
147.8496954186621
 31
0.0
  0
LINE
  5
BE05
330
209
100
AcDbEntity
  8
0
100
AcDbLine
 10
963.0292460144842
 20
147.8625228784691
 30
0.0
 11
963.0313084622928
 21
147.8596886657821
 31
0.0
  0
LINE
  5
BE06
330
209
100
AcDbEntity
  8
0
100
AcDbLine
 10
963.0313084622928
 20
147.8596886657821
 30
0.0
 11
963.0509929242927
 21
147.8464473121765
 31
0.0
  0
LINE
  5
BE07
330
209
100
AcDbEntity
  8
0
100
AcDbLine
 10
963.0509929242927
 20
147.8464473121765
 30
0.0
 11
963.0606506932927
 21
147.847112065354
 31
0.0
  0
LINE
  5
BE08
330
209
100
AcDbEntity
  8
0
100
AcDbLine
 10
963.0606506932927
 20
147.847112065354
 30
0.0
 11
963.0509929242927
 21
147.8607488398137
 31
0.0
  0
LINE
  5
BE09
330
209
100
AcDbEntity
  8
0
100
AcDbLine
 10
963.0509929242927
 20
147.8607488398137
 30
0.0
 11
963.0379220986565
 21
147.8694066285459
 31
0.0
  0
ARC
  5
BE0A
330
209
100
AcDbEntity
  8
0
100
AcDbCircle
 10
963.2745160145471
 20
148.2114508364454
 30
0.0
 40
0.4182626999796222
100
AcDbArc
 50
239.6243328584256
 51
270.0871947740128
  0
LINE
  5
BE0B
330
209
100
AcDbEntity
  8
0
100
AcDbLine
 10
963.0606506929892
 20
147.8230779285962
 30
0.0
 11
963.0703084624011
 21
147.8314600034942
 31
0.0
  0
LINE
  5
BE0C
330
209
100
AcDbEntity
  8
0
100
AcDbLine
 10
963.0703084624011
 20
147.8314600034942
 30
0.0
 11
963.0863892110864
 21
147.8378841482888
 31
0.0
  0
LINE
  5
BE0D
330
209
100
AcDbEntity
  8
0
100
AcDbLine
 10
963.0847195521633
 20
147.8387296757381
 30
0.0
 11
963.0703084622927
 21
147.8329758907106
 31
0.0
  0
LINE
  5
BE0E
330
209
100
AcDbEntity
  8
0
100
AcDbLine
 10
963.0703084622927
 20
147.8329758907106
 30
0.0
 11
963.0606506932927
 21
147.8340245987106
 31
0.0
  0
LINE
  5
BE0F
330
209
100
AcDbEntity
  8
0
100
AcDbLine
 10
963.0606506932927
 20
147.8340245987106
 30
0.0
 11
963.0606506932927
 21
147.8342220591107
 31
0.0
  0
LINE
  5
BE10
330
209
100
AcDbEntity
  8
0
100
AcDbLine
 10
963.0606506932927
 20
147.8342220591107
 30
0.0
 11
963.0596551788602
 21
147.8343171241108
 31
0.0
  0
LINE
  5
BE11
330
209
100
AcDbEntity
  8
0
100
AcDbLine
 10
963.0596544202731
 20
147.8330539225996
 30
0.0
 11
963.0602468386776
 21
147.8336311478857
 31
0.0
  0
LINE
  5
BE12
330
209
100
AcDbEntity
  8
0
100
AcDbLine
 10
963.0602468386776
 20
147.8336311478857
 30
0.0
 11
963.0606506932972
 21
147.8340245987883
 31
0.0
  0
LINE
  5
BE13
330
209
100
AcDbEntity
  8
0
100
AcDbLine
 10
963.0606506932927
 20
147.8342220591107
 30
0.0
 11
963.0703084622927
 21
147.8435116722769
 31
0.0
  0
LINE
  5
BE14
330
209
100
AcDbEntity
  8
0
100
AcDbLine
 10
963.0703084622927
 20
147.8435116722769
 30
0.0
 11
963.0733239677168
 21
147.844755475798
 31
0.0
  0
LINE
  5
BE15
330
209
100
AcDbEntity
  8
0
100
AcDbLine
 10
963.063014194641
 20
147.8506036854651
 30
0.0
 11
963.061972836822
 21
147.8475589858271
 31
0.0
  0
LINE
  5
BE16
330
209
100
AcDbEntity
  8
0
100
AcDbLine
 10
963.061972836822
 20
147.8475589858271
 30
0.0
 11
963.0606506932927
 21
147.8471120654107
 31
0.0
  0
LINE
  5
BE17
330
209
100
AcDbEntity
  8
0
100
AcDbLine
 10
963.0619728368662
 20
147.8475589858302
 30
0.0
 11
963.0643262615517
 21
147.8498378392598
 31
0.0
  0
ARC
  5
BE18
330
209
100
AcDbEntity
  8
0
100
AcDbCircle
 10
963.2346516933857
 20
148.09145072284
 30
0.0
 40
0.3245527580362589
100
AcDbArc
 50
237.5411442815747
 51
245.0636657536246
  0
ARC
  5
BE19
330
209
100
AcDbEntity
  8
0
100
AcDbCircle
 10
963.125430065069
 20
147.8845407388797
 30
0.0
 40
0.0916459199625932
100
AcDbArc
 50
247.2522649830083
 51
252.4640060430336
  0
ARC
  5
BE1A
330
209
100
AcDbEntity
  8
0
100
AcDbCircle
 10
963.1339233401831
 20
147.9047971464925
 30
0.0
 40
0.1136108413496986
100
AcDbArc
 50
235.9485808174689
 51
247.2522649830083
  0
ARC
  5
BE1B
330
209
100
AcDbEntity
  8
0
100
AcDbCircle
 10
963.2437007921279
 20
148.0672342711594
 30
0.0
 40
0.3096641719144309
100
AcDbArc
 50
233.7208224827652
 51
235.9485808174689
  0
LINE
  5
BE1C
330
209
100
AcDbEntity
  8
0
100
AcDbLine
 10
963.2205207753896
 20
147.9151606504132
 30
0.0
 11
963.2263084624165
 21
147.9049163922003
 31
0.0
  0
LINE
  5
BE1D
330
209
100
AcDbEntity
  8
0
100
AcDbLine
 10
963.2263084624165
 20
147.9049163922003
 30
0.0
 11
963.2459929242097
 21
147.902774054536
 31
0.0
  0
LINE
  5
BE1E
330
209
100
AcDbEntity
  8
0
100
AcDbLine
 10
963.2459929242097
 20
147.902774054536
 30
0.0
 11
963.2549603822988
 21
147.9167181985176
 31
0.0
  0
LINE
  5
BE1F
330
209
100
AcDbEntity
  8
0
100
AcDbLine
 10
963.2460632211905
 20
147.8157890450498
 30
0.0
 11
963.2458810426781
 21
147.8088467365258
 31
0.0
  0
LINE
  5
BE20
330
209
100
AcDbEntity
  8
0
100
AcDbLine
 10
963.2262773957743
 20
147.8176825768076
 30
0.0
 11
963.2256147816516
 21
147.8107588126333
 31
0.0
  0
LINE
  5
BE21
330
209
100
AcDbEntity
  8
0
100
AcDbLine
 10
963.2070121152336
 20
147.8203751583312
 30
0.0
 11
963.2072245774693
 21
147.8133722054271
 31
0.0
  0
LINE
  5
BE22
330
209
100
AcDbEntity
  8
0
100
AcDbLine
 10
963.1873466876593
 20
147.8242280202555
 30
0.0
 11
963.1873466876593
 21
147.8171561565932
 31
0.0
  0
LINE
  5
BE23
330
209
100
AcDbEntity
  8
0
100
AcDbLine
 10
963.1482440834938
 20
147.8347414286047
 30
0.0
 11
963.1482440834938
 21
147.8276239646096
 31
0.0
  0
LINE
  5
BE24
330
209
100
AcDbEntity
  8
0
100
AcDbLine
 10
963.1289979121557
 20
147.8415104715223
 30
0.0
 11
963.1289979121557
 21
147.8343283377824
 31
0.0
  0
LINE
  5
BE25
330
209
100
AcDbEntity
  8
0
100
AcDbLine
 10
963.1092051625575
 20
147.8494909357084
 30
0.0
 11
963.1092051625575
 21
147.8423648737066
 31
0.0
  0
LINE
  5
BE26
330
209
100
AcDbEntity
  8
0
100
AcDbLine
 10
963.0901016192932
 20
147.8584999204727
 30
0.0
 11
963.0901016192932
 21
147.8512895907409
 31
0.0
  0
LINE
  5
BE27
330
209
100
AcDbEntity
  8
0
100
AcDbLine
 10
963.070298901148
 20
147.869295036069
 30
0.0
 11
963.070298901148
 21
147.8618444279906
 31
0.0
  0
LINE
  5
BE28
330
209
100
AcDbEntity
  8
0
100
AcDbLine
 10
963.0703084622311
 20
147.8722759005137
 30
0.0
 11
963.0703084622311
 21
147.8858701389646
 31
0.0
  0
LINE
  5
BE29
330
209
100
AcDbEntity
  8
0
100
AcDbLine
 10
963.0899929242026
 20
147.8615891936003
 30
0.0
 11
963.0899929243039
 21
147.8832382220845
 31
0.0
  0
LINE
  5
BE2A
330
209
100
AcDbEntity
  8
0
100
AcDbLine
 10
963.109308462279
 20
147.8524311181428
 30
0.0
 11
963.1083576683751
 21
147.8731385297779
 31
0.0
  0
LINE
  5
BE2B
330
209
100
AcDbEntity
  8
0
100
AcDbLine
 10
963.1289929241788
 20
147.84434342228
 30
0.0
 11
963.1289929243147
 21
147.8654231346447
 31
0.0
  0
LINE
  5
BE2C
330
209
100
AcDbEntity
  8
0
100
AcDbLine
 10
963.1289929242928
 20
147.8939539490106
 30
0.0
 11
963.1289946694996
 21
147.8689935553698
 31
0.0
  0
LINE
  5
BE2D
330
209
100
AcDbEntity
  8
0
100
AcDbLine
 10
963.1094169006409
 20
147.877084820673
 30
0.0
 11
963.1094169006409
 21
147.8985113925953
 31
0.0
  0
LINE
  5
BE2E
330
209
100
AcDbEntity
  8
0
100
AcDbLine
 10
963.1483084623649
 20
147.8616992920795
 30
0.0
 11
963.1483084622928
 21
147.8865963544708
 31
0.0
  0
LINE
  5
BE2F
330
209
100
AcDbEntity
  8
0
100
AcDbLine
 10
963.1483084622928
 20
147.8904964196087
 30
0.0
 11
963.1483084622928
 21
147.906689727723
 31
0.0
  0
LINE
  5
BE30
330
209
100
AcDbEntity
  8
0
100
AcDbLine
 10
963.1679929242928
 20
147.8841567771316
 30
0.0
 11
963.1679929242928
 21
147.9073196629072
 31
0.0
  0
LINE
  5
BE31
330
209
100
AcDbEntity
  8
0
100
AcDbLine
 10
963.1681013626581
 20
147.8556643967106
 30
0.0
 11
963.1679929242928
 21
147.8803019493106
 31
0.0
  0
LINE
  5
BE32
330
209
100
AcDbEntity
  8
0
100
AcDbLine
 10
963.1679929242928
 20
147.8524134405892
 30
0.0
 11
963.1679929242961
 21
147.8317144569202
 31
0.0
  0
LINE
  5
BE33
330
209
100
AcDbEntity
  8
0
100
AcDbLine
 10
963.1483084623567
 20
147.8584178899033
 30
0.0
 11
963.1483084622928
 21
147.8375466098106
 31
0.0
  0
LINE
  5
BE34
330
209
100
AcDbEntity
  8
0
100
AcDbLine
 10
963.1681158150556
 20
147.82878367183
 30
0.0
 11
963.1681158150556
 21
147.8217913103063
 31
0.0
  0
LINE
  5
BE35
330
209
100
AcDbEntity
  8
0
100
AcDbLine
 10
963.1874542038808
 20
147.8269829906858
 30
0.0
 11
963.1873084622927
 21
147.8475790293519
 31
0.0
  0
LINE
  5
BE36
330
209
100
AcDbEntity
  8
0
100
AcDbLine
 10
963.1873084622927
 20
147.8508062267049
 30
0.0
 11
963.1873084622927
 21
147.8752417240755
 31
0.0
  0
LINE
  5
BE37
330
209
100
AcDbEntity
  8
0
100
AcDbLine
 10
963.1873084622927
 20
147.8790614150013
 30
0.0
 11
963.1873084622927
 21
147.9079490325798
 31
0.0
  0
LINE
  5
BE38
330
209
100
AcDbEntity
  8
0
100
AcDbLine
 10
963.2071221440062
 20
147.9036182026107
 30
0.0
 11
963.2064841989116
 21
147.8750559451335
 31
0.0
  0
LINE
  5
BE39
330
209
100
AcDbEntity
  8
0
100
AcDbLine
 10
963.2069929242929
 20
147.8711714244107
 30
0.0
 11
963.2069929242929
 21
147.8468943800831
 31
0.0
  0
LINE
  5
BE3A
330
209
100
AcDbEntity
  8
0
100
AcDbLine
 10
963.2069929242559
 20
147.8436858468858
 30
0.0
 11
963.2069929242929
 21
147.8232274337288
 31
0.0
  0
LINE
  5
BE3B
330
209
100
AcDbEntity
  8
0
100
AcDbLine
 10
963.226308462363
 20
147.820464887186
 30
0.0
 11
963.2263084622929
 21
147.8408474654106
 31
0.0
  0
LINE
  5
BE3C
330
209
100
AcDbEntity
  8
0
100
AcDbLine
 10
963.2263084622929
 20
147.8440426463977
 30
0.0
 11
963.2263084622929
 21
147.8682064808026
 31
0.0
  0
LINE
  5
BE3D
330
209
100
AcDbEntity
  8
0
100
AcDbLine
 10
963.2263084622831
 20
147.8719790443582
 30
0.0
 11
963.2263084622929
 21
147.9004677070107
 31
0.0
  0
LINE
  5
BE3E
330
209
100
AcDbEntity
  8
0
100
AcDbLine
 10
963.2263084624165
 20
147.9049163922003
 30
0.0
 11
963.2263084624165
 21
147.9155233154973
 31
0.0
  0
LINE
  5
BE3F
330
209
100
AcDbEntity
  8
0
100
AcDbLine
 10
963.2459929242097
 20
147.902774054536
 30
0.0
 11
963.2459929242097
 21
147.9164514917266
 31
0.0
  0
LINE
  5
BE40
330
209
100
AcDbEntity
  8
0
100
AcDbLine
 10
963.2459929243498
 20
147.8699660187472
 30
0.0
 11
963.2459223013857
 21
147.8983502013825
 31
0.0
  0
LINE
  5
BE41
330
209
100
AcDbEntity
  8
0
100
AcDbLine
 10
963.2459929243113
 20
147.8662065014941
 30
0.0
 11
963.2459741326973
 21
147.842119373995
 31
0.0
  0
LINE
  5
BE42
330
209
100
AcDbEntity
  8
0
100
AcDbLine
 10
963.2459929242425
 20
147.8389317160797
 30
0.0
 11
963.2459929242928
 21
147.8185996788107
 31
0.0
  0
LINE
  5
BE43
330
209
100
AcDbEntity
  8
0
100
AcDbLine
 10
963.2653084624285
 20
147.9017281057106
 30
0.0
 11
963.2562790874338
 21
147.9167491867535
 31
0.0
  0
LINE
  5
BE44
330
209
100
AcDbEntity
  8
0
100
AcDbLine
 10
963.2653084622928
 20
147.8411774527265
 30
0.0
 11
963.2848881822566
 21
147.8411774527265
 31
0.0
  0
LINE
  5
BE45
330
209
100
AcDbEntity
  8
0
100
AcDbLine
 10
963.2653084609797
 20
147.8176879551631
 30
0.0
 11
963.2849966220058
 21
147.8176879551631
 31
0.0
  0
LINE
  5
BE46
330
209
100
AcDbEntity
  8
0
100
AcDbLine
 10
963.2653660122642
 20
147.8150175176921
 30
0.0
 11
963.2849390707216
 21
147.8150175176921
 31
0.0
  0
LINE
  5
BE47
330
209
100
AcDbEntity
  8
0
100
AcDbLine
 10
963.0509929242927
 20
147.8607488398137
 30
0.0
 11
963.0509929242927
 21
147.8464473121765
 31
0.0
  0
LINE
  5
BE48
330
209
100
AcDbEntity
  8
0
100
AcDbLine
 10
963.0313084622928
 20
147.8596886657821
 30
0.0
 11
963.0313084622928
 21
147.8642885852996
 31
0.0
  0
LINE
  5
BE49
330
209
100
AcDbEntity
  8
0
100
AcDbLine
 10
963.0313084622244
 20
147.8473562274746
 30
0.0
 11
963.0313084622928
 21
147.8578920089106
 31
0.0
  0
LINE
  5
BE4A
330
209
100
AcDbEntity
  8
0
100
AcDbLine
 10
963.0509929243064
 20
147.8446622178356
 30
0.0
 11
963.0509929242927
 21
147.8341264362565
 31
0.0
  0
LINE
  5
BE4B
330
209
100
AcDbEntity
  8
0
100
AcDbLine
 10
963.0313084622928
 20
147.8461211095142
 30
0.0
 11
963.0313084623502
 21
147.8395150043337
 31
0.0
  0
LINE
  5
BE4C
330
209
100
AcDbEntity
  8
0
100
AcDbLine
 10
963.0509929242927
 20
147.8261097207106
 30
0.0
 11
963.0509929242927
 21
147.8328797560523
 31
0.0
  0
LINE
  5
BE4D
330
209
100
AcDbEntity
  8
0
100
AcDbLine
 10
963.0703084622927
 20
147.8329758907106
 30
0.0
 11
963.0703084622927
 21
147.8435116722769
 31
0.0
  0
LINE
  5
BE4E
330
209
100
AcDbEntity
  8
0
100
AcDbLine
 10
963.0899929242927
 20
147.8000233814944
 30
0.0
 11
963.0899929242927
 21
147.8009196001122
 31
0.0
  0
LINE
  5
BE4F
330
209
100
AcDbEntity
  8
0
100
AcDbLine
 10
963.0703084623293
 20
147.810666542607
 30
0.0
 11
963.0703084623293
 21
147.8115832628613
 31
0.0
  0
LINE
  5
BE50
330
209
100
AcDbEntity
  8
0
100
AcDbLine
 10
963.1093084622929
 20
147.7909004539299
 30
0.0
 11
963.1093084622929
 21
147.7919271906195
 31
0.0
  0
LINE
  5
BE51
330
209
100
AcDbEntity
  8
0
100
AcDbLine
 10
963.1287771101595
 20
147.7828422654261
 30
0.0
 11
963.1287771101595
 21
147.7840219465565
 31
0.0
  0
LINE
  5
BE52
330
209
100
AcDbEntity
  8
0
100
AcDbLine
 10
963.1483084622928
 20
147.7760692144106
 30
0.0
 11
963.1483084622928
 21
147.7772265012852
 31
0.0
  0
LINE
  5
BE53
330
209
100
AcDbEntity
  8
0
100
AcDbLine
 10
963.1679929242311
 20
147.7702567390378
 30
0.0
 11
963.1679929242311
 21
147.7714619602026
 31
0.0
  0
LINE
  5
BE54
330
209
100
AcDbEntity
  8
0
100
AcDbLine
 10
963.1873084727237
 20
147.7655723855266
 30
0.0
 11
963.1873084727237
 21
147.7668157346426
 31
0.0
  0
LINE
  5
BE55
330
209
100
AcDbEntity
  8
0
100
AcDbLine
 10
963.2069929242549
 20
147.7617972437086
 30
0.0
 11
963.2069929242549
 21
147.7630701607063
 31
0.0
  0
LINE
  5
BE56
330
209
100
AcDbEntity
  8
0
100
AcDbLine
 10
963.2263084591452
 20
147.7590433882734
 30
0.0
 11
963.2263084591452
 21
147.7603378116302
 31
0.0
  0
LINE
  5
BE57
330
209
100
AcDbEntity
  8
0
100
AcDbLine
 10
963.2459929242928
 20
147.7571839742106
 30
0.0
 11
963.2459929242928
 21
147.7584925361501
 31
0.0
  0
LINE
  5
BE58
330
209
100
AcDbEntity
  8
0
100
AcDbLine
 10
963.0630141945928
 20
147.8197019705106
 30
0.0
 11
963.0668170843
 21
147.8213296179137
 31
0.0
  0
LINE
  5
BE59
330
209
100
AcDbEntity
  8
0
100
AcDbLine
 10
963.0668170843
 20
147.8213296179137
 30
0.0
 11
963.0668170842906
 21
147.8284298014289
 31
0.0
  0
LINE
  5
BE5A
330
209
100
AcDbEntity
  8
0
100
AcDbLine
 10
963.0668170842927
 20
147.8213296179106
 30
0.0
 11
963.0619728368335
 21
147.8218428770166
 31
0.0
  0
LINE
  5
BE5B
330
209
100
AcDbEntity
  8
0
100
AcDbLine
 10
963.0619728368335
 20
147.8218428770166
 30
0.0
 11
963.0606506929892
 21
147.8230779285962
 31
0.0
  0
LINE
  5
BE5C
330
209
100
AcDbEntity
  8
0
100
AcDbLine
 10
963.0630141945928
 20
147.8197019705106
 30
0.0
 11
963.0619728368335
 21
147.8218428770166
 31
0.0
  0
ARC
  5
BE5D
330
209
100
AcDbEntity
  8
0
100
AcDbCircle
 10
963.2690128365579
 20
148.844959641519
 30
0.0
 40
1.093431053227964
100
AcDbArc
 50
270.3217221861081
 51
273.2680708961542
  0
ARC
  5
BE5E
330
209
100
AcDbEntity
  8
0
100
AcDbCircle
 10
963.2837852954546
 20
148.5110692928872
 30
0.0
 40
0.7592536502048785
100
AcDbArc
 50
273.5914990099769
 51
281.7917097104762
  0
ARC
  5
BE5F
330
209
100
AcDbEntity
  8
0
100
AcDbCircle
 10
963.2753087280882
 20
147.0921611547814
 30
0.0
 40
0.8248004356042486
100
AcDbArc
 50
85.34612393668167
 51
90.01084969453385
  0
ARC
  5
BE60
330
209
100
AcDbEntity
  8
0
100
AcDbCircle
 10
963.2872614806421
 20
147.2389926353031
 30
0.0
 40
0.6774832541018763
100
AcDbArc
 50
78.76602522128553
 51
85.34612393668167
  0
ARC
  5
BE61
330
209
100
AcDbEntity
  8
0
100
AcDbCircle
 10
963.3477595189914
 20
147.543582020069
 30
0.0
 40
0.3669438750269739
100
AcDbArc
 50
67.04731175582728
 51
78.76602522128553
  0
ARC
  5
BE62
330
209
100
AcDbEntity
  8
0
100
AcDbCircle
 10
963.4045521714435
 20
147.9622515812403
 30
0.0
 40
0.1909285126027903
100
AcDbArc
 50
281.4819887561668
 51
309.0596686333098
  0
ARC
  5
BE63
330
209
100
AcDbEntity
  8
0
100
AcDbCircle
 10
963.2833071883112
 20
148.4474843083421
 30
0.0
 40
0.690943089858399
100
AcDbArc
 50
273.0196253423391
 51
283.325556822919
  0
ARC
  5
BE64
330
209
100
AcDbEntity
  8
0
100
AcDbCircle
 10
963.2751261961972
 20
148.6369019961481
 30
0.0
 40
0.8838868028383508
100
AcDbArc
 50
270.0017077687351
 51
275.144488446064
  0
ARC
  5
BE65
330
209
100
AcDbEntity
  8
0
100
AcDbCircle
 10
963.2988315582906
 20
148.373597821354
 30
0.0
 40
0.6195176808592949
100
AcDbArc
 50
275.144488446064
 51
283.990579014298
  0
ARC
  5
BE66
330
209
100
AcDbEntity
  8
0
100
AcDbCircle
 10
963.3746894353039
 20
148.0691352340079
 30
0.0
 40
0.3057472479015213
100
AcDbArc
 50
283.990579014298
 51
296.4908601985825
  0
ARC
  5
BE67
330
209
100
AcDbEntity
  8
0
100
AcDbCircle
 10
963.3275869084995
 20
147.4453242618769
 30
0.0
 40
0.4711644751581943
100
AcDbArc
 50
70.63370072228586
 51
82.61502741089035
  0
ARC
  5
BE68
330
209
100
AcDbEntity
  8
0
100
AcDbCircle
 10
963.280932116416
 20
147.1473533373985
 30
0.0
 40
0.7727015835494522
100
AcDbArc
 50
82.02419426766891
 51
87.17896790346053
  0
ARC
  5
BE69
330
209
100
AcDbEntity
  8
0
100
AcDbCircle
 10
963.2752763756965
 20
147.0542401560333
 30
0.0
 40
0.865980936201408
100
AcDbArc
 50
87.10842567060721
 51
90.00819322567936
  0
LINE
  5
BE6A
330
209
100
AcDbEntity
  8
0
100
AcDbLine
 10
963.4866271756985
 20
147.8832341676266
 30
0.0
 11
963.4799966207546
 21
147.8722759005137
 31
0.0
  0
LINE
  5
BE6B
330
209
100
AcDbEntity
  8
0
100
AcDbLine
 10
963.4799966207546
 20
147.8722759005137
 30
0.0
 11
963.4603121587829
 21
147.8615891936003
 31
0.0
  0
LINE
  5
BE6C
330
209
100
AcDbEntity
  8
0
100
AcDbLine
 10
963.4603121587829
 20
147.8615891936003
 30
0.0
 11
963.4506543897229
 21
147.8669510164469
 31
0.0
  0
LINE
  5
BE6D
330
209
100
AcDbEntity
  8
0
100
AcDbLine
 10
963.4506543897229
 20
147.8669510164469
 30
0.0
 11
963.4506543897522
 21
147.8673534384322
 31
0.0
  0
LINE
  5
BE6E
330
209
100
AcDbEntity
  8
0
100
AcDbLine
 10
963.4506543897522
 20
147.8673534384322
 30
0.0
 11
963.4409966206435
 21
147.8737702566245
 31
0.0
  0
LINE
  5
BE6F
330
209
100
AcDbEntity
  8
0
100
AcDbLine
 10
963.4409966206435
 20
147.8737702566245
 30
0.0
 11
963.4213121586711
 21
147.8654231346447
 31
0.0
  0
LINE
  5
BE70
330
209
100
AcDbEntity
  8
0
100
AcDbLine
 10
963.4213121586711
 20
147.8654231346447
 30
0.0
 11
963.4116543896928
 21
147.8510708391063
 31
0.0
  0
LINE
  5
BE71
330
209
100
AcDbEntity
  8
0
100
AcDbLine
 10
963.4116543896928
 20
147.8510708391063
 30
0.0
 11
963.4116543896928
 21
147.8506780536632
 31
0.0
  0
LINE
  5
BE72
330
209
100
AcDbEntity
  8
0
100
AcDbLine
 10
963.4116543896928
 20
147.8506780536632
 30
0.0
 11
963.4019966206929
 21
147.8375466098106
 31
0.0
  0
LINE
  5
BE73
330
209
100
AcDbEntity
  8
0
100
AcDbLine
 10
963.4019966206929
 20
147.8375466098106
 30
0.0
 11
963.3823121586896
 21
147.8317144569202
 31
0.0
  0
LINE
  5
BE74
330
209
100
AcDbEntity
  8
0
100
AcDbLine
 10
963.3823121586896
 20
147.8317144569202
 30
0.0
 11
963.3726543897411
 21
147.8389583897186
 31
0.0
  0
LINE
  5
BE75
330
209
100
AcDbEntity
  8
0
100
AcDbLine
 10
963.3726543897411
 20
147.8389583897186
 30
0.0
 11
963.3726543896928
 21
147.8393447778575
 31
0.0
  0
LINE
  5
BE76
330
209
100
AcDbEntity
  8
0
100
AcDbLine
 10
963.3726543896928
 20
147.8393447778575
 30
0.0
 11
963.3629966206928
 21
147.8475790293519
 31
0.0
  0
LINE
  5
BE77
330
209
100
AcDbEntity
  8
0
100
AcDbLine
 10
963.3629966206928
 20
147.8475790293519
 30
0.0
 11
963.3433121587296
 21
147.8436858468858
 31
0.0
  0
LINE
  5
BE78
330
209
100
AcDbEntity
  8
0
100
AcDbLine
 10
963.3433121587296
 20
147.8436858468858
 30
0.0
 11
963.3336543896929
 21
147.8317363740642
 31
0.0
  0
LINE
  5
BE79
330
209
100
AcDbEntity
  8
0
100
AcDbLine
 10
963.3336543896929
 20
147.8317363740642
 30
0.0
 11
963.3336543897224
 21
147.8313539173598
 31
0.0
  0
LINE
  5
BE7A
330
209
100
AcDbEntity
  8
0
100
AcDbLine
 10
963.3336543897224
 20
147.8313539173598
 30
0.0
 11
963.3433121586929
 21
147.8232274337288
 31
0.0
  0
LINE
  5
BE7B
330
209
100
AcDbEntity
  8
0
100
AcDbLine
 10
963.3433121586929
 20
147.8232274337288
 30
0.0
 11
963.362850879105
 21
147.8269829906858
 31
0.0
  0
LINE
  5
BE7C
330
209
100
AcDbEntity
  8
0
100
AcDbLine
 10
963.362850879105
 20
147.8269829906858
 30
0.0
 11
963.3726543896928
 21
147.8389583897107
 31
0.0
  0
LINE
  5
BE7D
330
209
100
AcDbEntity
  8
0
100
AcDbLine
 10
963.3336543896929
 20
147.8313539173107
 30
0.0
 11
963.3239966206227
 21
147.820464887186
 31
0.0
  0
LINE
  5
BE7E
330
209
100
AcDbEntity
  8
0
100
AcDbLine
 10
963.3239966206227
 20
147.820464887186
 30
0.0
 11
963.3043121586927
 21
147.8185996788107
 31
0.0
  0
LINE
  5
BE7F
330
209
100
AcDbEntity
  8
0
100
AcDbLine
 10
963.3043121586927
 20
147.8185996788107
 30
0.0
 11
963.2946543896927
 21
147.827610385348
 31
0.0
  0
LINE
  5
BE80
330
209
100
AcDbEntity
  8
0
100
AcDbLine
 10
963.2946543896927
 20
147.827610385348
 30
0.0
 11
963.2946543897105
 21
147.8279909661394
 31
0.0
  0
LINE
  5
BE81
330
209
100
AcDbEntity
  8
0
100
AcDbLine
 10
963.2946543897105
 20
147.8279909661394
 30
0.0
 11
963.2849966206928
 21
147.8379954770059
 31
0.0
  0
LINE
  5
BE82
330
209
100
AcDbEntity
  8
0
100
AcDbLine
 10
963.2849966220058
 20
147.8176879551631
 30
0.0
 11
963.2946543896927
 21
147.827610385348
 31
0.0
  0
LINE
  5
BE83
330
209
100
AcDbEntity
  8
0
100
AcDbLine
 10
963.2946543897105
 20
147.8279909661394
 30
0.0
 11
963.3043121587432
 21
147.8389317160797
 31
0.0
  0
LINE
  5
BE84
330
209
100
AcDbEntity
  8
0
100
AcDbLine
 10
963.3043121587432
 20
147.8389317160797
 30
0.0
 11
963.3239966206929
 21
147.8408474654106
 31
0.0
  0
LINE
  5
BE85
330
209
100
AcDbEntity
  8
0
100
AcDbLine
 10
963.3239966206929
 20
147.8408474654106
 30
0.0
 11
963.3336543896929
 21
147.8317363740642
 31
0.0
  0
LINE
  5
BE86
330
209
100
AcDbEntity
  8
0
100
AcDbLine
 10
963.3726543896928
 20
147.8393447777765
 30
0.0
 11
963.3823121586928
 21
147.8524134405892
 31
0.0
  0
LINE
  5
BE87
330
209
100
AcDbEntity
  8
0
100
AcDbLine
 10
963.3823121586928
 20
147.8524134405892
 30
0.0
 11
963.4019966206288
 21
147.8584178899033
 31
0.0
  0
LINE
  5
BE88
330
209
100
AcDbEntity
  8
0
100
AcDbLine
 10
963.4019966206288
 20
147.8584178899033
 30
0.0
 11
963.4116543896928
 21
147.8510708390107
 31
0.0
  0
LINE
  5
BE89
330
209
100
AcDbEntity
  8
0
100
AcDbLine
 10
963.4116543896928
 20
147.8506780536632
 30
0.0
 11
963.4213121588068
 21
147.84434342228
 31
0.0
  0
LINE
  5
BE8A
330
209
100
AcDbEntity
  8
0
100
AcDbLine
 10
963.4213121588068
 20
147.84434342228
 30
0.0
 11
963.4409966207066
 21
147.8524311181428
 31
0.0
  0
LINE
  5
BE8B
330
209
100
AcDbEntity
  8
0
100
AcDbLine
 10
963.4409966207066
 20
147.8524311181428
 30
0.0
 11
963.4506543897229
 21
147.8669510164469
 31
0.0
  0
LINE
  5
BE8C
330
209
100
AcDbEntity
  8
0
100
AcDbLine
 10
963.4506543897254
 20
147.8673534384486
 30
0.0
 11
963.4603121586817
 21
147.8832382220845
 31
0.0
  0
LINE
  5
BE8D
330
209
100
AcDbEntity
  8
0
100
AcDbLine
 10
963.4603121586817
 20
147.8832382220845
 30
0.0
 11
963.4711613248919
 21
147.8891537227883
 31
0.0
  0
LINE
  5
BE8E
330
209
100
AcDbEntity
  8
0
100
AcDbLine
 10
963.4505459513611
 20
147.8922147752725
 30
0.0
 11
963.4505459513903
 21
147.8926171972577
 31
0.0
  0
LINE
  5
BE8F
330
209
100
AcDbEntity
  8
0
100
AcDbLine
 10
963.4505459513903
 20
147.8926171972577
 30
0.0
 11
963.4421945271743
 21
147.898166053338
 31
0.0
  0
LINE
  5
BE90
330
209
100
AcDbEntity
  8
0
100
AcDbLine
 10
963.4352058188273
 20
147.8999539494698
 30
0.0
 11
963.4213121586929
 21
147.8939539490106
 31
0.0
  0
LINE
  5
BE91
330
209
100
AcDbEntity
  8
0
100
AcDbLine
 10
963.4213121586929
 20
147.8939539490106
 30
0.0
 11
963.4115459513308
 21
147.8763345979318
 31
0.0
  0
LINE
  5
BE92
330
209
100
AcDbEntity
  8
0
100
AcDbLine
 10
963.4115459513308
 20
147.8763345979318
 30
0.0
 11
963.4115459513308
 21
147.8759418124888
 31
0.0
  0
LINE
  5
BE93
330
209
100
AcDbEntity
  8
0
100
AcDbLine
 10
963.4115459513308
 20
147.8759418124888
 30
0.0
 11
963.4019966206208
 21
147.8616992920795
 31
0.0
  0
LINE
  5
BE94
330
209
100
AcDbEntity
  8
0
100
AcDbLine
 10
963.4019966206208
 20
147.8616992920795
 30
0.0
 11
963.3822037203277
 21
147.8556643967106
 31
0.0
  0
LINE
  5
BE95
330
209
100
AcDbEntity
  8
0
100
AcDbLine
 10
963.3822037203277
 20
147.8556643967106
 30
0.0
 11
963.3725459513792
 21
147.8642221485441
 31
0.0
  0
LINE
  5
BE96
330
209
100
AcDbEntity
  8
0
100
AcDbLine
 10
963.3725459513792
 20
147.8642221485441
 30
0.0
 11
963.3725459513309
 21
147.864608536683
 31
0.0
  0
LINE
  5
BE97
330
209
100
AcDbEntity
  8
0
100
AcDbLine
 10
963.3725459513309
 20
147.864608536683
 30
0.0
 11
963.3629966206928
 21
147.8752417240755
 31
0.0
  0
LINE
  5
BE98
330
209
100
AcDbEntity
  8
0
100
AcDbLine
 10
963.3629966206928
 20
147.8752417240755
 30
0.0
 11
963.3433121586929
 21
147.8711714244107
 31
0.0
  0
LINE
  5
BE99
330
209
100
AcDbEntity
  8
0
100
AcDbLine
 10
963.3433121586929
 20
147.8711714244107
 30
0.0
 11
963.3335459513309
 21
147.8570001328897
 31
0.0
  0
LINE
  5
BE9A
330
209
100
AcDbEntity
  8
0
100
AcDbLine
 10
963.3335459513309
 20
147.8570001328897
 30
0.0
 11
963.3335459513604
 21
147.8566176761853
 31
0.0
  0
LINE
  5
BE9B
330
209
100
AcDbEntity
  8
0
100
AcDbLine
 10
963.3335459513604
 20
147.8566176761853
 30
0.0
 11
963.3433121586929
 21
147.8468943800831
 31
0.0
  0
LINE
  5
BE9C
330
209
100
AcDbEntity
  8
0
100
AcDbLine
 10
963.3433121586929
 20
147.8468943800831
 30
0.0
 11
963.3629966206928
 21
147.8508062267049
 31
0.0
  0
LINE
  5
BE9D
330
209
100
AcDbEntity
  8
0
100
AcDbLine
 10
963.3629966206928
 20
147.8508062267049
 30
0.0
 11
963.3725459513309
 21
147.8642221485362
 31
0.0
  0
LINE
  5
BE9E
330
209
100
AcDbEntity
  8
0
100
AcDbLine
 10
963.3335459513309
 20
147.8566176761362
 30
0.0
 11
963.3239966206929
 21
147.8440426463977
 31
0.0
  0
LINE
  5
BE9F
330
209
100
AcDbEntity
  8
0
100
AcDbLine
 10
963.3239966206929
 20
147.8440426463977
 30
0.0
 11
963.3043309502882
 21
147.842119373995
 31
0.0
  0
LINE
  5
BEA0
330
209
100
AcDbEntity
  8
0
100
AcDbLine
 10
963.3043309502882
 20
147.842119373995
 30
0.0
 11
963.294545951331
 21
147.8528741441736
 31
0.0
  0
LINE
  5
BEA1
330
209
100
AcDbEntity
  8
0
100
AcDbLine
 10
963.294545951331
 20
147.8528741441736
 30
0.0
 11
963.2945459513486
 21
147.853254724965
 31
0.0
  0
LINE
  5
BEA2
330
209
100
AcDbEntity
  8
0
100
AcDbLine
 10
963.2945459513486
 20
147.853254724965
 30
0.0
 11
963.2849966206928
 21
147.8652294422256
 31
0.0
  0
LINE
  5
BEA3
330
209
100
AcDbEntity
  8
0
100
AcDbLine
 10
963.2848881822566
 20
147.8411774527265
 30
0.0
 11
963.294545951331
 21
147.8528741441736
 31
0.0
  0
LINE
  5
BEA4
330
209
100
AcDbEntity
  8
0
100
AcDbLine
 10
963.2945459513486
 20
147.853254724965
 30
0.0
 11
963.3043121586744
 21
147.8662065014941
 31
0.0
  0
LINE
  5
BEA5
330
209
100
AcDbEntity
  8
0
100
AcDbLine
 10
963.3043121586744
 20
147.8662065014941
 30
0.0
 11
963.3239966206929
 21
147.8682064808026
 31
0.0
  0
LINE
  5
BEA6
330
209
100
AcDbEntity
  8
0
100
AcDbLine
 10
963.3239966206929
 20
147.8682064808026
 30
0.0
 11
963.3335459513309
 21
147.8570001328897
 31
0.0
  0
LINE
  5
BEA7
330
209
100
AcDbEntity
  8
0
100
AcDbLine
 10
963.3725459513309
 20
147.8646085366021
 30
0.0
 11
963.3823121586928
 21
147.8803019493106
 31
0.0
  0
LINE
  5
BEA8
330
209
100
AcDbEntity
  8
0
100
AcDbLine
 10
963.3823121586928
 20
147.8803019493106
 30
0.0
 11
963.4019966206929
 21
147.8865963544708
 31
0.0
  0
LINE
  5
BEA9
330
209
100
AcDbEntity
  8
0
100
AcDbLine
 10
963.4019966206929
 20
147.8865963544708
 30
0.0
 11
963.4115459513308
 21
147.8763345978362
 31
0.0
  0
LINE
  5
BEAA
330
209
100
AcDbEntity
  8
0
100
AcDbLine
 10
963.4115459513308
 20
147.8759418124888
 30
0.0
 11
963.4213104134859
 21
147.8689935553698
 31
0.0
  0
LINE
  5
BEAB
330
209
100
AcDbEntity
  8
0
100
AcDbLine
 10
963.4213104134859
 20
147.8689935553698
 30
0.0
 11
963.4408881823446
 21
147.877084820673
 31
0.0
  0
LINE
  5
BEAC
330
209
100
AcDbEntity
  8
0
100
AcDbLine
 10
963.4408881823446
 20
147.877084820673
 30
0.0
 11
963.4505459513611
 21
147.8922147752725
 31
0.0
  0
LINE
  5
BEAD
330
209
100
AcDbEntity
  8
0
100
AcDbLine
 10
963.4109597457797
 20
147.905087447466
 30
0.0
 11
963.4019966206929
 21
147.8904964196087
 31
0.0
  0
LINE
  5
BEAE
330
209
100
AcDbEntity
  8
0
100
AcDbLine
 10
963.4019966206929
 20
147.8904964196087
 30
0.0
 11
963.3823121586928
 21
147.8841567771316
 31
0.0
  0
LINE
  5
BEAF
330
209
100
AcDbEntity
  8
0
100
AcDbLine
 10
963.3823121586928
 20
147.8841567771316
 30
0.0
 11
963.372525169991
 21
147.8942882347737
 31
0.0
  0
LINE
  5
BEB0
330
209
100
AcDbEntity
  8
0
100
AcDbLine
 10
963.372525169991
 20
147.8942882347737
 30
0.0
 11
963.3725251699427
 21
147.8946746229127
 31
0.0
  0
LINE
  5
BEB1
330
209
100
AcDbEntity
  8
0
100
AcDbLine
 10
963.3725251699427
 20
147.8946746229127
 30
0.0
 11
963.3629966206928
 21
147.9079490325798
 31
0.0
  0
LINE
  5
BEB2
330
209
100
AcDbEntity
  8
0
100
AcDbLine
 10
963.3629966206928
 20
147.9079490325798
 30
0.0
 11
963.3431829389794
 21
147.9036182026107
 31
0.0
  0
LINE
  5
BEB3
330
209
100
AcDbEntity
  8
0
100
AcDbLine
 10
963.3431829389794
 20
147.9036182026107
 30
0.0
 11
963.3335251699428
 21
147.8870662191194
 31
0.0
  0
LINE
  5
BEB4
330
209
100
AcDbEntity
  8
0
100
AcDbLine
 10
963.3335251699428
 20
147.8870662191194
 30
0.0
 11
963.3335251699721
 21
147.886683762415
 31
0.0
  0
LINE
  5
BEB5
330
209
100
AcDbEntity
  8
0
100
AcDbLine
 10
963.3335251699721
 20
147.886683762415
 30
0.0
 11
963.343820884074
 21
147.8750559451335
 31
0.0
  0
LINE
  5
BEB6
330
209
100
AcDbEntity
  8
0
100
AcDbLine
 10
963.343820884074
 20
147.8750559451335
 30
0.0
 11
963.3629966206928
 21
147.8790614150013
 31
0.0
  0
LINE
  5
BEB7
330
209
100
AcDbEntity
  8
0
100
AcDbLine
 10
963.3629966206928
 20
147.8790614150013
 30
0.0
 11
963.3725251699427
 21
147.8942882347658
 31
0.0
  0
LINE
  5
BEB8
330
209
100
AcDbEntity
  8
0
100
AcDbLine
 10
963.3335251699428
 20
147.8866837623658
 30
0.0
 11
963.3239966207026
 21
147.8719790443582
 31
0.0
  0
LINE
  5
BEB9
330
209
100
AcDbEntity
  8
0
100
AcDbLine
 10
963.3239966207026
 20
147.8719790443582
 30
0.0
 11
963.3043121586359
 21
147.8699660187472
 31
0.0
  0
LINE
  5
BEBA
330
209
100
AcDbEntity
  8
0
100
AcDbLine
 10
963.3043121586359
 20
147.8699660187472
 30
0.0
 11
963.2945251699426
 21
147.8829402304032
 31
0.0
  0
LINE
  5
BEBB
330
209
100
AcDbEntity
  8
0
100
AcDbLine
 10
963.2945251699426
 20
147.8829402304032
 30
0.0
 11
963.2945251699604
 21
147.8833208111946
 31
0.0
  0
LINE
  5
BEBC
330
209
100
AcDbEntity
  8
0
100
AcDbLine
 10
963.2945251699604
 20
147.8833208111946
 30
0.0
 11
963.2849966206588
 21
147.8973078279945
 31
0.0
  0
LINE
  5
BEBD
330
209
100
AcDbEntity
  8
0
100
AcDbLine
 10
963.2849966341634
 20
147.8689821091458
 30
0.0
 11
963.2945251699426
 21
147.8829402304032
 31
0.0
  0
LINE
  5
BEBE
330
209
100
AcDbEntity
  8
0
100
AcDbLine
 10
963.2945251699604
 20
147.8833208111946
 30
0.0
 11
963.3043827815999
 21
147.8983502013825
 31
0.0
  0
LINE
  5
BEBF
330
209
100
AcDbEntity
  8
0
100
AcDbLine
 10
963.3043827815999
 20
147.8983502013825
 30
0.0
 11
963.3239966206929
 21
147.9004677070107
 31
0.0
  0
LINE
  5
BEC0
330
209
100
AcDbEntity
  8
0
100
AcDbLine
 10
963.3239966206929
 20
147.9004677070107
 30
0.0
 11
963.3335251699428
 21
147.8870662191194
 31
0.0
  0
LINE
  5
BEC1
330
209
100
AcDbEntity
  8
0
100
AcDbLine
 10
963.3725251699427
 20
147.8946746228317
 30
0.0
 11
963.3821829389425
 21
147.9077432856444
 31
0.0
  0
LINE
  5
BEC2
330
209
100
AcDbEntity
  8
0
100
AcDbLine
 10
963.3821829389425
 20
147.9077432856444
 30
0.0
 11
963.3867383680197
 21
147.9091328508297
 31
0.0
  0
ARC
  5
BEC3
330
209
100
AcDbEntity
  8
0
100
AcDbCircle
 10
963.2757399978935
 20
148.2212293677914
 30
0.0
 40
0.4133790135683793
100
AcDbArc
 50
295.3311649613673
 51
300.4017602999581
  0
ARC
  5
BEC4
330
209
100
AcDbEntity
  8
0
100
AcDbCircle
 10
963.2757399978935
 20
148.2212293677914
 30
0.0
 40
0.4133790135683793
100
AcDbArc
 50
289.4855183860191
 51
294.7432388535375
  0
ARC
  5
BEC5
330
209
100
AcDbEntity
  8
0
100
AcDbCircle
 10
963.2757399978935
 20
148.2212293677914
 30
0.0
 40
0.4133790135683793
100
AcDbArc
 50
283.833496355858
 51
288.9168462106747
  0
ARC
  5
BEC6
330
209
100
AcDbEntity
  8
0
100
AcDbCircle
 10
963.2757399978935
 20
148.2212293677914
 30
0.0
 40
0.4133790135683793
100
AcDbArc
 50
278.3109882559454
 51
283.2938080850799
  0
ARC
  5
BEC7
330
209
100
AcDbEntity
  8
0
100
AcDbCircle
 10
963.2757399978935
 20
148.2212293677914
 30
0.0
 40
0.4133790135683793
100
AcDbArc
 50
272.8819507166018
 51
277.7931450399894
  0
ARC
  5
BEC8
330
209
100
AcDbEntity
  8
0
100
AcDbCircle
 10
963.2752398647289
 20
148.2357446079239
 30
0.0
 40
0.4279025566502125
100
AcDbArc
 50
269.9883074946905
 51
272.341757250179
  0
LINE
  5
BEC9
330
209
100
AcDbEntity
  8
0
100
AcDbLine
 10
963.3432929677519
 20
147.8203751583312
 30
0.0
 11
963.3629583953263
 21
147.8242280202555
 31
0.0
  0
LINE
  5
BECA
330
209
100
AcDbEntity
  8
0
100
AcDbLine
 10
963.3707942553829
 20
147.8189273705407
 30
0.0
 11
963.3629583953263
 21
147.8242280202555
 31
0.0
  0
LINE
  5
BECB
330
209
100
AcDbEntity
  8
0
100
AcDbLine
 10
963.3354922687317
 20
147.8121916250482
 30
0.0
 11
963.3432929677519
 21
147.8203751583312
 31
0.0
  0
LINE
  5
BECC
330
209
100
AcDbEntity
  8
0
100
AcDbLine
 10
963.3317929672022
 20
147.8116682936029
 30
0.0
 11
963.3240276872115
 21
147.8176825768076
 31
0.0
  0
LINE
  5
BECD
330
209
100
AcDbEntity
  8
0
100
AcDbLine
 10
963.2965240008704
 20
147.8083731772371
 30
0.0
 11
963.304241861795
 21
147.8157890450498
 31
0.0
  0
LINE
  5
BECE
330
209
100
AcDbEntity
  8
0
100
AcDbLine
 10
963.304241861795
 20
147.8157890450498
 30
0.0
 11
963.3240276872115
 21
147.8176825768076
 31
0.0
  0
LINE
  5
BECF
330
209
100
AcDbEntity
  8
0
100
AcDbLine
 10
963.2927239615616
 20
147.8081994005531
 30
0.0
 11
963.2849390707216
 21
147.8150175176921
 31
0.0
  0
LINE
  5
BED0
330
209
100
AcDbEntity
  8
0
100
AcDbLine
 10
963.3745794007785
 20
147.8198405521823
 30
0.0
 11
963.38218926793
 21
147.82878367183
 31
0.0
  0
LINE
  5
BED1
330
209
100
AcDbEntity
  8
0
100
AcDbLine
 10
963.4097556444578
 20
147.8301769220316
 30
0.0
 11
963.4020609994919
 21
147.8347414286047
 31
0.0
  0
LINE
  5
BED2
330
209
100
AcDbEntity
  8
0
100
AcDbLine
 10
963.38218926793
 20
147.82878367183
 30
0.0
 11
963.4020609994919
 21
147.8347414286047
 31
0.0
  0
LINE
  5
BED3
330
209
100
AcDbEntity
  8
0
100
AcDbLine
 10
963.4136302543204
 20
147.831526293591
 30
0.0
 11
963.42130717083
 21
147.8415104715223
 31
0.0
  0
LINE
  5
BED4
330
209
100
AcDbEntity
  8
0
100
AcDbLine
 10
963.42130717083
 20
147.8415104715223
 30
0.0
 11
963.4410999204281
 21
147.8494909357084
 31
0.0
  0
LINE
  5
BED5
330
209
100
AcDbEntity
  8
0
100
AcDbLine
 10
963.4487608463459
 20
147.8458016186045
 30
0.0
 11
963.4410999204281
 21
147.8494909357084
 31
0.0
  0
LINE
  5
BED6
330
209
100
AcDbEntity
  8
0
100
AcDbLine
 10
963.4602034636925
 20
147.8584999204727
 30
0.0
 11
963.4526040264816
 21
147.8475967618128
 31
0.0
  0
LINE
  5
BED7
330
209
100
AcDbEntity
  8
0
100
AcDbLine
 10
963.4800061818378
 20
147.869295036069
 30
0.0
 11
963.4602034636925
 21
147.8584999204727
 31
0.0
  0
LINE
  5
BED8
330
209
100
AcDbEntity
  8
0
100
AcDbLine
 10
963.4898484504111
 20
147.8658038197502
 30
0.0
 11
963.4800061818378
 21
147.869295036069
 31
0.0
  0
LINE
  5
BED9
330
209
100
AcDbEntity
  8
0
100
AcDbLine
 10
963.4875967180096
 20
147.8624209584243
 30
0.0
 11
963.4898484504111
 21
147.8658038197502
 31
0.0
  0
LINE
  5
BEDA
330
209
100
AcDbEntity
  8
0
100
AcDbLine
 10
963.4849346901837
 20
147.8646907449518
 30
0.0
 11
963.4875967180096
 21
147.8624209584243
 31
0.0
  0
ARC
  5
BEDB
330
209
100
AcDbEntity
  8
0
100
AcDbCircle
 10
963.2751797518963
 20
148.1751769062539
 30
0.0
 40
0.4177015219203724
100
AcDbArc
 50
272.9241566168272
 51
277.7933607706581
  0
ARC
  5
BEDC
330
209
100
AcDbEntity
  8
0
100
AcDbCircle
 10
963.2754036247801
 20
148.1735535070088
 30
0.0
 40
0.4160626714511112
100
AcDbArc
 50
278.3032745853626
 51
283.2577879392451
  0
ARC
  5
BEDD
330
209
100
AcDbEntity
  8
0
100
AcDbCircle
 10
963.3035633329708
 20
147.8433610364023
 30
0.0
 40
0.0867581993920245
100
AcDbArc
 50
283.6222767964039
 51
289.0079339399422
  0
ARC
  5
BEDE
330
209
100
AcDbEntity
  8
0
100
AcDbCircle
 10
963.3110476944723
 20
147.8573319336084
 30
0.0
 40
0.1003742059185037
100
AcDbArc
 50
261.6598051207695
 51
266.1523183383383
  0
ARC
  5
BEDF
330
209
100
AcDbEntity
  8
0
100
AcDbCircle
 10
963.2751899090367
 20
148.1706065239086
 30
0.0
 40
0.414446993020608
100
AcDbArc
 50
274.0293649181093
 51
276.7630434187476
  0
ARC
  5
BEE0
330
209
100
AcDbEntity
  8
0
100
AcDbCircle
 10
963.3400706857383
 20
147.8572726760179
 30
0.0
 40
0.0955304418592017
100
AcDbArc
 50
267.2506408435121
 51
271.9444940781193
  0
ARC
  5
BEE1
330
209
100
AcDbEntity
  8
0
100
AcDbCircle
 10
963.2754409020488
 20
148.1689006587699
 30
0.0
 40
0.4127223013578617
100
AcDbArc
 50
279.4651550555256
 51
282.2479047957051
  0
ARC
  5
BEE2
330
209
100
AcDbEntity
  8
0
100
AcDbCircle
 10
963.2983931502193
 20
147.9453247635568
 30
0.0
 40
0.1910092261043988
100
AcDbArc
 50
289.7685657731153
 51
292.2830192195606
  0
ARC
  5
BEE3
330
209
100
AcDbEntity
  8
0
100
AcDbCircle
 10
963.276041100693
 20
148.1708419893098
 30
0.0
 40
0.4132770806991502
100
AcDbArc
 50
283.780995242901
 51
288.8870541728636
  0
ARC
  5
BEE4
330
209
100
AcDbEntity
  8
0
100
AcDbCircle
 10
963.3691191810825
 20
147.8612004322491
 30
0.0
 40
0.0918956473113344
100
AcDbArc
 50
273.3495361939278
 51
278.2541771517484
  0
ARC
  5
BEE5
330
209
100
AcDbEntity
  8
0
100
AcDbCircle
 10
963.2761649948092
 20
148.1659713213621
 30
0.0
 40
0.4097038577774396
100
AcDbArc
 50
285.0156372111815
 51
287.8862500032141
  0
ARC
  5
BEE6
330
209
100
AcDbEntity
  8
0
100
AcDbCircle
 10
963.2922090633073
 20
148.0153394401556
 30
0.0
 40
0.263255671704776
100
AcDbArc
 50
294.6477100626526
 51
296.535811191002
  0
ARC
  5
BEE7
330
209
100
AcDbEntity
  8
0
100
AcDbCircle
 10
963.3860725548224
 20
147.9262791379795
 30
0.0
 40
0.1477539274391769
100
AcDbArc
 50
280.6932334400619
 51
283.8843335610632
  0
ARC
  5
BEE8
330
209
100
AcDbEntity
  8
0
100
AcDbCircle
 10
963.2125976914117
 20
148.3151667948628
 30
0.0
 40
0.5718577332972873
100
AcDbArc
 50
291.4293454532672
 51
293.5405602538812
  0
ARC
  5
BEE9
330
209
100
AcDbEntity
  8
0
100
AcDbCircle
 10
963.4144829632283
 20
147.8456244806528
 30
0.0
 40
0.0608086600157069
100
AcDbArc
 50
295.8500750405545
 51
304.3800732475994
  0
ARC
  5
BEEA
330
209
100
AcDbEntity
  8
0
100
AcDbCircle
 10
963.2773083739969
 20
148.1671247486557
 30
0.0
 40
0.4093495445982086
100
AcDbArc
 50
289.4311652724665
 51
294.7706315074933
  0
ARC
  5
BEEB
330
209
100
AcDbEntity
  8
0
100
AcDbCircle
 10
963.2719844625489
 20
148.1730771874402
 30
0.0
 40
0.418307488665011
100
AcDbArc
 50
276.5505244008939
 51
295.7807752451349
  0
ARC
  5
BEEC
330
209
100
AcDbEntity
  8
0
100
AcDbCircle
 10
963.2758758014414
 20
148.1336986837744
 30
0.0
 40
0.3787426584652431
100
AcDbArc
 50
269.8905859511631
 51
276.6452761797629
  0
ARC
  5
BEED
330
209
100
AcDbEntity
  8
0
100
AcDbCircle
 10
963.2751864850293
 20
148.1847648015341
 30
0.0
 40
0.4224778969967399
100
AcDbArc
 50
269.9953966316102
 51
286.5372326491754
  0
ARC
  5
BEEE
330
209
100
AcDbEntity
  8
0
100
AcDbCircle
 10
963.2778544736451
 20
148.1757671347758
 30
0.0
 40
0.4130930071120674
100
AcDbArc
 50
286.5377117023818
 51
300.4639581129195
  0
LINE
  5
BEEF
330
209
100
AcDbEntity
  8
0
100
AcDbLine
 10
963.526837866717
 20
147.8568262429221
 30
0.0
 11
963.5189966207613
 21
147.8473562274746
 31
0.0
  0
LINE
  5
BEF0
330
209
100
AcDbEntity
  8
0
100
AcDbLine
 10
963.5189966207613
 20
147.8473562274746
 30
0.0
 11
963.4993121586928
 21
147.8341264362565
 31
0.0
  0
LINE
  5
BEF1
330
209
100
AcDbEntity
  8
0
100
AcDbLine
 10
963.4993121586928
 20
147.8341264362565
 30
0.0
 11
963.4906500587236
 21
147.8330538478104
 31
0.0
  0
LINE
  5
BEF2
330
209
100
AcDbEntity
  8
0
100
AcDbLine
 10
963.4906499042928
 20
147.8343171243106
 30
0.0
 11
963.4993121586791
 21
147.8446622178356
 31
0.0
  0
LINE
  5
BEF3
330
209
100
AcDbEntity
  8
0
100
AcDbLine
 10
963.4993121586791
 20
147.8446622178356
 30
0.0
 11
963.5189966206928
 21
147.8578920089106
 31
0.0
  0
LINE
  5
BEF4
330
209
100
AcDbEntity
  8
0
100
AcDbLine
 10
963.5189966206928
 20
147.8578920089106
 30
0.0
 11
963.5251921716879
 21
147.8586555004391
 31
0.0
  0
LINE
  5
BEF5
330
209
100
AcDbEntity
  8
0
100
AcDbLine
 10
963.5288388516141
 20
147.8496954186621
 30
0.0
 11
963.5189966206928
 21
147.8461211095142
 31
0.0
  0
LINE
  5
BEF6
330
209
100
AcDbEntity
  8
0
100
AcDbLine
 10
963.5189966206928
 20
147.8461211095142
 30
0.0
 11
963.4993121586928
 21
147.8328797560523
 31
0.0
  0
LINE
  5
BEF7
330
209
100
AcDbEntity
  8
0
100
AcDbLine
 10
963.4993121586928
 20
147.8328797560523
 30
0.0
 11
963.4896543896829
 21
147.8230779284979
 31
0.0
  0
LINE
  5
BEF8
330
209
100
AcDbEntity
  8
0
100
AcDbLine
 10
963.4896543896829
 20
147.8230779284979
 30
0.0
 11
963.4993121586928
 21
147.8261097207106
 31
0.0
  0
LINE
  5
BEF9
330
209
100
AcDbEntity
  8
0
100
AcDbLine
 10
963.4993121586928
 20
147.8261097207106
 30
0.0
 11
963.5189966206356
 21
147.8395150043337
 31
0.0
  0
LINE
  5
BEFA
330
209
100
AcDbEntity
  8
0
100
AcDbLine
 10
963.5189966206356
 20
147.8395150043337
 30
0.0
 11
963.5288388516141
 21
147.8496954186621
 31
0.0
  0
LINE
  5
BEFB
330
209
100
AcDbEntity
  8
0
100
AcDbLine
 10
963.5209979500181
 20
147.8624388895407
 30
0.0
 11
963.5189966206928
 21
147.8596886657821
 31
0.0
  0
LINE
  5
BEFC
330
209
100
AcDbEntity
  8
0
100
AcDbLine
 10
963.5189966206928
 20
147.8596886657821
 30
0.0
 11
963.4993121586928
 21
147.8464473121765
 31
0.0
  0
LINE
  5
BEFD
330
209
100
AcDbEntity
  8
0
100
AcDbLine
 10
963.4993121586928
 20
147.8464473121765
 30
0.0
 11
963.4896543896928
 21
147.847112065354
 31
0.0
  0
LINE
  5
BEFE
330
209
100
AcDbEntity
  8
0
100
AcDbLine
 10
963.4896543896928
 20
147.847112065354
 30
0.0
 11
963.4993121586928
 21
147.8607488398137
 31
0.0
  0
LINE
  5
BEFF
330
209
100
AcDbEntity
  8
0
100
AcDbLine
 10
963.4993121586928
 20
147.8607488398137
 30
0.0
 11
963.5123829843292
 21
147.8694066285459
 31
0.0
  0
ARC
  5
BF00
330
209
100
AcDbEntity
  8
0
100
AcDbCircle
 10
963.2757890684384
 20
148.2114508364453
 30
0.0
 40
0.4182626999796013
100
AcDbArc
 50
269.912805225948
 51
300.3756671415743
  0
LINE
  5
BF01
330
209
100
AcDbEntity
  8
0
100
AcDbLine
 10
963.4896543899964
 20
147.8230779285962
 30
0.0
 11
963.4799966205846
 21
147.8314600034942
 31
0.0
  0
LINE
  5
BF02
330
209
100
AcDbEntity
  8
0
100
AcDbLine
 10
963.4799966205846
 20
147.8314600034942
 30
0.0
 11
963.4639158718993
 21
147.8378841482888
 31
0.0
  0
LINE
  5
BF03
330
209
100
AcDbEntity
  8
0
100
AcDbLine
 10
963.4655855308224
 20
147.8387296757381
 30
0.0
 11
963.4799966206928
 21
147.8329758907106
 31
0.0
  0
LINE
  5
BF04
330
209
100
AcDbEntity
  8
0
100
AcDbLine
 10
963.4799966206928
 20
147.8329758907106
 30
0.0
 11
963.4896543896928
 21
147.8340245987106
 31
0.0
  0
LINE
  5
BF05
330
209
100
AcDbEntity
  8
0
100
AcDbLine
 10
963.4896543896928
 20
147.8340245987106
 30
0.0
 11
963.4896543896928
 21
147.8342220591107
 31
0.0
  0
LINE
  5
BF06
330
209
100
AcDbEntity
  8
0
100
AcDbLine
 10
963.4896543896928
 20
147.8342220591107
 30
0.0
 11
963.4906499041255
 21
147.8343171241108
 31
0.0
  0
LINE
  5
BF07
330
209
100
AcDbEntity
  8
0
100
AcDbLine
 10
963.4906506627126
 20
147.8330539225996
 30
0.0
 11
963.490058244308
 21
147.8336311478857
 31
0.0
  0
LINE
  5
BF08
330
209
100
AcDbEntity
  8
0
100
AcDbLine
 10
963.490058244308
 20
147.8336311478857
 30
0.0
 11
963.4896543896884
 21
147.8340245987883
 31
0.0
  0
LINE
  5
BF09
330
209
100
AcDbEntity
  8
0
100
AcDbLine
 10
963.4896543896928
 20
147.8342220591107
 30
0.0
 11
963.4799966206928
 21
147.8435116722769
 31
0.0
  0
LINE
  5
BF0A
330
209
100
AcDbEntity
  8
0
100
AcDbLine
 10
963.4799966206928
 20
147.8435116722769
 30
0.0
 11
963.4769811152688
 21
147.844755475798
 31
0.0
  0
LINE
  5
BF0B
330
209
100
AcDbEntity
  8
0
100
AcDbLine
 10
963.4872908883446
 20
147.8506036854651
 30
0.0
 11
963.4883322461638
 21
147.8475589858271
 31
0.0
  0
LINE
  5
BF0C
330
209
100
AcDbEntity
  8
0
100
AcDbLine
 10
963.4883322461638
 20
147.8475589858271
 30
0.0
 11
963.4896543896928
 21
147.8471120654107
 31
0.0
  0
LINE
  5
BF0D
330
209
100
AcDbEntity
  8
0
100
AcDbLine
 10
963.4883322461194
 20
147.8475589858302
 30
0.0
 11
963.485978821434
 21
147.8498378392598
 31
0.0
  0
ARC
  5
BF0E
330
209
100
AcDbEntity
  8
0
100
AcDbCircle
 10
963.3156533895999
 20
148.09145072284
 30
0.0
 40
0.3245527580362589
100
AcDbArc
 50
294.9363342463754
 51
302.4588557184253
  0
ARC
  5
BF0F
330
209
100
AcDbEntity
  8
0
100
AcDbCircle
 10
963.4248750179168
 20
147.8845407388797
 30
0.0
 40
0.0916459199625932
100
AcDbArc
 50
287.5359939569664
 51
292.7477350169917
  0
ARC
  5
BF10
330
209
100
AcDbEntity
  8
0
100
AcDbCircle
 10
963.4163817428024
 20
147.9047971464925
 30
0.0
 40
0.1136108413496986
100
AcDbArc
 50
292.7477350169917
 51
304.0514191825311
  0
ARC
  5
BF11
330
209
100
AcDbEntity
  8
0
100
AcDbCircle
 10
963.3066042908577
 20
148.0672342711594
 30
0.0
 40
0.3096641719144309
100
AcDbArc
 50
304.0514191825311
 51
306.2791775172348
  0
LINE
  5
BF12
330
209
100
AcDbEntity
  8
0
100
AcDbLine
 10
963.3297843075963
 20
147.9151606504132
 30
0.0
 11
963.3239966205691
 21
147.9049163922003
 31
0.0
  0
LINE
  5
BF13
330
209
100
AcDbEntity
  8
0
100
AcDbLine
 10
963.3239966205691
 20
147.9049163922003
 30
0.0
 11
963.304312158776
 21
147.902774054536
 31
0.0
  0
LINE
  5
BF14
330
209
100
AcDbEntity
  8
0
100
AcDbLine
 10
963.304312158776
 20
147.902774054536
 30
0.0
 11
963.2953447006869
 21
147.9167181985176
 31
0.0
  0
LINE
  5
BF15
330
209
100
AcDbEntity
  8
0
100
AcDbLine
 10
963.304241861795
 20
147.8157890450498
 30
0.0
 11
963.3044240403075
 21
147.8088467365258
 31
0.0
  0
LINE
  5
BF16
330
209
100
AcDbEntity
  8
0
100
AcDbLine
 10
963.3240276872115
 20
147.8176825768076
 30
0.0
 11
963.324690301334
 21
147.8107588126333
 31
0.0
  0
LINE
  5
BF17
330
209
100
AcDbEntity
  8
0
100
AcDbLine
 10
963.3432929677519
 20
147.8203751583312
 30
0.0
 11
963.3430805055164
 21
147.8133722054271
 31
0.0
  0
LINE
  5
BF18
330
209
100
AcDbEntity
  8
0
100
AcDbLine
 10
963.3629583953263
 20
147.8242280202555
 30
0.0
 11
963.3629583953263
 21
147.8171561565932
 31
0.0
  0
LINE
  5
BF19
330
209
100
AcDbEntity
  8
0
100
AcDbLine
 10
963.4020609994919
 20
147.8347414286047
 30
0.0
 11
963.4020609994919
 21
147.8276239646096
 31
0.0
  0
LINE
  5
BF1A
330
209
100
AcDbEntity
  8
0
100
AcDbLine
 10
963.42130717083
 20
147.8415104715223
 30
0.0
 11
963.42130717083
 21
147.8343283377824
 31
0.0
  0
LINE
  5
BF1B
330
209
100
AcDbEntity
  8
0
100
AcDbLine
 10
963.4410999204281
 20
147.8494909357084
 30
0.0
 11
963.4410999204281
 21
147.8423648737066
 31
0.0
  0
LINE
  5
BF1C
330
209
100
AcDbEntity
  8
0
100
AcDbLine
 10
963.4602034636925
 20
147.8584999204727
 30
0.0
 11
963.4602034636925
 21
147.8512895907409
 31
0.0
  0
LINE
  5
BF1D
330
209
100
AcDbEntity
  8
0
100
AcDbLine
 10
963.4800061818378
 20
147.869295036069
 30
0.0
 11
963.4800061818378
 21
147.8618444279906
 31
0.0
  0
LINE
  5
BF1E
330
209
100
AcDbEntity
  8
0
100
AcDbLine
 10
963.4799966207546
 20
147.8722759005137
 30
0.0
 11
963.4799966207546
 21
147.8858701389646
 31
0.0
  0
LINE
  5
BF1F
330
209
100
AcDbEntity
  8
0
100
AcDbLine
 10
963.4603121587829
 20
147.8615891936003
 30
0.0
 11
963.4603121586817
 21
147.8832382220845
 31
0.0
  0
LINE
  5
BF20
330
209
100
AcDbEntity
  8
0
100
AcDbLine
 10
963.4409966207066
 20
147.8524311181428
 30
0.0
 11
963.4419474146104
 21
147.8731385297779
 31
0.0
  0
LINE
  5
BF21
330
209
100
AcDbEntity
  8
0
100
AcDbLine
 10
963.4213121588068
 20
147.84434342228
 30
0.0
 11
963.4213121586711
 21
147.8654231346447
 31
0.0
  0
LINE
  5
BF22
330
209
100
AcDbEntity
  8
0
100
AcDbLine
 10
963.4213121586929
 20
147.8939539490106
 30
0.0
 11
963.4213104134859
 21
147.8689935553698
 31
0.0
  0
LINE
  5
BF23
330
209
100
AcDbEntity
  8
0
100
AcDbLine
 10
963.4408881823446
 20
147.877084820673
 30
0.0
 11
963.4408881823446
 21
147.8985113925953
 31
0.0
  0
LINE
  5
BF24
330
209
100
AcDbEntity
  8
0
100
AcDbLine
 10
963.4019966206208
 20
147.8616992920795
 30
0.0
 11
963.4019966206929
 21
147.8865963544708
 31
0.0
  0
LINE
  5
BF25
330
209
100
AcDbEntity
  8
0
100
AcDbLine
 10
963.4019966206929
 20
147.8904964196087
 30
0.0
 11
963.4019966206929
 21
147.906689727723
 31
0.0
  0
LINE
  5
BF26
330
209
100
AcDbEntity
  8
0
100
AcDbLine
 10
963.3823121586928
 20
147.8841567771316
 30
0.0
 11
963.3823121586928
 21
147.9073196629072
 31
0.0
  0
LINE
  5
BF27
330
209
100
AcDbEntity
  8
0
100
AcDbLine
 10
963.3822037203277
 20
147.8556643967106
 30
0.0
 11
963.3823121586928
 21
147.8803019493106
 31
0.0
  0
LINE
  5
BF28
330
209
100
AcDbEntity
  8
0
100
AcDbLine
 10
963.3823121586928
 20
147.8524134405892
 30
0.0
 11
963.3823121586896
 21
147.8317144569202
 31
0.0
  0
LINE
  5
BF29
330
209
100
AcDbEntity
  8
0
100
AcDbLine
 10
963.4019966206288
 20
147.8584178899033
 30
0.0
 11
963.4019966206929
 21
147.8375466098106
 31
0.0
  0
LINE
  5
BF2A
330
209
100
AcDbEntity
  8
0
100
AcDbLine
 10
963.38218926793
 20
147.82878367183
 30
0.0
 11
963.38218926793
 21
147.8217913103063
 31
0.0
  0
LINE
  5
BF2B
330
209
100
AcDbEntity
  8
0
100
AcDbLine
 10
963.362850879105
 20
147.8269829906858
 30
0.0
 11
963.3629966206928
 21
147.8475790293519
 31
0.0
  0
LINE
  5
BF2C
330
209
100
AcDbEntity
  8
0
100
AcDbLine
 10
963.3629966206928
 20
147.8508062267049
 30
0.0
 11
963.3629966206928
 21
147.8752417240755
 31
0.0
  0
LINE
  5
BF2D
330
209
100
AcDbEntity
  8
0
100
AcDbLine
 10
963.3629966206928
 20
147.8790614150013
 30
0.0
 11
963.3629966206928
 21
147.9079490325798
 31
0.0
  0
LINE
  5
BF2E
330
209
100
AcDbEntity
  8
0
100
AcDbLine
 10
963.3431829389794
 20
147.9036182026107
 30
0.0
 11
963.343820884074
 21
147.8750559451335
 31
0.0
  0
LINE
  5
BF2F
330
209
100
AcDbEntity
  8
0
100
AcDbLine
 10
963.3433121586929
 20
147.8711714244107
 30
0.0
 11
963.3433121586929
 21
147.8468943800831
 31
0.0
  0
LINE
  5
BF30
330
209
100
AcDbEntity
  8
0
100
AcDbLine
 10
963.3433121587296
 20
147.8436858468858
 30
0.0
 11
963.3433121586929
 21
147.8232274337288
 31
0.0
  0
LINE
  5
BF31
330
209
100
AcDbEntity
  8
0
100
AcDbLine
 10
963.3239966206227
 20
147.820464887186
 30
0.0
 11
963.3239966206929
 21
147.8408474654106
 31
0.0
  0
LINE
  5
BF32
330
209
100
AcDbEntity
  8
0
100
AcDbLine
 10
963.3239966206929
 20
147.8440426463977
 30
0.0
 11
963.3239966206929
 21
147.8682064808026
 31
0.0
  0
LINE
  5
BF33
330
209
100
AcDbEntity
  8
0
100
AcDbLine
 10
963.3239966207026
 20
147.8719790443582
 30
0.0
 11
963.3239966206929
 21
147.9004677070107
 31
0.0
  0
LINE
  5
BF34
330
209
100
AcDbEntity
  8
0
100
AcDbLine
 10
963.3239966205691
 20
147.9049163922003
 30
0.0
 11
963.3239966205691
 21
147.9155233154973
 31
0.0
  0
LINE
  5
BF35
330
209
100
AcDbEntity
  8
0
100
AcDbLine
 10
963.304312158776
 20
147.902774054536
 30
0.0
 11
963.304312158776
 21
147.9164514917266
 31
0.0
  0
LINE
  5
BF36
330
209
100
AcDbEntity
  8
0
100
AcDbLine
 10
963.3043121586359
 20
147.8699660187472
 30
0.0
 11
963.3043827815999
 21
147.8983502013825
 31
0.0
  0
LINE
  5
BF37
330
209
100
AcDbEntity
  8
0
100
AcDbLine
 10
963.3043121586744
 20
147.8662065014941
 30
0.0
 11
963.3043309502882
 21
147.842119373995
 31
0.0
  0
LINE
  5
BF38
330
209
100
AcDbEntity
  8
0
100
AcDbLine
 10
963.3043121587432
 20
147.8389317160797
 30
0.0
 11
963.3043121586927
 21
147.8185996788107
 31
0.0
  0
LINE
  5
BF39
330
209
100
AcDbEntity
  8
0
100
AcDbLine
 10
963.2849966341634
 20
147.8689821091458
 30
0.0
 11
963.2653084488223
 21
147.8689821091458
 31
0.0
  0
LINE
  5
BF3A
330
209
100
AcDbEntity
  8
0
100
AcDbLine
 10
963.2849966206588
 20
147.8973078279945
 30
0.0
 11
963.2653084623269
 21
147.8973078279945
 31
0.0
  0
LINE
  5
BF3B
330
209
100
AcDbEntity
  8
0
100
AcDbLine
 10
963.2849966205572
 20
147.9017281057106
 30
0.0
 11
963.2653084624285
 21
147.9017281057106
 31
0.0
  0
LINE
  5
BF3C
330
209
100
AcDbEntity
  8
0
100
AcDbLine
 10
963.2849966205572
 20
147.9017281057106
 30
0.0
 11
963.2940259955518
 21
147.9167491867535
 31
0.0
  0
LINE
  5
BF3D
330
209
100
AcDbEntity
  8
0
100
AcDbLine
 10
963.2849966206928
 20
147.8652294422256
 30
0.0
 11
963.2653084622928
 21
147.8652294422256
 31
0.0
  0
LINE
  5
BF3E
330
209
100
AcDbEntity
  8
0
100
AcDbLine
 10
963.2849966206928
 20
147.8379954770059
 30
0.0
 11
963.2653084622928
 21
147.8379954770059
 31
0.0
  0
LINE
  5
BF3F
330
209
100
AcDbEntity
  8
0
100
AcDbLine
 10
963.4993121586928
 20
147.8607488398137
 30
0.0
 11
963.4993121586928
 21
147.8464473121765
 31
0.0
  0
LINE
  5
BF40
330
209
100
AcDbEntity
  8
0
100
AcDbLine
 10
963.5189966206928
 20
147.8596886657821
 30
0.0
 11
963.5189966206928
 21
147.8642885852996
 31
0.0
  0
LINE
  5
BF41
330
209
100
AcDbEntity
  8
0
100
AcDbLine
 10
963.5189966207613
 20
147.8473562274746
 30
0.0
 11
963.5189966206928
 21
147.8578920089106
 31
0.0
  0
LINE
  5
BF42
330
209
100
AcDbEntity
  8
0
100
AcDbLine
 10
963.4993121586791
 20
147.8446622178356
 30
0.0
 11
963.4993121586928
 21
147.8341264362565
 31
0.0
  0
LINE
  5
BF43
330
209
100
AcDbEntity
  8
0
100
AcDbLine
 10
963.5189966206928
 20
147.8461211095142
 30
0.0
 11
963.5189966206356
 21
147.8395150043337
 31
0.0
  0
LINE
  5
BF44
330
209
100
AcDbEntity
  8
0
100
AcDbLine
 10
963.4993121586928
 20
147.8261097207106
 30
0.0
 11
963.4993121586928
 21
147.8328797560523
 31
0.0
  0
LINE
  5
BF45
330
209
100
AcDbEntity
  8
0
100
AcDbLine
 10
963.4799966206928
 20
147.8329758907106
 30
0.0
 11
963.4799966206928
 21
147.8435116722769
 31
0.0
  0
LINE
  5
BF46
330
209
100
AcDbEntity
  8
0
100
AcDbLine
 10
963.4603121586929
 20
147.8000233814944
 30
0.0
 11
963.4603121586929
 21
147.8009196001122
 31
0.0
  0
LINE
  5
BF47
330
209
100
AcDbEntity
  8
0
100
AcDbLine
 10
963.4799966206562
 20
147.810666542607
 30
0.0
 11
963.4799966206562
 21
147.8115832628613
 31
0.0
  0
LINE
  5
BF48
330
209
100
AcDbEntity
  8
0
100
AcDbLine
 10
963.4409966206929
 20
147.7909004539299
 30
0.0
 11
963.4409966206929
 21
147.7919271906195
 31
0.0
  0
LINE
  5
BF49
330
209
100
AcDbEntity
  8
0
100
AcDbLine
 10
963.4215279728262
 20
147.7828422654261
 30
0.0
 11
963.4215279728262
 21
147.7840219465565
 31
0.0
  0
LINE
  5
BF4A
330
209
100
AcDbEntity
  8
0
100
AcDbLine
 10
963.4019966206928
 20
147.7760692144106
 30
0.0
 11
963.4019966206928
 21
147.7772265012852
 31
0.0
  0
LINE
  5
BF4B
330
209
100
AcDbEntity
  8
0
100
AcDbLine
 10
963.3823121587544
 20
147.7702567390378
 30
0.0
 11
963.3823121587544
 21
147.7714619602026
 31
0.0
  0
LINE
  5
BF4C
330
209
100
AcDbEntity
  8
0
100
AcDbLine
 10
963.3629966102621
 20
147.7655723855266
 30
0.0
 11
963.3629966102621
 21
147.7668157346426
 31
0.0
  0
LINE
  5
BF4D
330
209
100
AcDbEntity
  8
0
100
AcDbLine
 10
963.3433121587307
 20
147.7617972437086
 30
0.0
 11
963.3433121587307
 21
147.7630701607063
 31
0.0
  0
LINE
  5
BF4E
330
209
100
AcDbEntity
  8
0
100
AcDbLine
 10
963.3239966238404
 20
147.7590433882734
 30
0.0
 11
963.3239966238404
 21
147.7603378116302
 31
0.0
  0
LINE
  5
BF4F
330
209
100
AcDbEntity
  8
0
100
AcDbLine
 10
963.3043121586927
 20
147.7571839742106
 30
0.0
 11
963.3043121586927
 21
147.7584925361501
 31
0.0
  0
LINE
  5
BF50
330
209
100
AcDbEntity
  8
0
100
AcDbLine
 10
963.4872908883929
 20
147.8197019705106
 30
0.0
 11
963.4834879986856
 21
147.8213296179137
 31
0.0
  0
LINE
  5
BF51
330
209
100
AcDbEntity
  8
0
100
AcDbLine
 10
963.4834879986856
 20
147.8213296179137
 30
0.0
 11
963.483487998695
 21
147.8284298014289
 31
0.0
  0
LINE
  5
BF52
330
209
100
AcDbEntity
  8
0
100
AcDbLine
 10
963.4834879986929
 20
147.8213296179106
 30
0.0
 11
963.488332246152
 21
147.8218428770166
 31
0.0
  0
LINE
  5
BF53
330
209
100
AcDbEntity
  8
0
100
AcDbLine
 10
963.488332246152
 20
147.8218428770166
 30
0.0
 11
963.4896543899964
 21
147.8230779285962
 31
0.0
  0
LINE
  5
BF54
330
209
100
AcDbEntity
  8
0
100
AcDbLine
 10
963.4872908883929
 20
147.8197019705106
 30
0.0
 11
963.488332246152
 21
147.8218428770166
 31
0.0
  0
ARC
  5
BF55
330
209
100
AcDbEntity
  8
0
100
AcDbCircle
 10
963.3673731657113
 20
148.1106673104352
 30
0.0
 40
0.3502198134559196
100
AcDbArc
 50
281.7917097104762
 51
298.1691115815804
  0
LINE
  5
BF56
330
209
100
AcDbEntity
  8
0
100
AcDbLine
 10
963.2653084624285
 20
147.9017281057106
 30
0.0
 11
963.2653084624285
 21
147.9169046926842
 31
0.0
  0
LINE
  5
BF57
330
209
100
AcDbEntity
  8
0
100
AcDbLine
 10
963.2849966205572
 20
147.9017281057106
 30
0.0
 11
963.2849966205572
 21
147.9169046926842
 31
0.0
  0
LINE
  5
BF58
330
209
100
AcDbEntity
  8
0
100
AcDbLine
 10
963.2653084488223
 20
147.8689821091458
 30
0.0
 11
963.2653084488223
 21
147.8973078279945
 31
0.0
  0
LINE
  5
BF59
330
209
100
AcDbEntity
  8
0
100
AcDbLine
 10
963.2849966341634
 20
147.8689821091458
 30
0.0
 11
963.2849966206588
 21
147.8973078279945
 31
0.0
  0
LINE
  5
BF5A
330
209
100
AcDbEntity
  8
0
100
AcDbLine
 10
963.2848881822566
 20
147.8411774527265
 30
0.0
 11
963.2848881822566
 21
147.8652294422256
 31
0.0
  0
LINE
  5
BF5B
330
209
100
AcDbEntity
  8
0
100
AcDbLine
 10
963.265416900729
 20
147.8411774527265
 30
0.0
 11
963.2653084622928
 21
147.8652294422256
 31
0.0
  0
LINE
  5
BF5C
330
209
100
AcDbEntity
  8
0
100
AcDbLine
 10
963.2653084609797
 20
147.8176879551631
 30
0.0
 11
963.2653084622928
 21
147.8379954770059
 31
0.0
  0
LINE
  5
BF5D
330
209
100
AcDbEntity
  8
0
100
AcDbLine
 10
963.2849966220058
 20
147.8176879551631
 30
0.0
 11
963.2849966206928
 21
147.8379954770059
 31
0.0
  0
LINE
  5
BF5E
330
209
100
AcDbEntity
  8
0
100
AcDbLine
 10
963.2653660122642
 20
147.8150175176921
 30
0.0
 11
963.2653660122642
 21
147.8079519906537
 31
0.0
  0
LINE
  5
BF5F
330
209
100
AcDbEntity
  8
0
100
AcDbLine
 10
963.2849390707216
 20
147.8150175176921
 30
0.0
 11
963.2849390707216
 21
147.8079519906537
 31
0.0
  0
ARC
  5
BF61
330
209
100
AcDbEntity
  8
0
100
AcDbCircle
 10
963.3738250992115
 20
147.9949213253013
 30
0.0
 40
0.2140637171224175
100
AcDbArc
 50
291.972213261191
 51
317.4116148175668
  0
ARC
  5
BF62
330
209
100
AcDbEntity
  8
0
100
AcDbCircle
 10
963.2719844625489
 20
148.1730771874402
 30
0.0
 40
0.418307488665011
100
AcDbArc
 50
276.5505244009136
 51
295.7807752451349
  0
LINE
  5
BF63
330
209
100
AcDbEntity
  8
0
100
AcDbLine
 10
963.0934843022927
 20
147.8317742520106
 30
0.0
 11
963.0966308651572
 21
147.8329002324032
 31
0.0
  0
LINE
  5
BF64
330
209
100
AcDbEntity
  8
0
100
AcDbLine
 10
963.0934843022656
 20
147.8317742520464
 30
0.0
 11
963.0953952929248
 21
147.8334833070467
 31
0.0
  0
LINE
  5
BF65
330
209
100
AcDbEntity
  8
0
100
AcDbLine
 10
963.093484302181
 20
147.8317742519706
 30
0.0
 11
963.0934843023158
 21
147.8343948653207
 31
0.0
  0
ARC
  5
BF66
330
209
100
AcDbEntity
  8
0
100
AcDbCircle
 10
963.1163367537723
 20
147.8313239923856
 30
0.0
 40
0.056760671689893
100
AcDbArc
 50
165.0229231491356
 51
176.9772367701322
  0
LINE
  5
BF67
330
209
100
AcDbEntity
  8
0
100
AcDbLine
 10
963.0606506932927
 20
147.847112065354
 30
0.0
 11
963.0615042818817
 21
147.8459927987776
 31
0.0
  0
LINE
  5
BF68
330
209
100
AcDbEntity
  8
0
100
AcDbLine
 10
963.0615042818817
 20
147.8459927987776
 30
0.0
 11
963.0703084622892
 21
147.8450275595529
 31
0.0
  0
LINE
  5
BF69
330
209
100
AcDbEntity
  8
0
100
AcDbLine
 10
963.0703084622892
 20
147.8450275595529
 30
0.0
 11
963.0717282325957
 21
147.8456148247843
 31
0.0
  0
LINE
  5
BF6A
330
209
100
AcDbEntity
  8
0
100
AcDbLine
 10
963.0703084590336
 20
147.8450275599098
 30
0.0
 11
963.0703084656213
 21
147.8464262302118
 31
0.0
  0
LINE
  5
BF6B
330
209
100
AcDbEntity
  8
0
100
AcDbLine
 10
963.4568170841809
 20
147.8317742520106
 30
0.0
 11
963.4536726197957
 21
147.8328994814738
 31
0.0
  0
LINE
  5
BF6C
330
209
100
AcDbEntity
  8
0
100
AcDbLine
 10
963.4568170842081
 20
147.8317742520464
 30
0.0
 11
963.4549073738751
 21
147.8334821620135
 31
0.0
  0
LINE
  5
BF6D
330
209
100
AcDbEntity
  8
0
100
AcDbLine
 10
963.4568170842928
 20
147.8317742519706
 30
0.0
 11
963.4568170841582
 21
147.8343930905777
 31
0.0
  0
ARC
  5
BF6E
330
209
100
AcDbEntity
  8
0
100
AcDbCircle
 10
963.4339682058133
 20
147.8313239807856
 30
0.0
 40
0.056760671689893
100
AcDbArc
 50
3.022763229868561
 51
14.97707685086443
  0
LINE
  5
BF6F
330
209
100
AcDbEntity
  8
0
100
AcDbLine
 10
963.4896543896928
 20
147.8471120654107
 30
0.0
 11
963.4888006777039
 21
147.8459927871776
 31
0.0
  0
LINE
  5
BF70
330
209
100
AcDbEntity
  8
0
100
AcDbLine
 10
963.4888006777039
 20
147.8459927871776
 30
0.0
 11
963.4799964972966
 21
147.8450275479529
 31
0.0
  0
LINE
  5
BF71
330
209
100
AcDbEntity
  8
0
100
AcDbLine
 10
963.4799964972966
 20
147.8450275479529
 30
0.0
 11
963.4785553427828
 21
147.8456236584189
 31
0.0
  0
LINE
  5
BF72
330
209
100
AcDbEntity
  8
0
100
AcDbLine
 10
963.479996500552
 20
147.8450275483098
 30
0.0
 11
963.4799964939645
 21
147.8464261611777
 31
0.0
  0
ARC
  5
BF73
330
209
100
AcDbEntity
  8
0
100
AcDbCircle
 10
963.275150692448
 20
148.1756642419304
 30
0.0
 40
0.418189530419772
100
AcDbArc
 50
267.5788753857692
 51
272.421124937818
  0
ARC
  5
BF74
330
209
100
AcDbEntity
  8
0
100
AcDbCircle
 10
963.26779132145
 20
147.8620784380512
 30
0.0
 40
0.1071925826278157
100
AcDbArc
 50
279.2343993026046
 51
283.5009726612377
  0
ARC
  5
BF75
330
209
100
AcDbEntity
  8
0
100
AcDbCircle
 10
963.2751506935097
 20
148.1711053151641
 30
0.0
 40
0.4149469959038929
100
AcDbArc
 50
268.6408596644425
 51
271.3591402808719
  0
ARC
  5
BF76
330
209
100
AcDbEntity
  8
0
100
AcDbCircle
 10
963.2824487387338
 20
147.8617734022091
 30
0.0
 40
0.1068816593508406
100
AcDbArc
 50
256.4928186814153
 51
260.7718091024202
  0
LINE
  5
BF77
330
209
100
AcDbEntity
  8
0
100
AcDbLine
 10
963.2849929243157
 20
147.7562750608402
 30
0.0
 11
963.2849929243157
 21
147.7575905476795
 31
0.0
  0
LINE
  5
BF78
330
209
100
AcDbEntity
  8
0
100
AcDbLine
 10
963.2653084623079
 20
147.7562750608495
 30
0.0
 11
963.2653084623079
 21
147.7575905476389
 31
0.0
  0
LINE
  5
BF79
330
209
100
AcDbEntity
  8
0
100
AcDbLine
 10
962.9666766262928
 20
148.0042379777106
 30
0.0
 11
962.9691830285365
 21
148.0084696816526
 31
0.0
  0
LINE
  5
BF7A
330
209
100
AcDbEntity
  8
0
100
AcDbLine
 10
962.9666766262928
 20
148.0042379777106
 30
0.0
 11
962.9597218595094
 21
148.0042379777106
 31
0.0
  0
LINE
  5
BF7B
330
209
100
AcDbEntity
  8
0
100
AcDbLine
 10
963.5836284566929
 20
148.0042379777106
 30
0.0
 11
963.5905832234762
 21
148.0042379777106
 31
0.0
  0
LINE
  5
BF7C
330
209
100
AcDbEntity
  8
0
100
AcDbLine
 10
963.5836284566929
 20
148.0042379777106
 30
0.0
 11
963.5811148411905
 21
148.0084726775296
 31
0.0
  0
LINE
  5
BF7D
330
209
100
AcDbEntity
  8
0
100
AcDbLine
 10
964.1658019956595
 20
148.7291235893805
 30
0.0
 11
962.3845030873262
 21
148.7291235893805
 31
0.0
  0
LINE
  5
BF7E
330
209
100
AcDbEntity
  8
0
100
AcDbLine
 10
964.2681519480415
 20
139.4951689309106
 30
0.0
 11
962.282153134944
 21
139.4951689309106
 31
0.0
  0
ARC
  5
BF7F
330
209
100
AcDbEntity
  8
0
100
AcDbCircle
 10
962.7543196820404
 20
150.0616810593306
 30
0.0
 40
0.0019385113668578
100
AcDbArc
 50
125.5014253130904
 51
173.3670297614438
  0
ARC
  5
BF80
330
209
100
AcDbEntity
  8
0
100
AcDbCircle
 10
962.7654627902655
 20
150.0450419411761
 30
0.0
 40
0.0219634525515104
100
AcDbArc
 50
104.9010268342769
 51
123.9592291361412
  0
LINE
  5
BF81
330
209
100
AcDbEntity
  8
0
100
AcDbLine
 10
962.8843817762584
 20
150.1002058662946
 30
0.0
 11
962.7598148859785
 21
150.0662667951248
 31
0.0
  0
ARC
  5
BF82
330
209
100
AcDbEntity
  8
0
100
AcDbCircle
 10
962.9150854971195
 20
149.987513712507
 30
0.0
 40
0.1168
100
AcDbArc
 50
90.0
 51
105.2406828676035
  0
ARC
  5
BF83
330
209
100
AcDbEntity
  8
0
100
AcDbCircle
 10
963.7959854009451
 20
150.0616810593306
 30
0.0
 40
0.0019385113668578
100
AcDbArc
 50
6.632970236175101
 51
54.49857468690951
  0
ARC
  5
BF84
330
209
100
AcDbEntity
  8
0
100
AcDbCircle
 10
963.7848422927202
 20
150.0450419411761
 30
0.0
 40
0.0219634525515104
100
AcDbArc
 50
56.04077086385879
 51
75.09897316572311
  0
LINE
  5
BF85
330
209
100
AcDbEntity
  8
0
100
AcDbLine
 10
963.6659233067272
 20
150.1002058662946
 30
0.0
 11
963.790490197007
 21
150.0662667951248
 31
0.0
  0
ARC
  5
BF86
330
209
100
AcDbEntity
  8
0
100
AcDbCircle
 10
963.6352195858663
 20
149.987513712507
 30
0.0
 40
0.1168
100
AcDbArc
 50
74.7593171323965
 51
90.0
  0
LINE
  5
BF87
330
209
100
AcDbEntity
  8
0
100
AcDbLine
 10
963.564250747129
 20
150.0444839627107
 30
0.0
 11
962.9860543358567
 21
150.0444839627107
 31
0.0
  0
ARC
  5
BF88
330
209
100
AcDbEntity
  8
0
100
AcDbCircle
 10
963.0341132385295
 20
146.0345159345207
 30
0.0
 40
4.010256007442902
100
AcDbArc
 50
90.68664898199262
 51
91.85741193051546
  0
ARC
  5
BF89
330
209
100
AcDbEntity
  8
0
100
AcDbCircle
 10
962.9082046623564
 20
149.9170702521233
 30
0.0
 40
0.1256606618903146
100
AcDbArc
 50
91.85741193051546
 51
102.6639119067
  0
ARC
  5
BF8A
330
209
100
AcDbEntity
  8
0
100
AcDbCircle
 10
963.0760174353072
 20
149.1702332256281
 30
0.0
 40
0.8911191329452517
100
AcDbArc
 50
102.6639119067
 51
107.978798132742
  0
ARC
  5
BF8B
330
209
100
AcDbEntity
  8
0
100
AcDbCircle
 10
962.8124344864017
 20
149.9969513766984
 30
0.0
 40
0.0238324228767241
100
AcDbArc
 50
118.7808480529243
 51
164.432036845404
  0
ARC
  5
BF8C
330
209
100
AcDbEntity
  8
0
100
AcDbCircle
 10
964.5894143263097
 20
149.5922396300581
 30
0.0
 40
1.846289855362042
100
AcDbArc
 50
167.1342696746071
 51
176.7824697803777
  0
ARC
  5
BF8D
330
209
100
AcDbEntity
  8
0
100
AcDbCircle
 10
963.5161918444563
 20
146.0345159345207
 30
0.0
 40
4.010256007442902
100
AcDbArc
 50
88.14258806948455
 51
89.31335101800739
  0
ARC
  5
BF8E
330
209
100
AcDbEntity
  8
0
100
AcDbCircle
 10
963.6421004206292
 20
149.9170702521233
 30
0.0
 40
0.1256606618903146
100
AcDbArc
 50
77.3360880933
 51
88.14258806949105
  0
ARC
  5
BF8F
330
209
100
AcDbEntity
  8
0
100
AcDbCircle
 10
963.4742876476785
 20
149.1702332256281
 30
0.0
 40
0.8911191329452517
100
AcDbArc
 50
72.02120186725792
 51
77.3360880933
  0
ARC
  5
BF90
330
209
100
AcDbEntity
  8
0
100
AcDbCircle
 10
963.7378705965838
 20
149.9969513766984
 30
0.0
 40
0.0238324228767241
100
AcDbArc
 50
15.56796315459597
 51
61.2191519470757
  0
ARC
  5
BF91
330
209
100
AcDbEntity
  8
0
100
AcDbCircle
 10
961.960890756676
 20
149.5922396300581
 30
0.0
 40
1.846289855362042
100
AcDbArc
 50
3.19449383463378
 51
12.86573032539291
  0
ARC
  5
BF92
330
209
100
AcDbEntity
  8
0
100
AcDbCircle
 10
963.234000760953
 20
155.9228754051309
 30
0.0
 40
5.951097065382077
100
AcDbArc
 50
268.578846994058
 51
270.3962029369707
  0
ARC
  5
BF93
330
209
100
AcDbEntity
  8
0
100
AcDbCircle
 10
963.0936164837873
 20
150.2642468300635
 30
0.0
 40
0.2907273693424368
100
AcDbArc
 50
248.1182658033745
 51
268.578846994058
  0
ARC
  5
BF94
330
209
100
AcDbEntity
  8
0
100
AcDbCircle
 10
963.0134603591741
 20
150.0646683802635
 30
0.0
 40
0.0756539820125249
100
AcDbArc
 50
221.6328021142147
 51
248.1182658033745
  0
ARC
  5
BF95
330
209
100
AcDbEntity
  8
0
100
AcDbCircle
 10
962.9833799656587
 20
150.0379309455414
 30
0.0
 40
0.0354082308136123
100
AcDbArc
 50
170.3648267720182
 51
221.6328021142147
  0
ARC
  5
BF96
330
209
100
AcDbEntity
  8
0
100
AcDbCircle
 10
963.3163043220326
 20
155.9228754051309
 30
0.0
 40
5.951097065382077
100
AcDbArc
 50
269.6037970630293
 51
271.421153005942
  0
ARC
  5
BF97
330
209
100
AcDbEntity
  8
0
100
AcDbCircle
 10
963.4566885991985
 20
150.2642468300635
 30
0.0
 40
0.2907273693424368
100
AcDbArc
 50
271.421153005942
 51
291.8817341966195
  0
ARC
  5
BF98
330
209
100
AcDbEntity
  8
0
100
AcDbCircle
 10
963.5368447238116
 20
150.0646683802635
 30
0.0
 40
0.0756539820125249
100
AcDbArc
 50
291.8817341966195
 51
318.3671978857853
  0
ARC
  5
BF99
330
209
100
AcDbEntity
  8
0
100
AcDbCircle
 10
963.5669251173268
 20
150.0379309455414
 30
0.0
 40
0.0354082308136123
100
AcDbArc
 50
318.3671978857853
 51
9.635173227981024
  0
LINE
  5
BF9A
330
209
100
AcDbEntity
  8
0
100
AcDbLine
 10
964.6836396206664
 20
142.1214990729106
 30
0.0
 11
964.3130170166362
 21
142.1214990729106
 31
0.0
  0
LINE
  5
BF9B
330
209
100
AcDbEntity
  8
0
100
AcDbLine
 10
964.6805901937451
 20
141.9640187579107
 30
0.0
 11
964.3128680158921
 21
141.9640187579107
 31
0.0
  0
ARC
  5
BF9C
330
209
100
AcDbEntity
  8
0
100
AcDbCircle
 10
964.6808976761706
 20
142.0270054713416
 30
0.0
 40
0.0629874639453761
100
AcDbArc
 50
269.7203012502629
 51
321.0040402793713
  0
ARC
  5
BF9D
330
209
100
AcDbEntity
  8
0
100
AcDbCircle
 10
964.6508966428354
 20
142.0454909658421
 30
0.0
 40
0.0980401373284353
100
AcDbArc
 50
323.6417605415174
 51
359.2926238287991
  0
ARC
  5
BF9E
330
209
100
AcDbEntity
  8
0
100
AcDbCircle
 10
964.657626242378
 20
142.0413723732661
 30
0.0
 40
0.0913493709887099
100
AcDbArc
 50
1.824387355073322
 51
44.83189238198453
  0
ARC
  5
BF9F
330
209
100
AcDbEntity
  8
0
100
AcDbCircle
 10
964.6846819617241
 20
142.0684082611727
 30
0.0
 40
0.053101042982948
100
AcDbArc
 50
44.725935646112
 51
91.12475341359312
  0
ARC
  5
BFA0
330
209
100
AcDbEntity
  8
0
100
AcDbCircle
 10
964.3145967888916
 20
141.9344502902494
 30
0.0
 40
0.0296189624381887
100
AcDbArc
 50
93.34609030238665
 51
124.0584705531622
  0
ARC
  5
BFA1
330
209
100
AcDbEntity
  8
0
100
AcDbCircle
 10
964.3412808305974
 20
141.8949765249115
 30
0.0
 40
0.0772657486016895
100
AcDbArc
 50
124.0584705531622
 51
161.1662474004435
  0
ARC
  5
BFA2
330
209
100
AcDbEntity
  8
0
100
AcDbCircle
 10
964.3129426261928
 20
141.9429851083106
 30
0.0
 40
0.1785139801000014
100
AcDbArc
 50
89.97612367076646
 51
104.5312800904154
  0
ENDSEC
  0
SECTION
  2
OBJECTS
  0
DICTIONARY
  5
C
330
0
100
AcDbDictionary
281
     1
  3
ACAD_BACKGROUND
350
3A6
  3
ACAD_CIP_PREVIOUS_PRODUCT_INFO
350
3A5
  3
ACAD_COLOR
350
33D
  3
ACAD_DETAILVIEWSTYLE
350
357
  3
ACAD_GROUP
350
D
  3
ACAD_LAYOUT
350
1A
  3
ACAD_MATERIAL
350
30B
  3
ACAD_MLEADERSTYLE
350
352
  3
ACAD_MLINESTYLE
350
17
  3
ACAD_PLOTSETTINGS
350
19
  3
ACAD_PLOTSTYLENAME
350
E
  3
ACAD_RENDER_RAPIDRT_SETTINGS
350
81C1
  3
ACAD_SCALELIST
350
340
  3
ACAD_SECTIONVIEWSTYLE
350
354
  3
ACAD_TABLESTYLE
350
33E
  3
ACAD_VISUALSTYLE
350
324
  3
ACDB_RECOMPOSE_DATA
350
C068
  3
AcDbVariableDictionary
350
397
  3
AEC_PROPERTY_SET_DEFS
350
822
  3
ASE_INDEX_DICTIONARY
350
4D5
  3
DWGPROPS
350
C069
  0
DICTIONARY
  5
35C
330
8
100
AcDbDictionary
280
     1
281
     1
  0
DICTIONARY
  5
819
330
2
100
AcDbDictionary
280
     1
281
     1
  3
ACAD_LAYERSTATES
360
81A
  0
DICTIONARY
  5
3B3
330
10
100
AcDbDictionary
280
     1
281
     1
  3
ADSK_XREC_LAYER_RECONCILED
360
3B4
  0
DICTIONARY
  5
A37
330
209
100
AcDbDictionary
280
     1
281
     1
  3
ACAD_SORTENTS
360
A38
  0
DICTIONARY
  5
3A6
102
{ACAD_REACTORS
330
C
102
}
330
C
100
AcDbDictionary
281
     1
  0
XRECORD
  5
3A5
102
{ACAD_REACTORS
330
C
102
}
330
C
100
AcDbXrecord
280
     1
300
ACDLT
300
2019
300

  0
DICTIONARY
  5
33D
102
{ACAD_REACTORS
330
C
102
}
330
C
100
AcDbDictionary
281
     1
  0
DICTIONARY
  5
357
102
{ACAD_REACTORS
330
C
102
}
330
C
100
AcDbDictionary
281
     1
  3
Imperial24
350
358
  0
DICTIONARY
  5
D
102
{ACAD_REACTORS
330
C
102
}
330
C
100
AcDbDictionary
281
     1
  0
DICTIONARY
  5
1A
102
{ACAD_REACTORS
330
C
102
}
330
C
100
AcDbDictionary
281
     1
  3
Layout1
350
308
  3
Model
350
307
  0
DICTIONARY
  5
30B
102
{ACAD_REACTORS
330
C
102
}
330
C
100
AcDbDictionary
281
     1
  3
ByBlock
350
314
  3
ByLayer
350
30C
  3
Global
350
31C
  0
DICTIONARY
  5
352
102
{ACAD_REACTORS
330
C
102
}
330
C
100
AcDbDictionary
281
     1
  3
Standard
350
353
  0
DICTIONARY
  5
17
102
{ACAD_REACTORS
330
C
102
}
330
C
100
AcDbDictionary
281
     1
  3
Standard
350
18
  0
DICTIONARY
  5
19
102
{ACAD_REACTORS
330
C
102
}
330
C
100
AcDbDictionary
281
     1
  0
ACDBDICTIONARYWDFLT
  5
E
102
{ACAD_REACTORS
330
C
102
}
330
C
100
AcDbDictionary
281
     1
  3
Normal
350
F
100
AcDbDictionaryWithDefault
340
F
  0
DICTIONARY
  5
81C1
102
{ACAD_REACTORS
330
C
102
}
330
C
100
AcDbDictionary
281
     1
  0
DICTIONARY
  5
340
102
{ACAD_REACTORS
330
C
102
}
330
C
100
AcDbDictionary
281
     1
  3
A0
350
341
  3
A1
350
342
  3
A2
350
343
  3
A3
350
344
  3
A4
350
345
  3
A5
350
346
  3
A6
350
347
  3
A7
350
348
  3
A8
350
349
  3
A9
350
34A
  3
B0
350
34B
  3
B1
350
34C
  3
B2
350
34D
  3
B3
350
34E
  3
B4
350
34F
  3
B5
350
350
  3
B6
350
351
  0
DICTIONARY
  5
354
102
{ACAD_REACTORS
330
C
102
}
330
C
100
AcDbDictionary
281
     1
  3
Imperial24
350
356
  0
DICTIONARY
  5
33E
102
{ACAD_REACTORS
330
C
102
}
330
C
100
AcDbDictionary
281
     1
  3
Standard
350
33F
  0
DICTIONARY
  5
324
102
{ACAD_REACTORS
330
C
102
}
330
C
100
AcDbDictionary
281
     1
  3
2dWireframe
350
32A
  3
Basic
350
329
  3
Brighten
350
330
  3
ColorChange
350
334
  3
Conceptual
350
32D
  3
Dim
350
32F
  3
EdgeColorOff
350
33C
  3
Facepattern
350
333
  3
Flat
350
325
  3
FlatWithEdges
350
326
  3
Gouraud
350
327
  3
GouraudWithEdges
350
328
  3
Hidden
350
32C
  3
JitterOff
350
33A
  3
Linepattern
350
332
  3
OverhangOff
350
33B
  3
Realistic
350
32E
  3
Shaded
350
339
  3
Shaded with edges
350
338
  3
Shades of Gray
350
335
  3
Sketchy
350
336
  3
Thicken
350
331
  3
Wireframe
350
32B
  3
X-Ray
350
337
  0
XRECORD
  5
C068
102
{ACAD_REACTORS
330
C
102
}
330
C
100
AcDbXrecord
280
     1
 90
        1
330
33F
  0
DICTIONARY
  5
397
102
{ACAD_REACTORS
330
C
102
}
330
C
100
AcDbDictionary
281
     1
  3
CANNOSCALE
350
39C
  3
CMLEADERSTYLE
350
399
  3
CTABLESTYLE
350
398
  3
CVIEWDETAILSTYLE
350
39A
  3
CVIEWSECTIONSTYLE
350
39B
  3
DIMASSOC
350
39F
  3
INDEXCTL
350
39E
  3
SORTENTS
350
39D
  3
XCLIPFRAME
350
C066
  0
DICTIONARY
  5
822
102
{ACAD_REACTORS
330
C
102
}
330
C
100
AcDbDictionary
281
     1
  0
DICTIONARY
  5
4D5
102
{ACAD_REACTORS
330
C
102
}
330
C
100
AcDbDictionary
281
     1
  3
ASEBlockHierarchyIndexRecord
350
4D7
1001
DCO15
1040
1932717357.27
  0
XRECORD
  5
C069
102
{ACAD_REACTORS
330
C
102
}
330
C
100
AcDbXrecord
280
     1
  1
DWGPROPS COOKIE
  2

  3

  4

  6

  7

  8
KOCE392
  9

300
=
301
=
302
=
303
=
304
=
305
=
306
=
307
=
308
=
309
=
 40
0.4463548842592593
 41
2458172.520763889
 42
2459207.474780093
  1

 90
        0
  0
DICTIONARY
  5
81A
102
{ACAD_REACTORS
330
819
102
}
330
819
100
AcDbDictionary
281
     1
  0
XRECORD
  5
3B4
102
{ACAD_REACTORS
330
3B3
102
}
330
3B3
100
AcDbXrecord
280
     1
290
     1
  0
SORTENTSTABLE
  5
A38
102
{ACAD_REACTORS
330
A37
102
}
330
A37
100
AcDbSortentsTable
330
209
  0
ACDBDETAILVIEWSTYLE
  5
358
102
{ACAD_XDICTIONARY
360
C0A4
102
}
102
{ACAD_REACTORS
330
357
102
}
330
357
100
AcDbModelDocViewStyle
 70
     0
  3
Imperial24
290
     0
100
AcDbDetailViewStyle
 70
     0
 71
     0
 90
        3
 71
     1
340
11
 40
0.24
340
0
 40
0.24
300

 40
0.36
280
     3
 71
     2
340
16
 90
       25
 71
     3
340
11
 40
0.24
 90
        1
 40
0.75
 90
        1
300
%<\AcVar ViewType \f "%tc1">% %<\AcVar ViewDetailId>%\PSCALE %<\AcVar ViewScale \f "%sn">%
 71
     4
340
16
 90
       25
340
16
 90
       25
280
     0
  0
LAYOUT
  5
308
102
{ACAD_XDICTIONARY
360
C06C
102
}
102
{ACAD_REACTORS
330
1A
102
}
330
1A
100
AcDbPlotSettings
  1

  2
none_device
  4
ISO_A4_(297.00_x_210.00_MM)
  6

 40
0.0
 41
0.0
 42
0.0
 43
0.0
 44
297.0
 45
210.0
 46
0.0
 47
0.0
 48
0.0
 49
0.0
140
0.0
141
0.0
142
1.0
143
1.0
 70
     0
 72
     0
 73
     0
 74
     0
  7

 75
     0
147
1.0
148
0.0
149
0.0
100
AcDbLayout
  1
Layout1
 70
     1
 71
     1
 10
0.0
 20
0.0
 11
12.0
 21
9.0
 12
0.0
 22
0.0
 32
0.0
 14
1.000000000000000E+20
 24
1.000000000000000E+20
 34
1.000000000000000E+20
 15
-1.000000000000000E+20
 25
-1.000000000000000E+20
 35
-1.000000000000000E+20
146
0.0
 13
0.0
 23
0.0
 33
0.0
 16
1.0
 26
0.0
 36
0.0
 17
0.0
 27
1.0
 37
0.0
 76
     0
330
20A
  0
LAYOUT
  5
307
102
{ACAD_XDICTIONARY
360
C06A
102
}
102
{ACAD_REACTORS
330
1A
102
}
330
1A
100
AcDbPlotSettings
  1

  2
none_device
  4
ISO_A4_(297.00_x_210.00_MM)
  6

 40
0.0
 41
0.0
 42
0.0
 43
0.0
 44
297.0
 45
210.0
 46
0.0
 47
0.0
 48
0.0
 49
0.0
140
0.0
141
0.0
142
1.0
143
1.0
 70
  1024
 72
     0
 73
     0
 74
     0
  7

 75
     0
147
1.0
148
0.0
149
0.0
100
AcDbLayout
  1
Model
 70
     0
 71
     0
 10
0.0
 20
0.0
 11
11.6929133858
 21
8.267716535399999
 12
0.0
 22
0.0
 32
0.0
 14
0.0
 24
0.0
 34
0.0
 15
0.0
 25
0.0
 35
0.0
146
0.0
 13
0.0
 23
0.0
 33
0.0
 16
1.0
 26
0.0
 36
0.0
 17
0.0
 27
1.0
 37
0.0
 76
     0
330
209
331
1F4
  0
MATERIAL
  5
314
102
{ACAD_XDICTIONARY
360
315
102
}
102
{ACAD_REACTORS
330
30B
102
}
330
30B
100
AcDbMaterial
  1
ByBlock
 72
     0
 43
0.0208333333333333
 43
0.0
 43
0.0
 43
0.0
 43
0.0
 43
0.0208333333333333
 43
0.0
 43
0.0
 43
0.0
 43
0.0
 43
1.0
 43
0.0
 43
0.0
 43
0.0
 43
0.0
 43
1.0
 77
     0
 47
0.0208333333333333
 47
0.0
 47
0.0
 47
0.0
 47
0.0
 47
0.0208333333333333
 47
0.0
 47
0.0
 47
0.0
 47
0.0
 47
1.0
 47
0.0
 47
0.0
 47
0.0
 47
0.0
 47
1.0
171
     0
 49
0.0208333333333333
 49
0.0
 49
0.0
 49
0.0
 49
0.0
 49
0.0208333333333333
 49
0.0
 49
0.0
 49
0.0
 49
0.0
 49
1.0
 49
0.0
 49
0.0
 49
0.0
 49
0.0
 49
1.0
175
     0
142
0.0208333333333333
142
0.0
142
0.0
142
0.0
142
0.0
142
0.0208333333333333
142
0.0
142
0.0
142
0.0
142
0.0
142
1.0
142
0.0
142
0.0
142
0.0
142
0.0
142
1.0
179
     0
144
0.0208333333333333
144
0.0
144
0.0
144
0.0
144
0.0
144
0.0208333333333333
144
0.0
144
0.0
144
0.0
144
0.0
144
1.0
144
0.0
144
0.0
144
0.0
144
0.0
144
1.0
147
0.0208333333333333
147
0.0
147
0.0
147
0.0
147
0.0
147
0.0208333333333333
147
0.0
147
0.0
147
0.0
147
0.0
147
1.0
147
0.0
147
0.0
147
0.0
147
0.0
147
1.0
  0
MATERIAL
  5
30C
102
{ACAD_XDICTIONARY
360
30D
102
}
102
{ACAD_REACTORS
330
30B
102
}
330
30B
100
AcDbMaterial
  1
ByLayer
 72
     0
 43
0.0208333333333333
 43
0.0
 43
0.0
 43
0.0
 43
0.0
 43
0.0208333333333333
 43
0.0
 43
0.0
 43
0.0
 43
0.0
 43
1.0
 43
0.0
 43
0.0
 43
0.0
 43
0.0
 43
1.0
 77
     0
 47
0.0208333333333333
 47
0.0
 47
0.0
 47
0.0
 47
0.0
 47
0.0208333333333333
 47
0.0
 47
0.0
 47
0.0
 47
0.0
 47
1.0
 47
0.0
 47
0.0
 47
0.0
 47
0.0
 47
1.0
171
     0
 49
0.0208333333333333
 49
0.0
 49
0.0
 49
0.0
 49
0.0
 49
0.0208333333333333
 49
0.0
 49
0.0
 49
0.0
 49
0.0
 49
1.0
 49
0.0
 49
0.0
 49
0.0
 49
0.0
 49
1.0
175
     0
142
0.0208333333333333
142
0.0
142
0.0
142
0.0
142
0.0
142
0.0208333333333333
142
0.0
142
0.0
142
0.0
142
0.0
142
1.0
142
0.0
142
0.0
142
0.0
142
0.0
142
1.0
179
     0
144
0.0208333333333333
144
0.0
144
0.0
144
0.0
144
0.0
144
0.0208333333333333
144
0.0
144
0.0
144
0.0
144
0.0
144
1.0
144
0.0
144
0.0
144
0.0
144
0.0
144
1.0
147
0.0208333333333333
147
0.0
147
0.0
147
0.0
147
0.0
147
0.0208333333333333
147
0.0
147
0.0
147
0.0
147
0.0
147
1.0
147
0.0
147
0.0
147
0.0
147
0.0
147
1.0
  0
MATERIAL
  5
31C
102
{ACAD_XDICTIONARY
360
31D
102
}
102
{ACAD_REACTORS
330
30B
102
}
330
30B
100
AcDbMaterial
  1
Global
 72
     0
 43
0.0208333333333333
 43
0.0
 43
0.0
 43
0.0
 43
0.0
 43
0.0208333333333333
 43
0.0
 43
0.0
 43
0.0
 43
0.0
 43
1.0
 43
0.0
 43
0.0
 43
0.0
 43
0.0
 43
1.0
 77
     0
 47
0.0208333333333333
 47
0.0
 47
0.0
 47
0.0
 47
0.0
 47
0.0208333333333333
 47
0.0
 47
0.0
 47
0.0
 47
0.0
 47
1.0
 47
0.0
 47
0.0
 47
0.0
 47
0.0
 47
1.0
171
     0
 49
0.0208333333333333
 49
0.0
 49
0.0
 49
0.0
 49
0.0
 49
0.0208333333333333
 49
0.0
 49
0.0
 49
0.0
 49
0.0
 49
1.0
 49
0.0
 49
0.0
 49
0.0
 49
0.0
 49
1.0
175
     0
142
0.0208333333333333
142
0.0
142
0.0
142
0.0
142
0.0
142
0.0208333333333333
142
0.0
142
0.0
142
0.0
142
0.0
142
1.0
142
0.0
142
0.0
142
0.0
142
0.0
142
1.0
179
     0
144
0.0208333333333333
144
0.0
144
0.0
144
0.0
144
0.0
144
0.0208333333333333
144
0.0
144
0.0
144
0.0
144
0.0
144
1.0
144
0.0
144
0.0
144
0.0
144
0.0
144
1.0
147
0.0208333333333333
147
0.0
147
0.0
147
0.0
147
0.0
147
0.0208333333333333
147
0.0
147
0.0
147
0.0
147
0.0
147
1.0
147
0.0
147
0.0
147
0.0
147
0.0
147
1.0
  0
MLEADERSTYLE
  5
353
102
{ACAD_REACTORS
330
352
102
}
330
352
100
AcDbMLeaderStyle
170
     2
171
     1
172
     0
 90
        2
 40
0.0
 41
0.0
173
     1
 91
-1056964608
340
14
 92
       -2
290
     1
 42
0.09
291
     1
 43
0.36
  3
Standard
 44
0.18
300

342
11
174
     1
178
     6
175
     1
176
     0
 93
-1056964608
 45
0.18
292
     0
297
     0
 46
0.18
 94
-1056964608
 47
1.0
 49
1.0
140
1.0
293
     1
141
0.0
294
     1
177
     0
142
1.0
295
     0
296
     0
143
0.125
1001
ACAD_MLEADERVER
1070
     2
  0
MLINESTYLE
  5
18
102
{ACAD_REACTORS
330
17
102
}
330
17
100
AcDbMlineStyle
  2
STANDARD
 70
     0
  3

 62
   256
 51
90.0
 52
90.0
 71
     2
 49
0.5
 62
   256
  6
BYLAYER
 49
-0.5
 62
   256
  6
BYLAYER
  0
ACDBPLACEHOLDER
  5
F
102
{ACAD_REACTORS
330
E
102
}
330
E
  0
SCALE
  5
341
102
{ACAD_REACTORS
330
340
102
}
330
340
100
AcDbScale
 70
     0
300
1:1
140
1.0
141
1.0
290
     1
  0
SCALE
  5
342
102
{ACAD_REACTORS
330
340
102
}
330
340
100
AcDbScale
 70
     0
300
1/128" = 1'-0"
140
0.0078125
141
12.0
290
     0
  0
SCALE
  5
343
102
{ACAD_REACTORS
330
340
102
}
330
340
100
AcDbScale
 70
     0
300
1/64" = 1'-0"
140
0.015625
141
12.0
290
     0
  0
SCALE
  5
344
102
{ACAD_REACTORS
330
340
102
}
330
340
100
AcDbScale
 70
     0
300
1/32" = 1'-0"
140
0.03125
141
12.0
290
     0
  0
SCALE
  5
345
102
{ACAD_REACTORS
330
340
102
}
330
340
100
AcDbScale
 70
     0
300
1/16" = 1'-0"
140
0.0625
141
12.0
290
     0
  0
SCALE
  5
346
102
{ACAD_REACTORS
330
340
102
}
330
340
100
AcDbScale
 70
     0
300
3/32" = 1'-0"
140
0.09375
141
12.0
290
     0
  0
SCALE
  5
347
102
{ACAD_REACTORS
330
340
102
}
330
340
100
AcDbScale
 70
     0
300
1/8" = 1'-0"
140
0.125
141
12.0
290
     0
  0
SCALE
  5
348
102
{ACAD_REACTORS
330
340
102
}
330
340
100
AcDbScale
 70
     0
300
3/16" = 1'-0"
140
0.1875
141
12.0
290
     0
  0
SCALE
  5
349
102
{ACAD_REACTORS
330
340
102
}
330
340
100
AcDbScale
 70
     0
300
1/4" = 1'-0"
140
0.25
141
12.0
290
     0
  0
SCALE
  5
34A
102
{ACAD_REACTORS
330
340
102
}
330
340
100
AcDbScale
 70
     0
300
3/8" = 1'-0"
140
0.375
141
12.0
290
     0
  0
SCALE
  5
34B
102
{ACAD_REACTORS
330
340
102
}
330
340
100
AcDbScale
 70
     0
300
1/2" = 1'-0"
140
0.5
141
12.0
290
     0
  0
SCALE
  5
34C
102
{ACAD_REACTORS
330
340
102
}
330
340
100
AcDbScale
 70
     0
300
3/4" = 1'-0"
140
0.75
141
12.0
290
     0
  0
SCALE
  5
34D
102
{ACAD_REACTORS
330
340
102
}
330
340
100
AcDbScale
 70
     0
300
1" = 1'-0"
140
1.0
141
12.0
290
     0
  0
SCALE
  5
34E
102
{ACAD_REACTORS
330
340
102
}
330
340
100
AcDbScale
 70
     0
300
1-1/2" = 1'-0"
140
1.5
141
12.0
290
     0
  0
SCALE
  5
34F
102
{ACAD_REACTORS
330
340
102
}
330
340
100
AcDbScale
 70
     0
300
3" = 1'-0"
140
3.0
141
12.0
290
     0
  0
SCALE
  5
350
102
{ACAD_REACTORS
330
340
102
}
330
340
100
AcDbScale
 70
     0
300
6" = 1'-0"
140
6.0
141
12.0
290
     0
  0
SCALE
  5
351
102
{ACAD_REACTORS
330
340
102
}
330
340
100
AcDbScale
 70
     0
300
1'-0" = 1'-0"
140
12.0
141
12.0
290
     0
  0
ACDBSECTIONVIEWSTYLE
  5
356
102
{ACAD_XDICTIONARY
360
C0A2
102
}
102
{ACAD_REACTORS
330
354
102
}
330
354
100
AcDbModelDocViewStyle
 70
     0
  3
Imperial24
290
     0
100
AcDbSectionViewStyle
 70
     0
 71
     0
 90
       78
 71
     1
340
11
 40
0.24
340
0
340
0
 40
0.24
300
I, O, Q, S, X, Z
 40
0.48
 90
        3
 40
0.18
 90
        1
 71
     2
340
355
 90
       25
340
16
 90
       50
 40
0.24
 40
0.0
 40
0.24
 71
     3
340
11
 40
0.24
 90
        1
 40
0.75
 90
        1
300
%<\AcVar ViewType \f "%tc1">% %<\AcVar ViewSectionStartId>%-%<\AcVar ViewSectionEndId>%\PSCALE %<\AcVar ViewScale \f "%sn">%
 71
     4
300
ANSI31
 40
1.0
 90
        0
290
     0
290
     0
 90
        6
 40
0.0
 40
1.570796326794896
 40
0.2617993877991494
 40
1.308996938995747
 40
-0.2617993877991494
 40
1.832595714594046
  0
TABLESTYLE
  5
33F
102
{ACAD_XDICTIONARY
360
359
102
}
102
{ACAD_REACTORS
330
33E
102
}
330
33E
100
AcDbTableStyle
  3
Standard
 70
     0
 71
     0
 40
0.06
 41
0.06
280
     0
281
     0
  7
STANDARD
140
0.18
170
     2
 62
     0
 63
     7
283
     0
274
    -2
284
     1
 64
     0
275
    -2
285
     1
 65
     0
276
    -2
286
     1
 66
     0
277
    -2
287
     1
 67
     0
278
    -2
288
     1
 68
     0
279
    -2
289
     1
 69
     0
  7
STANDARD
140
0.25
170
     5
 62
     0
 63
     7
283
     0
274
    -2
284
     1
 64
     0
275
    -2
285
     1
 65
     0
276
    -2
286
     1
 66
     0
277
    -2
287
     1
 67
     0
278
    -2
288
     1
 68
     0
279
    -2
289
     1
 69
     0
  7
STANDARD
140
0.18
170
     5
 62
     0
 63
     7
283
     0
274
    -2
284
     1
 64
     0
275
    -2
285
     1
 65
     0
276
    -2
286
     1
 66
     0
277
    -2
287
     1
 67
     0
278
    -2
288
     1
 68
     0
279
    -2
289
     1
 69
     0
  0
VISUALSTYLE
  5
32A
102
{ACAD_XDICTIONARY
360
C07B
102
}
102
{ACAD_REACTORS
330
324
102
}
330
324
100
AcDbVisualStyle
  2
2dWireframe
 70
     4
 71
     0
 72
     2
 73
     0
 90
        0
 40
-0.6
 41
-30.0
 62
     5
 63
     7
 74
     1
 91
        4
 64
     7
 65
   257
 75
     1
175
     1
 42
1.0
 92
        0
 66
   257
 43
1.0
 76
     1
 77
     6
 78
     2
 67
     7
 79
     5
170
     0
171
     0
290
     0
174
     0
 93
        1
 44
0.0
173
     0
291
     0
 45
0.0
1001
ACAD
1000
AcDbSavedByObjectVersion
1070
     0
  0
VISUALSTYLE
  5
329
102
{ACAD_XDICTIONARY
360
C079
102
}
102
{ACAD_REACTORS
330
324
102
}
330
324
100
AcDbVisualStyle
  2
Basic
 70
     7
 71
     1
 72
     0
 73
     1
 90
        0
 40
-0.6
 41
-30.0
 62
     5
 63
     7
 74
     0
 91
        4
 64
     7
 65
   257
 75
     1
175
     1
 42
1.0
 92
        8
 66
     7
 43
1.0
 76
     1
 77
     6
 78
     2
 67
     7
 79
     5
170
     0
171
     0
290
     0
174
     0
 93
        1
 44
0.0
173
     0
291
     1
 45
0.0
1001
ACAD
1000
AcDbSavedByObjectVersion
1070
     0
  0
VISUALSTYLE
  5
330
102
{ACAD_XDICTIONARY
360
C087
102
}
102
{ACAD_REACTORS
330
324
102
}
330
324
100
AcDbVisualStyle
  2
Brighten
 70
    12
 71
     2
 72
     2
 73
     0
 90
        0
 40
-0.6
 41
-30.0
 62
     5
 63
     7
 74
     1
 91
        4
 64
     7
 65
   257
 75
     1
175
     1
 42
1.0
 92
        8
 66
     7
 43
1.0
 76
     1
 77
     6
 78
     2
 67
     7
 79
     5
170
     0
171
     0
290
     0
174
     0
 93
        1
 44
50.0
173
     0
291
     1
 45
0.0
1001
ACAD
1000
AcDbSavedByObjectVersion
1070
     0
  0
VISUALSTYLE
  5
334
102
{ACAD_XDICTIONARY
360
C08F
102
}
102
{ACAD_REACTORS
330
324
102
}
330
324
100
AcDbVisualStyle
  2
ColorChange
 70
    16
 71
     2
 72
     2
 73
     3
 90
        0
 40
-0.6
 41
-30.0
 62
     5
 63
     8
 74
     1
 91
        4
 64
     7
 65
   257
 75
     1
175
     1
 42
1.0
 92
        8
 66
     8
 43
1.0
 76
     1
 77
     6
 78
     2
 67
     7
 79
     5
170
     0
171
     0
290
     0
174
     0
 93
        1
 44
0.0
173
     0
291
     1
 45
0.0
1001
ACAD
1000
AcDbSavedByObjectVersion
1070
     0
  0
VISUALSTYLE
  5
32D
102
{ACAD_XDICTIONARY
360
C081
102
}
102
{ACAD_REACTORS
330
324
102
}
330
324
100
AcDbVisualStyle
  2
Conceptual
 70
     9
 71
     3
 72
     2
 73
     0
 90
        0
 40
-0.6
 41
-30.0
 62
     5
 63
     7
 74
     2
 91
        2
 64
     7
 65
   257
 75
     1
175
     1
 42
179.0
 92
        8
 66
     7
 43
1.0
 76
     1
 77
     6
 78
     2
 67
     7
 79
     3
170
     0
171
     0
290
     0
174
     0
 93
        1
 44
0.0
173
     0
291
     0
 45
0.0
1001
ACAD
1000
AcDbSavedByObjectVersion
1070
     0
  0
VISUALSTYLE
  5
32F
102
{ACAD_XDICTIONARY
360
C085
102
}
102
{ACAD_REACTORS
330
324
102
}
330
324
100
AcDbVisualStyle
  2
Dim
 70
    11
 71
     2
 72
     2
 73
     0
 90
        0
 40
-0.6
 41
-30.0
 62
     5
 63
     7
 74
     1
 91
        4
 64
     7
 65
   257
 75
     1
175
     1
 42
1.0
 92
        8
 66
     7
 43
1.0
 76
     1
 77
     6
 78
     2
 67
     7
 79
     5
170
     0
171
     0
290
     0
174
     0
 93
        1
 44
-50.0
173
     0
291
     1
 45
0.0
1001
ACAD
1000
AcDbSavedByObjectVersion
1070
     0
  0
VISUALSTYLE
  5
33C
102
{ACAD_XDICTIONARY
360
C09F
102
}
102
{ACAD_REACTORS
330
324
102
}
330
324
100
AcDbVisualStyle
  2
EdgeColorOff
 70
    22
 71
     2
 72
     2
 73
     0
 90
        0
 40
-0.6
 41
-30.0
 62
     5
 63
     7
 74
     1
 91
        4
 64
     7
 65
   257
 75
     1
175
     1
 42
1.0
 92
        8
 66
     7
 43
1.0
 76
     1
 77
     6
 78
     2
 67
     7
 79
     5
170
     0
171
     0
290
     0
174
     0
 93
        1
 44
0.0
173
     0
291
     1
 45
0.0
1001
ACAD
1000
AcDbSavedByObjectVersion
1070
     0
  0
VISUALSTYLE
  5
333
102
{ACAD_XDICTIONARY
360
C08D
102
}
102
{ACAD_REACTORS
330
324
102
}
330
324
100
AcDbVisualStyle
  2
Facepattern
 70
    15
 71
     2
 72
     2
 73
     0
 90
        0
 40
-0.6
 41
-30.0
 62
     5
 63
     7
 74
     1
 91
        4
 64
     7
 65
   257
 75
     1
175
     1
 42
1.0
 92
        8
 66
     7
 43
1.0
 76
     1
 77
     6
 78
     2
 67
     7
 79
     5
170
     0
171
     0
290
     0
174
     0
 93
        1
 44
0.0
173
     0
291
     1
 45
0.0
1001
ACAD
1000
AcDbSavedByObjectVersion
1070
     0
  0
VISUALSTYLE
  5
325
102
{ACAD_XDICTIONARY
360
C071
102
}
102
{ACAD_REACTORS
330
324
102
}
330
324
100
AcDbVisualStyle
  2
Flat
 70
     0
 71
     2
 72
     1
 73
     1
 90
        2
 40
-0.6
 41
30.0
 62
     5
 63
     7
 74
     0
 91
        0
 64
     7
 65
   257
 75
     1
175
     1
 42
1.0
 92
        8
 66
     7
 43
1.0
 76
     1
 77
     6
 78
     2
 67
     7
 79
     5
170
     0
171
     0
290
     0
174
     0
 93
       13
 44
0.0
173
     0
291
     1
 45
0.0
1001
ACAD
1000
AcDbSavedByObjectVersion
1070
     0
  0
VISUALSTYLE
  5
326
102
{ACAD_XDICTIONARY
360
C073
102
}
102
{ACAD_REACTORS
330
324
102
}
330
324
100
AcDbVisualStyle
  2
FlatWithEdges
 70
     1
 71
     2
 72
     1
 73
     1
 90
        2
 40
-0.6
 41
30.0
 62
     5
 63
     7
 74
     1
 91
        0
 64
     7
 65
   257
 75
     1
175
     1
 42
1.0
 92
        0
 66
   257
 43
1.0
 76
     1
 77
     6
 78
     2
 67
     7
 79
     5
170
     0
171
     0
290
     0
174
     0
 93
       13
 44
0.0
173
     0
291
     1
 45
0.0
1001
ACAD
1000
AcDbSavedByObjectVersion
1070
     0
  0
VISUALSTYLE
  5
327
102
{ACAD_XDICTIONARY
360
C075
102
}
102
{ACAD_REACTORS
330
324
102
}
330
324
100
AcDbVisualStyle
  2
Gouraud
 70
     2
 71
     2
 72
     2
 73
     1
 90
        2
 40
-0.6
 41
30.0
 62
     5
 63
     7
 74
     0
 91
        0
 64
     7
 65
   257
 75
     1
175
     1
 42
1.0
 92
        0
 66
     7
 43
1.0
 76
     1
 77
     6
 78
     2
 67
     7
 79
     5
170
     0
171
     0
290
     0
174
     0
 93
       13
 44
0.0
173
     0
291
     1
 45
0.0
1001
ACAD
1000
AcDbSavedByObjectVersion
1070
     0
  0
VISUALSTYLE
  5
328
102
{ACAD_XDICTIONARY
360
C077
102
}
102
{ACAD_REACTORS
330
324
102
}
330
324
100
AcDbVisualStyle
  2
GouraudWithEdges
 70
     3
 71
     2
 72
     2
 73
     1
 90
        2
 40
-0.6
 41
30.0
 62
     5
 63
     7
 74
     1
 91
        0
 64
     7
 65
   257
 75
     1
175
     1
 42
1.0
 92
        0
 66
   257
 43
1.0
 76
     1
 77
     6
 78
     2
 67
     7
 79
     5
170
     0
171
     0
290
     0
174
     0
 93
       13
 44
0.0
173
     0
291
     1
 45
0.0
1001
ACAD
1000
AcDbSavedByObjectVersion
1070
     0
  0
VISUALSTYLE
  5
32C
102
{ACAD_XDICTIONARY
360
C07F
102
}
102
{ACAD_REACTORS
330
324
102
}
330
324
100
AcDbVisualStyle
  2
Hidden
 70
     6
 71
     1
 72
     2
 73
     2
 90
        0
 40
-0.6
 41
-30.0
 62
     5
 63
     7
 74
     2
 91
        2
 64
     7
 65
   257
 75
     2
175
     1
 42
40.0
 92
        0
 66
   257
 43
1.0
 76
     1
 77
     6
 78
     2
 67
     7
 79
     3
170
     0
171
     0
290
     0
174
     0
 93
        1
 44
0.0
173
     0
291
     0
 45
0.0
1001
ACAD
1000
AcDbSavedByObjectVersion
1070
     0
  0
VISUALSTYLE
  5
33A
102
{ACAD_XDICTIONARY
360
C09B
102
}
102
{ACAD_REACTORS
330
324
102
}
330
324
100
AcDbVisualStyle
  2
JitterOff
 70
    20
 71
     2
 72
     2
 73
     0
 90
        0
 40
-0.6
 41
-30.0
 62
     5
 63
     7
 74
     1
 91
        4
 64
     7
 65
   257
 75
     1
175
     1
 42
1.0
 92
       10
 66
     7
 43
1.0
 76
     1
 77
     6
 78
     2
 67
     7
 79
     5
170
     0
171
     0
290
     0
174
     0
 93
        1
 44
0.0
173
     0
291
     1
 45
0.0
1001
ACAD
1000
AcDbSavedByObjectVersion
1070
     0
  0
VISUALSTYLE
  5
332
102
{ACAD_XDICTIONARY
360
C08B
102
}
102
{ACAD_REACTORS
330
324
102
}
330
324
100
AcDbVisualStyle
  2
Linepattern
 70
    14
 71
     2
 72
     2
 73
     0
 90
        0
 40
-0.6
 41
-30.0
 62
     5
 63
     7
 74
     1
 91
        4
 64
     7
 65
   257
 75
     7
175
     7
 42
1.0
 92
        8
 66
     7
 43
1.0
 76
     1
 77
     6
 78
     2
 67
     7
 79
     5
170
     0
171
     0
290
     0
174
     0
 93
        1
 44
0.0
173
     0
291
     1
 45
0.0
1001
ACAD
1000
AcDbSavedByObjectVersion
1070
     0
  0
VISUALSTYLE
  5
33B
102
{ACAD_XDICTIONARY
360
C09D
102
}
102
{ACAD_REACTORS
330
324
102
}
330
324
100
AcDbVisualStyle
  2
OverhangOff
 70
    21
 71
     2
 72
     2
 73
     0
 90
        0
 40
-0.6
 41
-30.0
 62
     5
 63
     7
 74
     1
 91
        4
 64
     7
 65
   257
 75
     1
175
     1
 42
1.0
 92
        9
 66
     7
 43
1.0
 76
     1
 77
     6
 78
     2
 67
     7
 79
     5
170
     0
171
     0
290
     0
174
     0
 93
        1
 44
0.0
173
     0
291
     1
 45
0.0
1001
ACAD
1000
AcDbSavedByObjectVersion
1070
     0
  0
VISUALSTYLE
  5
32E
102
{ACAD_XDICTIONARY
360
C083
102
}
102
{ACAD_REACTORS
330
324
102
}
330
324
100
AcDbVisualStyle
  2
Realistic
 70
     8
 71
     2
 72
     2
 73
     0
 90
        2
 40
-0.6
 41
30.0
 62
     5
 63
     7
 74
     0
 91
        0
 64
     7
 65
   257
 75
     1
175
     1
 42
1.0
 92
        8
 66
   257
 43
1.0
 76
     1
 77
     6
 78
     2
 67
     7
 79
     3
170
     0
171
     0
290
     0
174
     0
 93
       13
 44
0.0
173
     0
291
     0
 45
0.0
1001
ACAD
1000
AcDbSavedByObjectVersion
1070
     0
  0
VISUALSTYLE
  5
339
102
{ACAD_XDICTIONARY
360
C099
102
}
102
{ACAD_REACTORS
330
324
102
}
330
324
100
AcDbVisualStyle
  2
Shaded
 70
    27
 71
     2
 72
     2
 73
     1
 90
        2
 40
-0.6
 41
30.0
 62
     5
 63
     7
 74
     0
 91
        4
 64
     7
 65
   257
 75
     1
175
     1
 42
1.0
 92
        8
 66
   257
 43
1.0
 76
     1
 77
     6
 78
     2
 67
     8
 79
     3
170
     0
171
     0
290
     0
174
     0
 93
        5
 44
0.0
173
     0
291
     0
 45
0.0
1001
ACAD
1000
AcDbSavedByObjectVersion
1070
     0
  0
VISUALSTYLE
  5
338
102
{ACAD_XDICTIONARY
360
C097
102
}
102
{ACAD_REACTORS
330
324
102
}
330
324
100
AcDbVisualStyle
  2
Shaded with edges
 70
    26
 71
     2
 72
     2
 73
     1
 90
        2
 40
-0.6
 41
30.0
 62
     5
 63
     7
 74
     1
 91
        2
 64
     7
 65
   257
 75
     2
175
     1
 42
1.0
 92
        8
 66
   257
 43
1.0
 76
     1
 77
     6
 78
     2
 67
     7
 79
     3
170
     0
171
     0
290
     0
174
     0
 93
        5
 44
0.0
173
     0
291
     0
 45
0.0
1001
ACAD
1000
AcDbSavedByObjectVersion
1070
     0
  0
VISUALSTYLE
  5
335
102
{ACAD_XDICTIONARY
360
C091
102
}
102
{ACAD_REACTORS
330
324
102
}
330
324
100
AcDbVisualStyle
  2
Shades of Gray
 70
    23
 71
     2
 72
     2
 73
     3
 90
        0
 40
-0.6
 41
-30.0
 62
     5
 63
     7
 74
     2
 91
        2
 64
     7
 65
     7
 75
     1
175
     1
 42
40.0
 92
        8
 66
     7
 43
1.0
 76
     1
 77
     6
 78
     2
 67
     7
 79
     3
170
     0
171
     0
290
     0
174
     0
 93
        1
 44
0.0
173
     0
291
     0
 45
0.0
1001
ACAD
1000
AcDbSavedByObjectVersion
1070
     0
  0
VISUALSTYLE
  5
336
102
{ACAD_XDICTIONARY
360
C093
102
}
102
{ACAD_REACTORS
330
324
102
}
330
324
100
AcDbVisualStyle
  2
Sketchy
 70
    24
 71
     1
 72
     2
 73
     2
 90
        0
 40
-0.6
 41
-30.0
 62
     5
 63
     7
 74
     2
 91
        2
 64
     7
 65
     7
 75
     1
175
     1
 42
40.0
 92
       11
 66
     7
 43
1.0
 76
     1
 77
     6
 78
     2
 67
     7
 79
     6
170
     0
171
     0
290
     0
174
     0
 93
        1
 44
0.0
173
     0
291
     0
 45
0.0
1001
ACAD
1000
AcDbSavedByObjectVersion
1070
     0
  0
VISUALSTYLE
  5
331
102
{ACAD_XDICTIONARY
360
C089
102
}
102
{ACAD_REACTORS
330
324
102
}
330
324
100
AcDbVisualStyle
  2
Thicken
 70
    13
 71
     2
 72
     2
 73
     0
 90
        0
 40
-0.6
 41
-30.0
 62
     5
 63
     7
 74
     1
 91
        4
 64
     7
 65
   257
 75
     1
175
     1
 42
1.0
 92
       12
 66
     7
 43
1.0
 76
     1
 77
     6
 78
     2
 67
     7
 79
     5
170
     0
171
     0
290
     0
174
     0
 93
        1
 44
0.0
173
     0
291
     1
 45
0.0
1001
ACAD
1000
AcDbSavedByObjectVersion
1070
     0
  0
VISUALSTYLE
  5
32B
102
{ACAD_XDICTIONARY
360
C07D
102
}
102
{ACAD_REACTORS
330
324
102
}
330
324
100
AcDbVisualStyle
  2
Wireframe
 70
     5
 71
     0
 72
     2
 73
     0
 90
        0
 40
-0.6
 41
-30.0
 62
     5
 63
     7
 74
     1
 91
        4
 64
     7
 65
   257
 75
     1
175
     1
 42
1.0
 92
        0
 66
   257
 43
1.0
 76
     1
 77
     6
 78
     2
 67
     7
 79
     3
170
     0
171
     0
290
     0
174
     0
 93
        1
 44
0.0
173
     0
291
     0
 45
0.0
1001
ACAD
1000
AcDbSavedByObjectVersion
1070
     0
  0
VISUALSTYLE
  5
337
102
{ACAD_XDICTIONARY
360
C095
102
}
102
{ACAD_REACTORS
330
324
102
}
330
324
100
AcDbVisualStyle
  2
X-Ray
 70
    25
 71
     2
 72
     2
 73
     1
 90
        1
 40
0.5
 41
-30.0
 62
     5
 63
     7
 74
     1
 91
        0
 64
     7
 65
   257
 75
     1
175
     1
 42
1.0
 92
        8
 66
     7
 43
1.0
 76
     1
 77
     6
 78
     2
 67
     7
 79
     3
170
     0
171
     0
290
     0
174
     0
 93
       13
 44
0.0
173
     0
291
     0
 45
0.0
1001
ACAD
1000
AcDbSavedByObjectVersion
1070
     0
  0
DICTIONARYVAR
  5
39C
102
{ACAD_REACTORS
330
397
102
}
330
397
100
DictionaryVariables
280
     0
  1
1:1
  0
DICTIONARYVAR
  5
399
102
{ACAD_REACTORS
330
397
102
}
330
397
100
DictionaryVariables
280
     0
  1
STANDARD
  0
DICTIONARYVAR
  5
398
102
{ACAD_REACTORS
330
397
102
}
330
397
100
DictionaryVariables
280
     0
  1
STANDARD
  0
DICTIONARYVAR
  5
39A
102
{ACAD_REACTORS
330
397
102
}
330
397
100
DictionaryVariables
280
     0
  1
Imperial24
  0
DICTIONARYVAR
  5
39B
102
{ACAD_REACTORS
330
397
102
}
330
397
100
DictionaryVariables
280
     0
  1
Imperial24
  0
DICTIONARYVAR
  5
39F
102
{ACAD_REACTORS
330
397
102
}
330
397
100
DictionaryVariables
280
     0
  1
1
  0
DICTIONARYVAR
  5
39E
102
{ACAD_REACTORS
330
397
102
}
330
397
100
DictionaryVariables
280
     0
  1
0
  0
DICTIONARYVAR
  5
39D
102
{ACAD_REACTORS
330
397
102
}
330
397
100
DictionaryVariables
280
     0
  1
127
  0
DICTIONARYVAR
  5
C066
102
{ACAD_REACTORS
330
397
102
}
330
397
100
DictionaryVariables
280
     0
  1
2
  0
XRECORD
  5
4D7
102
{ACAD_REACTORS
330
4D5
102
}
330
4D5
100
AcDbXrecord
280
     1
  0
DICTIONARY
  5
C0A4
330
358
100
AcDbDictionary
280
     1
281
     1
  3
ACAD_XREC_ROUNDTRIP
360
C0A5
  0
DICTIONARY
  5
C06C
330
308
100
AcDbDictionary
280
     1
281
     1
  3
ACAD_XREC_ROUNDTRIP
360
C06D
  0
DICTIONARY
  5
C06A
330
307
100
AcDbDictionary
280
     1
281
     1
  3
ACAD_XREC_ROUNDTRIP
360
C06B
  0
DICTIONARY
  5
315
330
314
100
AcDbDictionary
280
     1
281
     1
  3
ACAD_XREC_ROUNDTRIP
360
C06F
  3
BUMPTILE
360
317
  3
DIFFUSETILE
360
316
  3
OPACITYTILE
360
31A
  3
REFLECTIONTILE
360
319
  3
REFRACTIONTILE
360
31B
  3
SPECULARTILE
360
318
  0
DICTIONARY
  5
30D
330
30C
100
AcDbDictionary
280
     1
281
     1
  3
ACAD_XREC_ROUNDTRIP
360
C06E
  3
BUMPTILE
360
30F
  3
DIFFUSETILE
360
30E
  3
OPACITYTILE
360
312
  3
REFLECTIONTILE
360
311
  3
REFRACTIONTILE
360
313
  3
SPECULARTILE
360
310
  0
DICTIONARY
  5
31D
330
31C
100
AcDbDictionary
280
     1
281
     1
  3
ACAD_XREC_ROUNDTRIP
360
C070
  3
BUMPTILE
360
31F
  3
DIFFUSETILE
360
31E
  3
OPACITYTILE
360
322
  3
REFLECTIONTILE
360
321
  3
REFRACTIONTILE
360
323
  3
SPECULARTILE
360
320
  0
DICTIONARY
  5
C0A2
330
356
100
AcDbDictionary
280
     1
281
     1
  3
ACAD_XREC_ROUNDTRIP
360
C0A3
  0
DICTIONARY
  5
359
330
33F
100
AcDbDictionary
280
     1
281
     1
  3
ACAD_ROUNDTRIP_2008_TABLESTYLE_CELLSTYLEMAP
360
C067
  3
ACAD_XREC_ROUNDTRIP
360
C0A1
  0
DICTIONARY
  5
C07B
330
32A
100
AcDbDictionary
280
     1
281
     1
  3
ACAD_XREC_ROUNDTRIP
360
C07C
  0
DICTIONARY
  5
C079
330
329
100
AcDbDictionary
280
     1
281
     1
  3
ACAD_XREC_ROUNDTRIP
360
C07A
  0
DICTIONARY
  5
C087
330
330
100
AcDbDictionary
280
     1
281
     1
  3
ACAD_XREC_ROUNDTRIP
360
C088
  0
DICTIONARY
  5
C08F
330
334
100
AcDbDictionary
280
     1
281
     1
  3
ACAD_XREC_ROUNDTRIP
360
C090
  0
DICTIONARY
  5
C081
330
32D
100
AcDbDictionary
280
     1
281
     1
  3
ACAD_XREC_ROUNDTRIP
360
C082
  0
DICTIONARY
  5
C085
330
32F
100
AcDbDictionary
280
     1
281
     1
  3
ACAD_XREC_ROUNDTRIP
360
C086
  0
DICTIONARY
  5
C09F
330
33C
100
AcDbDictionary
280
     1
281
     1
  3
ACAD_XREC_ROUNDTRIP
360
C0A0
  0
DICTIONARY
  5
C08D
330
333
100
AcDbDictionary
280
     1
281
     1
  3
ACAD_XREC_ROUNDTRIP
360
C08E
  0
DICTIONARY
  5
C071
330
325
100
AcDbDictionary
280
     1
281
     1
  3
ACAD_XREC_ROUNDTRIP
360
C072
  0
DICTIONARY
  5
C073
330
326
100
AcDbDictionary
280
     1
281
     1
  3
ACAD_XREC_ROUNDTRIP
360
C074
  0
DICTIONARY
  5
C075
330
327
100
AcDbDictionary
280
     1
281
     1
  3
ACAD_XREC_ROUNDTRIP
360
C076
  0
DICTIONARY
  5
C077
330
328
100
AcDbDictionary
280
     1
281
     1
  3
ACAD_XREC_ROUNDTRIP
360
C078
  0
DICTIONARY
  5
C07F
330
32C
100
AcDbDictionary
280
     1
281
     1
  3
ACAD_XREC_ROUNDTRIP
360
C080
  0
DICTIONARY
  5
C09B
330
33A
100
AcDbDictionary
280
     1
281
     1
  3
ACAD_XREC_ROUNDTRIP
360
C09C
  0
DICTIONARY
  5
C08B
330
332
100
AcDbDictionary
280
     1
281
     1
  3
ACAD_XREC_ROUNDTRIP
360
C08C
  0
DICTIONARY
  5
C09D
330
33B
100
AcDbDictionary
280
     1
281
     1
  3
ACAD_XREC_ROUNDTRIP
360
C09E
  0
DICTIONARY
  5
C083
330
32E
100
AcDbDictionary
280
     1
281
     1
  3
ACAD_XREC_ROUNDTRIP
360
C084
  0
DICTIONARY
  5
C099
330
339
100
AcDbDictionary
280
     1
281
     1
  3
ACAD_XREC_ROUNDTRIP
360
C09A
  0
DICTIONARY
  5
C097
330
338
100
AcDbDictionary
280
     1
281
     1
  3
ACAD_XREC_ROUNDTRIP
360
C098
  0
DICTIONARY
  5
C091
330
335
100
AcDbDictionary
280
     1
281
     1
  3
ACAD_XREC_ROUNDTRIP
360
C092
  0
DICTIONARY
  5
C093
330
336
100
AcDbDictionary
280
     1
281
     1
  3
ACAD_XREC_ROUNDTRIP
360
C094
  0
DICTIONARY
  5
C089
330
331
100
AcDbDictionary
280
     1
281
     1
  3
ACAD_XREC_ROUNDTRIP
360
C08A
  0
DICTIONARY
  5
C07D
330
32B
100
AcDbDictionary
280
     1
281
     1
  3
ACAD_XREC_ROUNDTRIP
360
C07E
  0
DICTIONARY
  5
C095
330
337
100
AcDbDictionary
280
     1
281
     1
  3
ACAD_XREC_ROUNDTRIP
360
C096
  0
XRECORD
  5
C0A5
102
{ACAD_REACTORS
330
C0A4
102
}
330
C0A4
100
AcDbXrecord
280
     1
102
DISPLAYNAME
  1
Imperial24
102
FLAGS
 90
        0
  0
XRECORD
  5
C06D
102
{ACAD_REACTORS
330
C06C
102
}
330
C06C
100
AcDbXrecord
280
     1
102
SHADEPLOT
 70
     0
102
SHADEPLOTRESLEVEL
 70
     2
102
SHADEPLOTCUSTOMDPI
 70
   300
  0
XRECORD
  5
C06B
102
{ACAD_REACTORS
330
C06A
102
}
330
C06A
100
AcDbXrecord
280
     1
102
SHADEPLOT
 70
     0
102
SHADEPLOTRESLEVEL
 70
     2
102
SHADEPLOTCUSTOMDPI
 70
   300
  0
XRECORD
  5
C06F
102
{ACAD_REACTORS
330
315
102
}
330
315
100
AcDbXrecord
280
     1
102
MATERIAL
148
0.0
149
0.0
149
0.0
 93
        0
 94
      127
282
     0
 72
     0
 77
     0
171
     0
175
     0
179
     0
273
     0
  0
XRECORD
  5
317
102
{ACAD_REACTORS
330
315
102
}
330
315
100
AcDbXrecord
280
     1
270
     1
271
     1
  0
XRECORD
  5
316
102
{ACAD_REACTORS
330
315
102
}
330
315
100
AcDbXrecord
280
     1
270
     1
271
     1
  0
XRECORD
  5
31A
102
{ACAD_REACTORS
330
315
102
}
330
315
100
AcDbXrecord
280
     1
270
     1
271
     1
  0
XRECORD
  5
319
102
{ACAD_REACTORS
330
315
102
}
330
315
100
AcDbXrecord
280
     1
270
     1
271
     1
  0
XRECORD
  5
31B
102
{ACAD_REACTORS
330
315
102
}
330
315
100
AcDbXrecord
280
     1
270
     1
271
     1
  0
XRECORD
  5
318
102
{ACAD_REACTORS
330
315
102
}
330
315
100
AcDbXrecord
280
     1
270
     1
271
     1
  0
XRECORD
  5
C06E
102
{ACAD_REACTORS
330
30D
102
}
330
30D
100
AcDbXrecord
280
     1
102
MATERIAL
148
0.0
149
0.0
149
0.0
 93
        0
 94
      127
282
     0
 72
     0
 77
     0
171
     0
175
     0
179
     0
273
     0
  0
XRECORD
  5
30F
102
{ACAD_REACTORS
330
30D
102
}
330
30D
100
AcDbXrecord
280
     1
270
     1
271
     1
  0
XRECORD
  5
30E
102
{ACAD_REACTORS
330
30D
102
}
330
30D
100
AcDbXrecord
280
     1
270
     1
271
     1
  0
XRECORD
  5
312
102
{ACAD_REACTORS
330
30D
102
}
330
30D
100
AcDbXrecord
280
     1
270
     1
271
     1
  0
XRECORD
  5
311
102
{ACAD_REACTORS
330
30D
102
}
330
30D
100
AcDbXrecord
280
     1
270
     1
271
     1
  0
XRECORD
  5
313
102
{ACAD_REACTORS
330
30D
102
}
330
30D
100
AcDbXrecord
280
     1
270
     1
271
     1
  0
XRECORD
  5
310
102
{ACAD_REACTORS
330
30D
102
}
330
30D
100
AcDbXrecord
280
     1
270
     1
271
     1
  0
XRECORD
  5
C070
102
{ACAD_REACTORS
330
31D
102
}
330
31D
100
AcDbXrecord
280
     1
102
MATERIAL
148
0.0
149
0.0
149
0.0
 93
        0
 94
      127
282
     0
 72
     0
 77
     0
171
     0
175
     0
179
     0
273
     0
  0
XRECORD
  5
31F
102
{ACAD_REACTORS
330
31D
102
}
330
31D
100
AcDbXrecord
280
     1
270
     1
271
     1
  0
XRECORD
  5
31E
102
{ACAD_REACTORS
330
31D
102
}
330
31D
100
AcDbXrecord
280
     1
270
     1
271
     1
  0
XRECORD
  5
322
102
{ACAD_REACTORS
330
31D
102
}
330
31D
100
AcDbXrecord
280
     1
270
     1
271
     1
  0
XRECORD
  5
321
102
{ACAD_REACTORS
330
31D
102
}
330
31D
100
AcDbXrecord
280
     1
270
     1
271
     1
  0
XRECORD
  5
323
102
{ACAD_REACTORS
330
31D
102
}
330
31D
100
AcDbXrecord
280
     1
270
     1
271
     1
  0
XRECORD
  5
320
102
{ACAD_REACTORS
330
31D
102
}
330
31D
100
AcDbXrecord
280
     1
270
     1
271
     1
  0
XRECORD
  5
C0A3
102
{ACAD_REACTORS
330
C0A2
102
}
330
C0A2
100
AcDbXrecord
280
     1
102
DISPLAYNAME
  1
Imperial24
102
FLAGS
 90
        0
  0
CELLSTYLEMAP
  5
C067
102
{ACAD_REACTORS
330
359
102
}
330
359
100
AcDbCellStyleMap
 90
        3
300
CELLSTYLE
  1
TABLEFORMAT_BEGIN
 90
        5
170
     1
 91
        0
 92
    32768
 62
   257
 93
        1
300
CONTENTFORMAT
  1
CONTENTFORMAT_BEGIN
 90
        0
 91
        0
 92
      512
 93
        0
300

 40
0.0
140
1.0
 94
        5
 62
     0
340
11
144
0.25
309
CONTENTFORMAT_END
171
     0
 94
        0
309
TABLEFORMAT_END
  1
CELLSTYLE_BEGIN
 90
        1
 91
        1
300
_TITLE
309
CELLSTYLE_END
300
CELLSTYLE
  1
TABLEFORMAT_BEGIN
 90
        5
170
     1
 91
        0
 92
        0
 62
   257
 93
        1
300
CONTENTFORMAT
  1
CONTENTFORMAT_BEGIN
 90
        0
 91
        0
 92
      512
 93
        0
300

 40
0.0
140
1.0
 94
        5
 62
     0
340
11
144
0.18
309
CONTENTFORMAT_END
171
     0
 94
        0
309
TABLEFORMAT_END
  1
CELLSTYLE_BEGIN
 90
        2
 91
        1
300
_HEADER
309
CELLSTYLE_END
300
CELLSTYLE
  1
TABLEFORMAT_BEGIN
 90
        5
170
     1
 91
        0
 92
        0
 62
   257
 93
        1
300
CONTENTFORMAT
  1
CONTENTFORMAT_BEGIN
 90
        0
 91
        0
 92
      512
 93
        0
300

 40
0.0
140
1.0
 94
        2
 62
     0
340
11
144
0.18
309
CONTENTFORMAT_END
171
     0
 94
        0
309
TABLEFORMAT_END
  1
CELLSTYLE_BEGIN
 90
        3
 91
        2
300
_DATA
309
CELLSTYLE_END
  0
XRECORD
  5
C0A1
102
{ACAD_REACTORS
330
359
102
}
330
359
100
AcDbXrecord
280
     1
102
ACAD_ROUNDTRIP_PRE2007_TABLESTYLE
 90
      512
 91
        0
  1

 92
      512
 93
        0
  2

 94
      512
 95
        0
  3

  0
XRECORD
  5
C07C
102
{ACAD_REACTORS
330
C07B
102
}
330
C07B
100
AcDbXrecord
280
     1
102
RTVSPost2010Prop28
280
     1
102
RTVSPost2010PropOp28
 70
     1
102
RTVSPost2010Prop29
280
     1
102
RTVSPost2010PropOp29
 70
     1
102
RTVSPost2010Prop30
280
     0
102
RTVSPost2010PropOp30
 70
     1
102
RTVSPost2010Prop31
280
     0
102
RTVSPost2010PropOp31
 70
     1
102
RTVSPost2010Prop32
280
     0
102
RTVSPost2010PropOp32
 70
     1
102
RTVSPost2010Prop33
280
     0
102
RTVSPost2010PropOp33
 70
     1
102
RTVSPost2010Prop34
280
     0
102
RTVSPost2010PropOp34
 70
     1
102
RTVSPost2010Prop35
280
     0
102
RTVSPost2010PropOp35
 70
     1
102
RTVSPost2010Prop36
280
     0
102
RTVSPost2010PropOp36
 70
     1
102
RTVSPost2010Prop37
 90
       50
102
RTVSPost2010PropOp37
 70
     1
102
RTVSPost2010Prop38
140
0.0
102
RTVSPost2010PropOp38
 70
     1
102
RTVSPost2010Prop39
140
1.0
102
RTVSPost2010PropOp39
 70
     1
102
RTVSPost2010Prop40
 90
        0
102
RTVSPost2010PropOp40
 70
     1
102
RTVSPost2010Prop41ColorIndex
 90
       18
102
RTVSPost2010Prop41ColorRGB
 90
        0
102
RTVSPost2010PropOp41
 70
     1
102
RTVSPost2010Prop42
 90
       50
102
RTVSPost2010PropOp42
 70
     1
102
RTVSPost2010Prop43
 90
        3
102
RTVSPost2010PropOp43
 70
     1
102
RTVSPost2010Prop44ColorIndex
 90
        5
102
RTVSPost2010Prop44ColorRGB
 90
      255
102
RTVSPost2010PropOp44
 70
     1
102
RTVSPost2010Prop45
280
     0
102
RTVSPost2010PropOp45
 70
     1
102
RTVSPost2010Prop46
 90
       50
102
RTVSPost2010PropOp46
 70
     1
102
RTVSPost2010Prop47
 90
       50
102
RTVSPost2010PropOp47
 70
     1
102
RTVSPost2010Prop48
 90
       50
102
RTVSPost2010PropOp48
 70
     1
102
RTVSPost2010Prop49
280
     0
102
RTVSPost2010PropOp49
 70
     1
102
RTVSPost2010Prop50
 90
       50
102
RTVSPost2010PropOp50
 70
     1
102
RTVSPost2010Prop51ColorIndex
 90
      256
102
RTVSPost2010Prop51ColorRGB
 90
-16777216
102
RTVSPost2010PropOp51
 70
     0
102
RTVSPost2010Prop52
140
1.0
102
RTVSPost2010PropOp52
 70
     0
102
RTVSPost2010Prop53
 90
        2
102
RTVSPost2010PropOp53
 70
     1
102
RTVSPost2010Prop54
  1
strokes_ogs.tif
102
RTVSPost2010PropOp54
 70
     1
102
RTVSPost2010Prop55
280
     0
102
RTVSPost2010PropOp55
 70
     1
102
RTVSPost2010Prop56
140
1.0
102
RTVSPost2010PropOp56
 70
     1
102
RTVSPost2010Prop57
140
1.0
102
RTVSPost2010PropOp57
 70
     1
102
RTVSPropertyOp0
 70
     1
102
RTVSPropertyOp1
 70
     1
102
RTVSPropertyOp2
 70
     1
102
RTVSPropertyOp3
 70
     1
102
RTVSPropertyOp4
 70
     1
102
RTVSPropertyOp5
 70
     1
102
RTVSPropertyOp6
 70
     1
102
RTVSPropertyOp7
 70
     1
102
RTVSPropertyOp8
 70
     1
102
RTVSPropertyOp9
 70
     1
102
RTVSPropertyOp10
 70
     1
102
RTVSPropertyOp11
 70
     1
102
RTVSPropertyOp12
 70
     1
102
RTVSPropertyOp13
 70
     1
102
RTVSPropertyOp14
 70
     1
102
RTVSPropertyOp15
 70
     1
102
RTVSPropertyOp16
 70
     1
102
RTVSPropertyOp17
 70
     1
102
RTVSPropertyOp18
 70
     1
102
RTVSPropertyOp19
 70
     1
102
RTVSPropertyOp20
 70
     1
102
RTVSPropertyOp21
 70
     1
102
RTVSPropertyOp22
 70
     1
102
RTVSPropertyOp23
 70
     1
102
RTVSPropertyOp24
 70
     1
102
RTVSPropertyOp25
 70
     1
102
RTVSPropertyOp26
 70
     1
102
RTVSPropertyOp27
 70
     1
102
RTVSPropertyOp28
 70
     1
102
RTVSPropertyOp29
 70
     1
102
RTVSPropertyOp30
 70
     1
102
RTVSPropertyOp31
 70
     1
102
RTVSPropertyOp32
 70
     1
102
RTVSPropertyOp33
 70
     1
102
RTVSPropertyOp34
 70
     1
102
RTVSPropertyOp35
 70
     1
102
RTVSPropertyOp36
 70
     1
102
RTVSPropertyOp37
 70
     1
102
RTVSPropertyOp38
 70
     1
102
RTVSPropertyOp39
 70
     1
102
RTVSPropertyOp40
 70
     1
102
RTVSPropertyOp41
 70
     1
102
RTVSPropertyOp42
 70
     1
102
RTVSPropertyOp43
 70
     1
102
RTVSPropertyOp44
 70
     1
102
RTVSPropertyOp45
 70
     1
102
RTVSPropertyOp46
 70
     1
102
RTVSPropertyOp47
 70
     1
102
RTVSPropertyOp48
 70
     1
102
RTVSPropertyOp49
 70
     1
102
RTVSPropertyOp50
 70
     1
102
RTVSPropertyOp51
 70
     0
102
RTVSPropertyOp52
 70
     0
102
RTVSPropertyOp53
 70
     1
102
RTVSPropertyOp54
 70
     1
102
RTVSPropertyOp55
 70
     1
102
RTVSPropertyOp56
 70
     1
102
RTVSPropertyOp57
 70
     1
102
RTVSPropertyOp58
 70
     1
102
RTVSPropertyOp59
 70
     1
102
RTVSPropertyOp60
 70
     1
102
RTVSPropertyOp61
 70
     1
102
RTVSPropertyOp62
 70
     1
  0
XRECORD
  5
C07A
102
{ACAD_REACTORS
330
C079
102
}
330
C079
100
AcDbXrecord
280
     1
102
RTVSPost2010Prop28
280
     0
102
RTVSPost2010PropOp28
 70
     1
102
RTVSPost2010Prop29
280
     1
102
RTVSPost2010PropOp29
 70
     1
102
RTVSPost2010Prop30
280
     1
102
RTVSPost2010PropOp30
 70
     1
102
RTVSPost2010Prop31
280
     0
102
RTVSPost2010PropOp31
 70
     1
102
RTVSPost2010Prop32
280
     0
102
RTVSPost2010PropOp32
 70
     1
102
RTVSPost2010Prop33
280
     0
102
RTVSPost2010PropOp33
 70
     1
102
RTVSPost2010Prop34
280
     0
102
RTVSPost2010PropOp34
 70
     1
102
RTVSPost2010Prop35
280
     0
102
RTVSPost2010PropOp35
 70
     1
102
RTVSPost2010Prop36
280
     0
102
RTVSPost2010PropOp36
 70
     1
102
RTVSPost2010Prop37
 90
       50
102
RTVSPost2010PropOp37
 70
     1
102
RTVSPost2010Prop38
140
0.0
102
RTVSPost2010PropOp38
 70
     1
102
RTVSPost2010Prop39
140
1.0
102
RTVSPost2010PropOp39
 70
     1
102
RTVSPost2010Prop40
 90
        0
102
RTVSPost2010PropOp40
 70
     1
102
RTVSPost2010Prop41ColorIndex
 90
       18
102
RTVSPost2010Prop41ColorRGB
 90
        0
102
RTVSPost2010PropOp41
 70
     1
102
RTVSPost2010Prop42
 90
       50
102
RTVSPost2010PropOp42
 70
     1
102
RTVSPost2010Prop43
 90
        3
102
RTVSPost2010PropOp43
 70
     1
102
RTVSPost2010Prop44ColorIndex
 90
        5
102
RTVSPost2010Prop44ColorRGB
 90
      255
102
RTVSPost2010PropOp44
 70
     1
102
RTVSPost2010Prop45
280
     0
102
RTVSPost2010PropOp45
 70
     1
102
RTVSPost2010Prop46
 90
       50
102
RTVSPost2010PropOp46
 70
     1
102
RTVSPost2010Prop47
 90
       50
102
RTVSPost2010PropOp47
 70
     1
102
RTVSPost2010Prop48
 90
       50
102
RTVSPost2010PropOp48
 70
     1
102
RTVSPost2010Prop49
280
     0
102
RTVSPost2010PropOp49
 70
     1
102
RTVSPost2010Prop50
 90
       50
102
RTVSPost2010PropOp50
 70
     1
102
RTVSPost2010Prop51ColorIndex
 90
      256
102
RTVSPost2010Prop51ColorRGB
 90
-16777216
102
RTVSPost2010PropOp51
 70
     0
102
RTVSPost2010Prop52
140
1.0
102
RTVSPost2010PropOp52
 70
     0
102
RTVSPost2010Prop53
 90
        2
102
RTVSPost2010PropOp53
 70
     1
102
RTVSPost2010Prop54
  1
strokes_ogs.tif
102
RTVSPost2010PropOp54
 70
     1
102
RTVSPost2010Prop55
280
     0
102
RTVSPost2010PropOp55
 70
     1
102
RTVSPost2010Prop56
140
1.0
102
RTVSPost2010PropOp56
 70
     1
102
RTVSPost2010Prop57
140
1.0
102
RTVSPost2010PropOp57
 70
     1
102
RTVSPropertyOp0
 70
     1
102
RTVSPropertyOp1
 70
     1
102
RTVSPropertyOp2
 70
     1
102
RTVSPropertyOp3
 70
     1
102
RTVSPropertyOp4
 70
     1
102
RTVSPropertyOp5
 70
     1
102
RTVSPropertyOp6
 70
     1
102
RTVSPropertyOp7
 70
     1
102
RTVSPropertyOp8
 70
     1
102
RTVSPropertyOp9
 70
     1
102
RTVSPropertyOp10
 70
     1
102
RTVSPropertyOp11
 70
     1
102
RTVSPropertyOp12
 70
     1
102
RTVSPropertyOp13
 70
     1
102
RTVSPropertyOp14
 70
     1
102
RTVSPropertyOp15
 70
     1
102
RTVSPropertyOp16
 70
     1
102
RTVSPropertyOp17
 70
     1
102
RTVSPropertyOp18
 70
     1
102
RTVSPropertyOp19
 70
     1
102
RTVSPropertyOp20
 70
     1
102
RTVSPropertyOp21
 70
     1
102
RTVSPropertyOp22
 70
     1
102
RTVSPropertyOp23
 70
     1
102
RTVSPropertyOp24
 70
     1
102
RTVSPropertyOp25
 70
     1
102
RTVSPropertyOp26
 70
     1
102
RTVSPropertyOp27
 70
     1
102
RTVSPropertyOp28
 70
     1
102
RTVSPropertyOp29
 70
     1
102
RTVSPropertyOp30
 70
     1
102
RTVSPropertyOp31
 70
     1
102
RTVSPropertyOp32
 70
     1
102
RTVSPropertyOp33
 70
     1
102
RTVSPropertyOp34
 70
     1
102
RTVSPropertyOp35
 70
     1
102
RTVSPropertyOp36
 70
     1
102
RTVSPropertyOp37
 70
     1
102
RTVSPropertyOp38
 70
     1
102
RTVSPropertyOp39
 70
     1
102
RTVSPropertyOp40
 70
     1
102
RTVSPropertyOp41
 70
     1
102
RTVSPropertyOp42
 70
     1
102
RTVSPropertyOp43
 70
     1
102
RTVSPropertyOp44
 70
     1
102
RTVSPropertyOp45
 70
     1
102
RTVSPropertyOp46
 70
     1
102
RTVSPropertyOp47
 70
     1
102
RTVSPropertyOp48
 70
     1
102
RTVSPropertyOp49
 70
     1
102
RTVSPropertyOp50
 70
     1
102
RTVSPropertyOp51
 70
     0
102
RTVSPropertyOp52
 70
     0
102
RTVSPropertyOp53
 70
     1
102
RTVSPropertyOp54
 70
     1
102
RTVSPropertyOp55
 70
     1
102
RTVSPropertyOp56
 70
     1
102
RTVSPropertyOp57
 70
     1
102
RTVSPropertyOp58
 70
     1
102
RTVSPropertyOp59
 70
     1
102
RTVSPropertyOp60
 70
     1
102
RTVSPropertyOp61
 70
     1
102
RTVSPropertyOp62
 70
     1
  0
XRECORD
  5
C088
102
{ACAD_REACTORS
330
C087
102
}
330
C087
100
AcDbXrecord
280
     1
102
RTVSPost2010Prop28
280
     0
102
RTVSPost2010PropOp28
 70
     1
102
RTVSPost2010Prop29
280
     1
102
RTVSPost2010PropOp29
 70
     1
102
RTVSPost2010Prop30
280
     1
102
RTVSPost2010PropOp30
 70
     1
102
RTVSPost2010Prop31
280
     0
102
RTVSPost2010PropOp31
 70
     1
102
RTVSPost2010Prop32
280
     0
102
RTVSPost2010PropOp32
 70
     1
102
RTVSPost2010Prop33
280
     0
102
RTVSPost2010PropOp33
 70
     1
102
RTVSPost2010Prop34
280
     0
102
RTVSPost2010PropOp34
 70
     1
102
RTVSPost2010Prop35
280
     0
102
RTVSPost2010PropOp35
 70
     1
102
RTVSPost2010Prop36
280
     0
102
RTVSPost2010PropOp36
 70
     1
102
RTVSPost2010Prop37
 90
       50
102
RTVSPost2010PropOp37
 70
     1
102
RTVSPost2010Prop38
140
0.0
102
RTVSPost2010PropOp38
 70
     1
102
RTVSPost2010Prop39
140
1.0
102
RTVSPost2010PropOp39
 70
     1
102
RTVSPost2010Prop40
 90
        0
102
RTVSPost2010PropOp40
 70
     1
102
RTVSPost2010Prop41ColorIndex
 90
       18
102
RTVSPost2010Prop41ColorRGB
 90
        0
102
RTVSPost2010PropOp41
 70
     1
102
RTVSPost2010Prop42
 90
       50
102
RTVSPost2010PropOp42
 70
     1
102
RTVSPost2010Prop43
 90
        3
102
RTVSPost2010PropOp43
 70
     1
102
RTVSPost2010Prop44ColorIndex
 90
        5
102
RTVSPost2010Prop44ColorRGB
 90
      255
102
RTVSPost2010PropOp44
 70
     1
102
RTVSPost2010Prop45
280
     0
102
RTVSPost2010PropOp45
 70
     1
102
RTVSPost2010Prop46
 90
       50
102
RTVSPost2010PropOp46
 70
     1
102
RTVSPost2010Prop47
 90
       50
102
RTVSPost2010PropOp47
 70
     1
102
RTVSPost2010Prop48
 90
       50
102
RTVSPost2010PropOp48
 70
     1
102
RTVSPost2010Prop49
280
     0
102
RTVSPost2010PropOp49
 70
     1
102
RTVSPost2010Prop50
 90
       50
102
RTVSPost2010PropOp50
 70
     1
102
RTVSPost2010Prop51ColorIndex
 90
      256
102
RTVSPost2010Prop51ColorRGB
 90
-16777216
102
RTVSPost2010PropOp51
 70
     0
102
RTVSPost2010Prop52
140
1.0
102
RTVSPost2010PropOp52
 70
     0
102
RTVSPost2010Prop53
 90
        2
102
RTVSPost2010PropOp53
 70
     1
102
RTVSPost2010Prop54
  1
strokes_ogs.tif
102
RTVSPost2010PropOp54
 70
     1
102
RTVSPost2010Prop55
280
     0
102
RTVSPost2010PropOp55
 70
     1
102
RTVSPost2010Prop56
140
1.0
102
RTVSPost2010PropOp56
 70
     1
102
RTVSPost2010Prop57
140
1.0
102
RTVSPost2010PropOp57
 70
     1
102
RTVSPropertyOp0
 70
     1
102
RTVSPropertyOp1
 70
     1
102
RTVSPropertyOp2
 70
     1
102
RTVSPropertyOp3
 70
     1
102
RTVSPropertyOp4
 70
     1
102
RTVSPropertyOp5
 70
     1
102
RTVSPropertyOp6
 70
     1
102
RTVSPropertyOp7
 70
     1
102
RTVSPropertyOp8
 70
     1
102
RTVSPropertyOp9
 70
     1
102
RTVSPropertyOp10
 70
     1
102
RTVSPropertyOp11
 70
     1
102
RTVSPropertyOp12
 70
     1
102
RTVSPropertyOp13
 70
     1
102
RTVSPropertyOp14
 70
     1
102
RTVSPropertyOp15
 70
     1
102
RTVSPropertyOp16
 70
     1
102
RTVSPropertyOp17
 70
     1
102
RTVSPropertyOp18
 70
     1
102
RTVSPropertyOp19
 70
     1
102
RTVSPropertyOp20
 70
     1
102
RTVSPropertyOp21
 70
     1
102
RTVSPropertyOp22
 70
     1
102
RTVSPropertyOp23
 70
     1
102
RTVSPropertyOp24
 70
     1
102
RTVSPropertyOp25
 70
     1
102
RTVSPropertyOp26
 70
     1
102
RTVSPropertyOp27
 70
     1
102
RTVSPropertyOp28
 70
     1
102
RTVSPropertyOp29
 70
     1
102
RTVSPropertyOp30
 70
     1
102
RTVSPropertyOp31
 70
     1
102
RTVSPropertyOp32
 70
     1
102
RTVSPropertyOp33
 70
     1
102
RTVSPropertyOp34
 70
     1
102
RTVSPropertyOp35
 70
     1
102
RTVSPropertyOp36
 70
     1
102
RTVSPropertyOp37
 70
     1
102
RTVSPropertyOp38
 70
     1
102
RTVSPropertyOp39
 70
     1
102
RTVSPropertyOp40
 70
     1
102
RTVSPropertyOp41
 70
     1
102
RTVSPropertyOp42
 70
     1
102
RTVSPropertyOp43
 70
     1
102
RTVSPropertyOp44
 70
     1
102
RTVSPropertyOp45
 70
     1
102
RTVSPropertyOp46
 70
     1
102
RTVSPropertyOp47
 70
     1
102
RTVSPropertyOp48
 70
     1
102
RTVSPropertyOp49
 70
     1
102
RTVSPropertyOp50
 70
     1
102
RTVSPropertyOp51
 70
     0
102
RTVSPropertyOp52
 70
     0
102
RTVSPropertyOp53
 70
     1
102
RTVSPropertyOp54
 70
     1
102
RTVSPropertyOp55
 70
     1
102
RTVSPropertyOp56
 70
     1
102
RTVSPropertyOp57
 70
     1
102
RTVSPropertyOp58
 70
     1
102
RTVSPropertyOp59
 70
     1
102
RTVSPropertyOp60
 70
     1
102
RTVSPropertyOp61
 70
     1
102
RTVSPropertyOp62
 70
     1
  0
XRECORD
  5
C090
102
{ACAD_REACTORS
330
C08F
102
}
330
C08F
100
AcDbXrecord
280
     1
102
RTVSPost2010Prop28
280
     0
102
RTVSPost2010PropOp28
 70
     1
102
RTVSPost2010Prop29
280
     1
102
RTVSPost2010PropOp29
 70
     1
102
RTVSPost2010Prop30
280
     1
102
RTVSPost2010PropOp30
 70
     1
102
RTVSPost2010Prop31
280
     0
102
RTVSPost2010PropOp31
 70
     1
102
RTVSPost2010Prop32
280
     0
102
RTVSPost2010PropOp32
 70
     1
102
RTVSPost2010Prop33
280
     0
102
RTVSPost2010PropOp33
 70
     1
102
RTVSPost2010Prop34
280
     0
102
RTVSPost2010PropOp34
 70
     1
102
RTVSPost2010Prop35
280
     0
102
RTVSPost2010PropOp35
 70
     1
102
RTVSPost2010Prop36
280
     0
102
RTVSPost2010PropOp36
 70
     1
102
RTVSPost2010Prop37
 90
       50
102
RTVSPost2010PropOp37
 70
     1
102
RTVSPost2010Prop38
140
0.0
102
RTVSPost2010PropOp38
 70
     1
102
RTVSPost2010Prop39
140
1.0
102
RTVSPost2010PropOp39
 70
     1
102
RTVSPost2010Prop40
 90
        0
102
RTVSPost2010PropOp40
 70
     1
102
RTVSPost2010Prop41ColorIndex
 90
       18
102
RTVSPost2010Prop41ColorRGB
 90
        0
102
RTVSPost2010PropOp41
 70
     1
102
RTVSPost2010Prop42
 90
       50
102
RTVSPost2010PropOp42
 70
     1
102
RTVSPost2010Prop43
 90
        3
102
RTVSPost2010PropOp43
 70
     1
102
RTVSPost2010Prop44ColorIndex
 90
        5
102
RTVSPost2010Prop44ColorRGB
 90
      255
102
RTVSPost2010PropOp44
 70
     1
102
RTVSPost2010Prop45
280
     0
102
RTVSPost2010PropOp45
 70
     1
102
RTVSPost2010Prop46
 90
       50
102
RTVSPost2010PropOp46
 70
     1
102
RTVSPost2010Prop47
 90
       50
102
RTVSPost2010PropOp47
 70
     1
102
RTVSPost2010Prop48
 90
       50
102
RTVSPost2010PropOp48
 70
     1
102
RTVSPost2010Prop49
280
     0
102
RTVSPost2010PropOp49
 70
     1
102
RTVSPost2010Prop50
 90
       50
102
RTVSPost2010PropOp50
 70
     1
102
RTVSPost2010Prop51ColorIndex
 90
      256
102
RTVSPost2010Prop51ColorRGB
 90
-16777216
102
RTVSPost2010PropOp51
 70
     0
102
RTVSPost2010Prop52
140
1.0
102
RTVSPost2010PropOp52
 70
     0
102
RTVSPost2010Prop53
 90
        2
102
RTVSPost2010PropOp53
 70
     1
102
RTVSPost2010Prop54
  1
strokes_ogs.tif
102
RTVSPost2010PropOp54
 70
     1
102
RTVSPost2010Prop55
280
     0
102
RTVSPost2010PropOp55
 70
     1
102
RTVSPost2010Prop56
140
1.0
102
RTVSPost2010PropOp56
 70
     1
102
RTVSPost2010Prop57
140
1.0
102
RTVSPost2010PropOp57
 70
     1
102
RTVSPropertyOp0
 70
     1
102
RTVSPropertyOp1
 70
     1
102
RTVSPropertyOp2
 70
     1
102
RTVSPropertyOp3
 70
     1
102
RTVSPropertyOp4
 70
     1
102
RTVSPropertyOp5
 70
     1
102
RTVSPropertyOp6
 70
     1
102
RTVSPropertyOp7
 70
     1
102
RTVSPropertyOp8
 70
     1
102
RTVSPropertyOp9
 70
     1
102
RTVSPropertyOp10
 70
     1
102
RTVSPropertyOp11
 70
     1
102
RTVSPropertyOp12
 70
     1
102
RTVSPropertyOp13
 70
     1
102
RTVSPropertyOp14
 70
     1
102
RTVSPropertyOp15
 70
     1
102
RTVSPropertyOp16
 70
     1
102
RTVSPropertyOp17
 70
     1
102
RTVSPropertyOp18
 70
     1
102
RTVSPropertyOp19
 70
     1
102
RTVSPropertyOp20
 70
     1
102
RTVSPropertyOp21
 70
     1
102
RTVSPropertyOp22
 70
     1
102
RTVSPropertyOp23
 70
     1
102
RTVSPropertyOp24
 70
     1
102
RTVSPropertyOp25
 70
     1
102
RTVSPropertyOp26
 70
     1
102
RTVSPropertyOp27
 70
     1
102
RTVSPropertyOp28
 70
     1
102
RTVSPropertyOp29
 70
     1
102
RTVSPropertyOp30
 70
     1
102
RTVSPropertyOp31
 70
     1
102
RTVSPropertyOp32
 70
     1
102
RTVSPropertyOp33
 70
     1
102
RTVSPropertyOp34
 70
     1
102
RTVSPropertyOp35
 70
     1
102
RTVSPropertyOp36
 70
     1
102
RTVSPropertyOp37
 70
     1
102
RTVSPropertyOp38
 70
     1
102
RTVSPropertyOp39
 70
     1
102
RTVSPropertyOp40
 70
     1
102
RTVSPropertyOp41
 70
     1
102
RTVSPropertyOp42
 70
     1
102
RTVSPropertyOp43
 70
     1
102
RTVSPropertyOp44
 70
     1
102
RTVSPropertyOp45
 70
     1
102
RTVSPropertyOp46
 70
     1
102
RTVSPropertyOp47
 70
     1
102
RTVSPropertyOp48
 70
     1
102
RTVSPropertyOp49
 70
     1
102
RTVSPropertyOp50
 70
     1
102
RTVSPropertyOp51
 70
     0
102
RTVSPropertyOp52
 70
     0
102
RTVSPropertyOp53
 70
     1
102
RTVSPropertyOp54
 70
     1
102
RTVSPropertyOp55
 70
     1
102
RTVSPropertyOp56
 70
     1
102
RTVSPropertyOp57
 70
     1
102
RTVSPropertyOp58
 70
     1
102
RTVSPropertyOp59
 70
     1
102
RTVSPropertyOp60
 70
     1
102
RTVSPropertyOp61
 70
     1
102
RTVSPropertyOp62
 70
     1
  0
XRECORD
  5
C082
102
{ACAD_REACTORS
330
C081
102
}
330
C081
100
AcDbXrecord
280
     1
102
RTVSPost2010Prop28
280
     0
102
RTVSPost2010PropOp28
 70
     1
102
RTVSPost2010Prop29
280
     1
102
RTVSPost2010PropOp29
 70
     1
102
RTVSPost2010Prop30
280
     1
102
RTVSPost2010PropOp30
 70
     1
102
RTVSPost2010Prop31
280
     0
102
RTVSPost2010PropOp31
 70
     1
102
RTVSPost2010Prop32
280
     0
102
RTVSPost2010PropOp32
 70
     1
102
RTVSPost2010Prop33
280
     0
102
RTVSPost2010PropOp33
 70
     1
102
RTVSPost2010Prop34
280
     0
102
RTVSPost2010PropOp34
 70
     1
102
RTVSPost2010Prop35
280
     0
102
RTVSPost2010PropOp35
 70
     1
102
RTVSPost2010Prop36
280
     0
102
RTVSPost2010PropOp36
 70
     1
102
RTVSPost2010Prop37
 90
       50
102
RTVSPost2010PropOp37
 70
     1
102
RTVSPost2010Prop38
140
0.0
102
RTVSPost2010PropOp38
 70
     1
102
RTVSPost2010Prop39
140
1.0
102
RTVSPost2010PropOp39
 70
     1
102
RTVSPost2010Prop40
 90
        0
102
RTVSPost2010PropOp40
 70
     1
102
RTVSPost2010Prop41ColorIndex
 90
       18
102
RTVSPost2010Prop41ColorRGB
 90
        0
102
RTVSPost2010PropOp41
 70
     1
102
RTVSPost2010Prop42
 90
       50
102
RTVSPost2010PropOp42
 70
     1
102
RTVSPost2010Prop43
 90
        3
102
RTVSPost2010PropOp43
 70
     1
102
RTVSPost2010Prop44ColorIndex
 90
        5
102
RTVSPost2010Prop44ColorRGB
 90
      255
102
RTVSPost2010PropOp44
 70
     1
102
RTVSPost2010Prop45
280
     0
102
RTVSPost2010PropOp45
 70
     1
102
RTVSPost2010Prop46
 90
       50
102
RTVSPost2010PropOp46
 70
     1
102
RTVSPost2010Prop47
 90
       50
102
RTVSPost2010PropOp47
 70
     1
102
RTVSPost2010Prop48
 90
       50
102
RTVSPost2010PropOp48
 70
     1
102
RTVSPost2010Prop49
280
     0
102
RTVSPost2010PropOp49
 70
     1
102
RTVSPost2010Prop50
 90
       50
102
RTVSPost2010PropOp50
 70
     1
102
RTVSPost2010Prop51ColorIndex
 90
      256
102
RTVSPost2010Prop51ColorRGB
 90
-16777216
102
RTVSPost2010PropOp51
 70
     0
102
RTVSPost2010Prop52
140
1.0
102
RTVSPost2010PropOp52
 70
     0
102
RTVSPost2010Prop53
 90
        2
102
RTVSPost2010PropOp53
 70
     1
102
RTVSPost2010Prop54
  1
strokes_ogs.tif
102
RTVSPost2010PropOp54
 70
     1
102
RTVSPost2010Prop55
280
     0
102
RTVSPost2010PropOp55
 70
     1
102
RTVSPost2010Prop56
140
1.0
102
RTVSPost2010PropOp56
 70
     1
102
RTVSPost2010Prop57
140
1.0
102
RTVSPost2010PropOp57
 70
     1
102
RTVSPropertyOp0
 70
     1
102
RTVSPropertyOp1
 70
     1
102
RTVSPropertyOp2
 70
     1
102
RTVSPropertyOp3
 70
     1
102
RTVSPropertyOp4
 70
     1
102
RTVSPropertyOp5
 70
     1
102
RTVSPropertyOp6
 70
     1
102
RTVSPropertyOp7
 70
     1
102
RTVSPropertyOp8
 70
     1
102
RTVSPropertyOp9
 70
     1
102
RTVSPropertyOp10
 70
     1
102
RTVSPropertyOp11
 70
     1
102
RTVSPropertyOp12
 70
     1
102
RTVSPropertyOp13
 70
     1
102
RTVSPropertyOp14
 70
     1
102
RTVSPropertyOp15
 70
     1
102
RTVSPropertyOp16
 70
     1
102
RTVSPropertyOp17
 70
     1
102
RTVSPropertyOp18
 70
     1
102
RTVSPropertyOp19
 70
     1
102
RTVSPropertyOp20
 70
     1
102
RTVSPropertyOp21
 70
     1
102
RTVSPropertyOp22
 70
     1
102
RTVSPropertyOp23
 70
     1
102
RTVSPropertyOp24
 70
     1
102
RTVSPropertyOp25
 70
     1
102
RTVSPropertyOp26
 70
     1
102
RTVSPropertyOp27
 70
     1
102
RTVSPropertyOp28
 70
     1
102
RTVSPropertyOp29
 70
     1
102
RTVSPropertyOp30
 70
     1
102
RTVSPropertyOp31
 70
     1
102
RTVSPropertyOp32
 70
     1
102
RTVSPropertyOp33
 70
     1
102
RTVSPropertyOp34
 70
     1
102
RTVSPropertyOp35
 70
     1
102
RTVSPropertyOp36
 70
     1
102
RTVSPropertyOp37
 70
     1
102
RTVSPropertyOp38
 70
     1
102
RTVSPropertyOp39
 70
     1
102
RTVSPropertyOp40
 70
     1
102
RTVSPropertyOp41
 70
     1
102
RTVSPropertyOp42
 70
     1
102
RTVSPropertyOp43
 70
     1
102
RTVSPropertyOp44
 70
     1
102
RTVSPropertyOp45
 70
     1
102
RTVSPropertyOp46
 70
     1
102
RTVSPropertyOp47
 70
     1
102
RTVSPropertyOp48
 70
     1
102
RTVSPropertyOp49
 70
     1
102
RTVSPropertyOp50
 70
     1
102
RTVSPropertyOp51
 70
     0
102
RTVSPropertyOp52
 70
     0
102
RTVSPropertyOp53
 70
     1
102
RTVSPropertyOp54
 70
     1
102
RTVSPropertyOp55
 70
     1
102
RTVSPropertyOp56
 70
     1
102
RTVSPropertyOp57
 70
     1
102
RTVSPropertyOp58
 70
     1
102
RTVSPropertyOp59
 70
     1
102
RTVSPropertyOp60
 70
     1
102
RTVSPropertyOp61
 70
     1
102
RTVSPropertyOp62
 70
     1
  0
XRECORD
  5
C086
102
{ACAD_REACTORS
330
C085
102
}
330
C085
100
AcDbXrecord
280
     1
102
RTVSPost2010Prop28
280
     0
102
RTVSPost2010PropOp28
 70
     1
102
RTVSPost2010Prop29
280
     1
102
RTVSPost2010PropOp29
 70
     1
102
RTVSPost2010Prop30
280
     1
102
RTVSPost2010PropOp30
 70
     1
102
RTVSPost2010Prop31
280
     0
102
RTVSPost2010PropOp31
 70
     1
102
RTVSPost2010Prop32
280
     0
102
RTVSPost2010PropOp32
 70
     1
102
RTVSPost2010Prop33
280
     0
102
RTVSPost2010PropOp33
 70
     1
102
RTVSPost2010Prop34
280
     0
102
RTVSPost2010PropOp34
 70
     1
102
RTVSPost2010Prop35
280
     0
102
RTVSPost2010PropOp35
 70
     1
102
RTVSPost2010Prop36
280
     0
102
RTVSPost2010PropOp36
 70
     1
102
RTVSPost2010Prop37
 90
       50
102
RTVSPost2010PropOp37
 70
     1
102
RTVSPost2010Prop38
140
0.0
102
RTVSPost2010PropOp38
 70
     1
102
RTVSPost2010Prop39
140
1.0
102
RTVSPost2010PropOp39
 70
     1
102
RTVSPost2010Prop40
 90
        0
102
RTVSPost2010PropOp40
 70
     1
102
RTVSPost2010Prop41ColorIndex
 90
       18
102
RTVSPost2010Prop41ColorRGB
 90
        0
102
RTVSPost2010PropOp41
 70
     1
102
RTVSPost2010Prop42
 90
       50
102
RTVSPost2010PropOp42
 70
     1
102
RTVSPost2010Prop43
 90
        3
102
RTVSPost2010PropOp43
 70
     1
102
RTVSPost2010Prop44ColorIndex
 90
        5
102
RTVSPost2010Prop44ColorRGB
 90
      255
102
RTVSPost2010PropOp44
 70
     1
102
RTVSPost2010Prop45
280
     0
102
RTVSPost2010PropOp45
 70
     1
102
RTVSPost2010Prop46
 90
       50
102
RTVSPost2010PropOp46
 70
     1
102
RTVSPost2010Prop47
 90
       50
102
RTVSPost2010PropOp47
 70
     1
102
RTVSPost2010Prop48
 90
       50
102
RTVSPost2010PropOp48
 70
     1
102
RTVSPost2010Prop49
280
     0
102
RTVSPost2010PropOp49
 70
     1
102
RTVSPost2010Prop50
 90
       50
102
RTVSPost2010PropOp50
 70
     1
102
RTVSPost2010Prop51ColorIndex
 90
      256
102
RTVSPost2010Prop51ColorRGB
 90
-16777216
102
RTVSPost2010PropOp51
 70
     0
102
RTVSPost2010Prop52
140
1.0
102
RTVSPost2010PropOp52
 70
     0
102
RTVSPost2010Prop53
 90
        2
102
RTVSPost2010PropOp53
 70
     1
102
RTVSPost2010Prop54
  1
strokes_ogs.tif
102
RTVSPost2010PropOp54
 70
     1
102
RTVSPost2010Prop55
280
     0
102
RTVSPost2010PropOp55
 70
     1
102
RTVSPost2010Prop56
140
1.0
102
RTVSPost2010PropOp56
 70
     1
102
RTVSPost2010Prop57
140
1.0
102
RTVSPost2010PropOp57
 70
     1
102
RTVSPropertyOp0
 70
     1
102
RTVSPropertyOp1
 70
     1
102
RTVSPropertyOp2
 70
     1
102
RTVSPropertyOp3
 70
     1
102
RTVSPropertyOp4
 70
     1
102
RTVSPropertyOp5
 70
     1
102
RTVSPropertyOp6
 70
     1
102
RTVSPropertyOp7
 70
     1
102
RTVSPropertyOp8
 70
     1
102
RTVSPropertyOp9
 70
     1
102
RTVSPropertyOp10
 70
     1
102
RTVSPropertyOp11
 70
     1
102
RTVSPropertyOp12
 70
     1
102
RTVSPropertyOp13
 70
     1
102
RTVSPropertyOp14
 70
     1
102
RTVSPropertyOp15
 70
     1
102
RTVSPropertyOp16
 70
     1
102
RTVSPropertyOp17
 70
     1
102
RTVSPropertyOp18
 70
     1
102
RTVSPropertyOp19
 70
     1
102
RTVSPropertyOp20
 70
     1
102
RTVSPropertyOp21
 70
     1
102
RTVSPropertyOp22
 70
     1
102
RTVSPropertyOp23
 70
     1
102
RTVSPropertyOp24
 70
     1
102
RTVSPropertyOp25
 70
     1
102
RTVSPropertyOp26
 70
     1
102
RTVSPropertyOp27
 70
     1
102
RTVSPropertyOp28
 70
     1
102
RTVSPropertyOp29
 70
     1
102
RTVSPropertyOp30
 70
     1
102
RTVSPropertyOp31
 70
     1
102
RTVSPropertyOp32
 70
     1
102
RTVSPropertyOp33
 70
     1
102
RTVSPropertyOp34
 70
     1
102
RTVSPropertyOp35
 70
     1
102
RTVSPropertyOp36
 70
     1
102
RTVSPropertyOp37
 70
     1
102
RTVSPropertyOp38
 70
     1
102
RTVSPropertyOp39
 70
     1
102
RTVSPropertyOp40
 70
     1
102
RTVSPropertyOp41
 70
     1
102
RTVSPropertyOp42
 70
     1
102
RTVSPropertyOp43
 70
     1
102
RTVSPropertyOp44
 70
     1
102
RTVSPropertyOp45
 70
     1
102
RTVSPropertyOp46
 70
     1
102
RTVSPropertyOp47
 70
     1
102
RTVSPropertyOp48
 70
     1
102
RTVSPropertyOp49
 70
     1
102
RTVSPropertyOp50
 70
     1
102
RTVSPropertyOp51
 70
     0
102
RTVSPropertyOp52
 70
     0
102
RTVSPropertyOp53
 70
     1
102
RTVSPropertyOp54
 70
     1
102
RTVSPropertyOp55
 70
     1
102
RTVSPropertyOp56
 70
     1
102
RTVSPropertyOp57
 70
     1
102
RTVSPropertyOp58
 70
     1
102
RTVSPropertyOp59
 70
     1
102
RTVSPropertyOp60
 70
     1
102
RTVSPropertyOp61
 70
     1
102
RTVSPropertyOp62
 70
     1
  0
XRECORD
  5
C0A0
102
{ACAD_REACTORS
330
C09F
102
}
330
C09F
100
AcDbXrecord
280
     1
102
RTVSPost2010Prop28
280
     0
102
RTVSPost2010PropOp28
 70
     1
102
RTVSPost2010Prop29
280
     1
102
RTVSPost2010PropOp29
 70
     1
102
RTVSPost2010Prop30
280
     1
102
RTVSPost2010PropOp30
 70
     1
102
RTVSPost2010Prop31
280
     0
102
RTVSPost2010PropOp31
 70
     1
102
RTVSPost2010Prop32
280
     0
102
RTVSPost2010PropOp32
 70
     1
102
RTVSPost2010Prop33
280
     0
102
RTVSPost2010PropOp33
 70
     1
102
RTVSPost2010Prop34
280
     0
102
RTVSPost2010PropOp34
 70
     1
102
RTVSPost2010Prop35
280
     0
102
RTVSPost2010PropOp35
 70
     1
102
RTVSPost2010Prop36
280
     0
102
RTVSPost2010PropOp36
 70
     1
102
RTVSPost2010Prop37
 90
       50
102
RTVSPost2010PropOp37
 70
     0
102
RTVSPost2010Prop38
140
0.0
102
RTVSPost2010PropOp38
 70
     0
102
RTVSPost2010Prop39
140
1.0
102
RTVSPost2010PropOp39
 70
     0
102
RTVSPost2010Prop40
 90
        0
102
RTVSPost2010PropOp40
 70
     0
102
RTVSPost2010Prop41ColorIndex
 90
       18
102
RTVSPost2010Prop41ColorRGB
 90
        0
102
RTVSPost2010PropOp41
 70
     0
102
RTVSPost2010Prop42
 90
       50
102
RTVSPost2010PropOp42
 70
     0
102
RTVSPost2010Prop43
 90
        3
102
RTVSPost2010PropOp43
 70
     0
102
RTVSPost2010Prop44ColorIndex
 90
        5
102
RTVSPost2010Prop44ColorRGB
 90
      255
102
RTVSPost2010PropOp44
 70
     0
102
RTVSPost2010Prop45
280
     0
102
RTVSPost2010PropOp45
 70
     1
102
RTVSPost2010Prop46
 90
       50
102
RTVSPost2010PropOp46
 70
     0
102
RTVSPost2010Prop47
 90
       50
102
RTVSPost2010PropOp47
 70
     0
102
RTVSPost2010Prop48
 90
       50
102
RTVSPost2010PropOp48
 70
     0
102
RTVSPost2010Prop49
280
     0
102
RTVSPost2010PropOp49
 70
     1
102
RTVSPost2010Prop50
 90
       50
102
RTVSPost2010PropOp50
 70
     0
102
RTVSPost2010Prop51ColorIndex
 90
      256
102
RTVSPost2010Prop51ColorRGB
 90
-16777216
102
RTVSPost2010PropOp51
 70
     0
102
RTVSPost2010Prop52
140
1.0
102
RTVSPost2010PropOp52
 70
     0
102
RTVSPost2010Prop53
 90
        2
102
RTVSPost2010PropOp53
 70
     0
102
RTVSPost2010Prop54
  1
strokes_ogs.tif
102
RTVSPost2010PropOp54
 70
     0
102
RTVSPost2010Prop55
280
     0
102
RTVSPost2010PropOp55
 70
     1
102
RTVSPost2010Prop56
140
1.0
102
RTVSPost2010PropOp56
 70
     0
102
RTVSPost2010Prop57
140
1.0
102
RTVSPost2010PropOp57
 70
     0
102
RTVSPropertyOp0
 70
     0
102
RTVSPropertyOp1
 70
     0
102
RTVSPropertyOp2
 70
     0
102
RTVSPropertyOp3
 70
     0
102
RTVSPropertyOp4
 70
     0
102
RTVSPropertyOp5
 70
     0
102
RTVSPropertyOp6
 70
     0
102
RTVSPropertyOp7
 70
     0
102
RTVSPropertyOp8
 70
     0
102
RTVSPropertyOp9
 70
     0
102
RTVSPropertyOp10
 70
     0
102
RTVSPropertyOp11
 70
     0
102
RTVSPropertyOp12
 70
     0
102
RTVSPropertyOp13
 70
     0
102
RTVSPropertyOp14
 70
     2
102
RTVSPropertyOp15
 70
     0
102
RTVSPropertyOp16
 70
     0
102
RTVSPropertyOp17
 70
     0
102
RTVSPropertyOp18
 70
     0
102
RTVSPropertyOp19
 70
     0
102
RTVSPropertyOp20
 70
     0
102
RTVSPropertyOp21
 70
     0
102
RTVSPropertyOp22
 70
     0
102
RTVSPropertyOp23
 70
     0
102
RTVSPropertyOp24
 70
     0
102
RTVSPropertyOp25
 70
     0
102
RTVSPropertyOp26
 70
     0
102
RTVSPropertyOp27
 70
     0
102
RTVSPropertyOp28
 70
     1
102
RTVSPropertyOp29
 70
     1
102
RTVSPropertyOp30
 70
     1
102
RTVSPropertyOp31
 70
     1
102
RTVSPropertyOp32
 70
     1
102
RTVSPropertyOp33
 70
     1
102
RTVSPropertyOp34
 70
     1
102
RTVSPropertyOp35
 70
     1
102
RTVSPropertyOp36
 70
     1
102
RTVSPropertyOp37
 70
     0
102
RTVSPropertyOp38
 70
     0
102
RTVSPropertyOp39
 70
     0
102
RTVSPropertyOp40
 70
     0
102
RTVSPropertyOp41
 70
     0
102
RTVSPropertyOp42
 70
     0
102
RTVSPropertyOp43
 70
     0
102
RTVSPropertyOp44
 70
     0
102
RTVSPropertyOp45
 70
     1
102
RTVSPropertyOp46
 70
     0
102
RTVSPropertyOp47
 70
     0
102
RTVSPropertyOp48
 70
     0
102
RTVSPropertyOp49
 70
     1
102
RTVSPropertyOp50
 70
     0
102
RTVSPropertyOp51
 70
     0
102
RTVSPropertyOp52
 70
     0
102
RTVSPropertyOp53
 70
     0
102
RTVSPropertyOp54
 70
     0
102
RTVSPropertyOp55
 70
     1
102
RTVSPropertyOp56
 70
     0
102
RTVSPropertyOp57
 70
     0
102
RTVSPropertyOp58
 70
     0
102
RTVSPropertyOp59
 70
     0
102
RTVSPropertyOp60
 70
     0
102
RTVSPropertyOp61
 70
     0
102
RTVSPropertyOp62
 70
     0
  0
XRECORD
  5
C08E
102
{ACAD_REACTORS
330
C08D
102
}
330
C08D
100
AcDbXrecord
280
     1
102
RTVSPost2010Prop28
280
     0
102
RTVSPost2010PropOp28
 70
     1
102
RTVSPost2010Prop29
280
     1
102
RTVSPost2010PropOp29
 70
     1
102
RTVSPost2010Prop30
280
     1
102
RTVSPost2010PropOp30
 70
     1
102
RTVSPost2010Prop31
280
     0
102
RTVSPost2010PropOp31
 70
     1
102
RTVSPost2010Prop32
280
     0
102
RTVSPost2010PropOp32
 70
     1
102
RTVSPost2010Prop33
280
     0
102
RTVSPost2010PropOp33
 70
     1
102
RTVSPost2010Prop34
280
     0
102
RTVSPost2010PropOp34
 70
     1
102
RTVSPost2010Prop35
280
     0
102
RTVSPost2010PropOp35
 70
     1
102
RTVSPost2010Prop36
280
     0
102
RTVSPost2010PropOp36
 70
     1
102
RTVSPost2010Prop37
 90
       50
102
RTVSPost2010PropOp37
 70
     1
102
RTVSPost2010Prop38
140
0.0
102
RTVSPost2010PropOp38
 70
     1
102
RTVSPost2010Prop39
140
1.0
102
RTVSPost2010PropOp39
 70
     1
102
RTVSPost2010Prop40
 90
        0
102
RTVSPost2010PropOp40
 70
     1
102
RTVSPost2010Prop41ColorIndex
 90
       18
102
RTVSPost2010Prop41ColorRGB
 90
        0
102
RTVSPost2010PropOp41
 70
     1
102
RTVSPost2010Prop42
 90
       50
102
RTVSPost2010PropOp42
 70
     1
102
RTVSPost2010Prop43
 90
        3
102
RTVSPost2010PropOp43
 70
     1
102
RTVSPost2010Prop44ColorIndex
 90
        5
102
RTVSPost2010Prop44ColorRGB
 90
      255
102
RTVSPost2010PropOp44
 70
     1
102
RTVSPost2010Prop45
280
     0
102
RTVSPost2010PropOp45
 70
     1
102
RTVSPost2010Prop46
 90
       50
102
RTVSPost2010PropOp46
 70
     1
102
RTVSPost2010Prop47
 90
       50
102
RTVSPost2010PropOp47
 70
     1
102
RTVSPost2010Prop48
 90
       50
102
RTVSPost2010PropOp48
 70
     1
102
RTVSPost2010Prop49
280
     0
102
RTVSPost2010PropOp49
 70
     1
102
RTVSPost2010Prop50
 90
       50
102
RTVSPost2010PropOp50
 70
     1
102
RTVSPost2010Prop51ColorIndex
 90
      256
102
RTVSPost2010Prop51ColorRGB
 90
-16777216
102
RTVSPost2010PropOp51
 70
     0
102
RTVSPost2010Prop52
140
1.0
102
RTVSPost2010PropOp52
 70
     0
102
RTVSPost2010Prop53
 90
        2
102
RTVSPost2010PropOp53
 70
     1
102
RTVSPost2010Prop54
  1
strokes_ogs.tif
102
RTVSPost2010PropOp54
 70
     1
102
RTVSPost2010Prop55
280
     0
102
RTVSPost2010PropOp55
 70
     1
102
RTVSPost2010Prop56
140
1.0
102
RTVSPost2010PropOp56
 70
     1
102
RTVSPost2010Prop57
140
1.0
102
RTVSPost2010PropOp57
 70
     1
102
RTVSPropertyOp0
 70
     1
102
RTVSPropertyOp1
 70
     1
102
RTVSPropertyOp2
 70
     1
102
RTVSPropertyOp3
 70
     1
102
RTVSPropertyOp4
 70
     1
102
RTVSPropertyOp5
 70
     1
102
RTVSPropertyOp6
 70
     1
102
RTVSPropertyOp7
 70
     1
102
RTVSPropertyOp8
 70
     1
102
RTVSPropertyOp9
 70
     1
102
RTVSPropertyOp10
 70
     1
102
RTVSPropertyOp11
 70
     1
102
RTVSPropertyOp12
 70
     1
102
RTVSPropertyOp13
 70
     1
102
RTVSPropertyOp14
 70
     1
102
RTVSPropertyOp15
 70
     1
102
RTVSPropertyOp16
 70
     1
102
RTVSPropertyOp17
 70
     1
102
RTVSPropertyOp18
 70
     1
102
RTVSPropertyOp19
 70
     1
102
RTVSPropertyOp20
 70
     1
102
RTVSPropertyOp21
 70
     1
102
RTVSPropertyOp22
 70
     1
102
RTVSPropertyOp23
 70
     1
102
RTVSPropertyOp24
 70
     1
102
RTVSPropertyOp25
 70
     1
102
RTVSPropertyOp26
 70
     1
102
RTVSPropertyOp27
 70
     1
102
RTVSPropertyOp28
 70
     1
102
RTVSPropertyOp29
 70
     1
102
RTVSPropertyOp30
 70
     1
102
RTVSPropertyOp31
 70
     1
102
RTVSPropertyOp32
 70
     1
102
RTVSPropertyOp33
 70
     1
102
RTVSPropertyOp34
 70
     1
102
RTVSPropertyOp35
 70
     1
102
RTVSPropertyOp36
 70
     1
102
RTVSPropertyOp37
 70
     1
102
RTVSPropertyOp38
 70
     1
102
RTVSPropertyOp39
 70
     1
102
RTVSPropertyOp40
 70
     1
102
RTVSPropertyOp41
 70
     1
102
RTVSPropertyOp42
 70
     1
102
RTVSPropertyOp43
 70
     1
102
RTVSPropertyOp44
 70
     1
102
RTVSPropertyOp45
 70
     1
102
RTVSPropertyOp46
 70
     1
102
RTVSPropertyOp47
 70
     1
102
RTVSPropertyOp48
 70
     1
102
RTVSPropertyOp49
 70
     1
102
RTVSPropertyOp50
 70
     1
102
RTVSPropertyOp51
 70
     0
102
RTVSPropertyOp52
 70
     0
102
RTVSPropertyOp53
 70
     1
102
RTVSPropertyOp54
 70
     1
102
RTVSPropertyOp55
 70
     1
102
RTVSPropertyOp56
 70
     1
102
RTVSPropertyOp57
 70
     1
102
RTVSPropertyOp58
 70
     1
102
RTVSPropertyOp59
 70
     1
102
RTVSPropertyOp60
 70
     1
102
RTVSPropertyOp61
 70
     1
102
RTVSPropertyOp62
 70
     1
  0
XRECORD
  5
C072
102
{ACAD_REACTORS
330
C071
102
}
330
C071
100
AcDbXrecord
280
     1
102
RTVSPost2010Prop28
280
     0
102
RTVSPost2010PropOp28
 70
     1
102
RTVSPost2010Prop29
280
     1
102
RTVSPost2010PropOp29
 70
     1
102
RTVSPost2010Prop30
280
     1
102
RTVSPost2010PropOp30
 70
     1
102
RTVSPost2010Prop31
280
     0
102
RTVSPost2010PropOp31
 70
     1
102
RTVSPost2010Prop32
280
     0
102
RTVSPost2010PropOp32
 70
     1
102
RTVSPost2010Prop33
280
     0
102
RTVSPost2010PropOp33
 70
     1
102
RTVSPost2010Prop34
280
     0
102
RTVSPost2010PropOp34
 70
     1
102
RTVSPost2010Prop35
280
     0
102
RTVSPost2010PropOp35
 70
     1
102
RTVSPost2010Prop36
280
     0
102
RTVSPost2010PropOp36
 70
     1
102
RTVSPost2010Prop37
 90
       50
102
RTVSPost2010PropOp37
 70
     1
102
RTVSPost2010Prop38
140
0.0
102
RTVSPost2010PropOp38
 70
     1
102
RTVSPost2010Prop39
140
1.0
102
RTVSPost2010PropOp39
 70
     1
102
RTVSPost2010Prop40
 90
        0
102
RTVSPost2010PropOp40
 70
     1
102
RTVSPost2010Prop41ColorIndex
 90
       18
102
RTVSPost2010Prop41ColorRGB
 90
        0
102
RTVSPost2010PropOp41
 70
     1
102
RTVSPost2010Prop42
 90
       50
102
RTVSPost2010PropOp42
 70
     1
102
RTVSPost2010Prop43
 90
        3
102
RTVSPost2010PropOp43
 70
     1
102
RTVSPost2010Prop44ColorIndex
 90
        5
102
RTVSPost2010Prop44ColorRGB
 90
      255
102
RTVSPost2010PropOp44
 70
     1
102
RTVSPost2010Prop45
280
     0
102
RTVSPost2010PropOp45
 70
     1
102
RTVSPost2010Prop46
 90
       50
102
RTVSPost2010PropOp46
 70
     1
102
RTVSPost2010Prop47
 90
       50
102
RTVSPost2010PropOp47
 70
     1
102
RTVSPost2010Prop48
 90
       50
102
RTVSPost2010PropOp48
 70
     1
102
RTVSPost2010Prop49
280
     0
102
RTVSPost2010PropOp49
 70
     1
102
RTVSPost2010Prop50
 90
       50
102
RTVSPost2010PropOp50
 70
     1
102
RTVSPost2010Prop51ColorIndex
 90
      256
102
RTVSPost2010Prop51ColorRGB
 90
-16777216
102
RTVSPost2010PropOp51
 70
     0
102
RTVSPost2010Prop52
140
1.0
102
RTVSPost2010PropOp52
 70
     0
102
RTVSPost2010Prop53
 90
        2
102
RTVSPost2010PropOp53
 70
     1
102
RTVSPost2010Prop54
  1
strokes_ogs.tif
102
RTVSPost2010PropOp54
 70
     1
102
RTVSPost2010Prop55
280
     0
102
RTVSPost2010PropOp55
 70
     1
102
RTVSPost2010Prop56
140
1.0
102
RTVSPost2010PropOp56
 70
     1
102
RTVSPost2010Prop57
140
1.0
102
RTVSPost2010PropOp57
 70
     1
102
RTVSPropertyOp0
 70
     1
102
RTVSPropertyOp1
 70
     1
102
RTVSPropertyOp2
 70
     1
102
RTVSPropertyOp3
 70
     1
102
RTVSPropertyOp4
 70
     1
102
RTVSPropertyOp5
 70
     1
102
RTVSPropertyOp6
 70
     1
102
RTVSPropertyOp7
 70
     1
102
RTVSPropertyOp8
 70
     1
102
RTVSPropertyOp9
 70
     1
102
RTVSPropertyOp10
 70
     1
102
RTVSPropertyOp11
 70
     1
102
RTVSPropertyOp12
 70
     1
102
RTVSPropertyOp13
 70
     1
102
RTVSPropertyOp14
 70
     1
102
RTVSPropertyOp15
 70
     1
102
RTVSPropertyOp16
 70
     1
102
RTVSPropertyOp17
 70
     1
102
RTVSPropertyOp18
 70
     1
102
RTVSPropertyOp19
 70
     1
102
RTVSPropertyOp20
 70
     1
102
RTVSPropertyOp21
 70
     1
102
RTVSPropertyOp22
 70
     1
102
RTVSPropertyOp23
 70
     1
102
RTVSPropertyOp24
 70
     1
102
RTVSPropertyOp25
 70
     1
102
RTVSPropertyOp26
 70
     1
102
RTVSPropertyOp27
 70
     1
102
RTVSPropertyOp28
 70
     1
102
RTVSPropertyOp29
 70
     1
102
RTVSPropertyOp30
 70
     1
102
RTVSPropertyOp31
 70
     1
102
RTVSPropertyOp32
 70
     1
102
RTVSPropertyOp33
 70
     1
102
RTVSPropertyOp34
 70
     1
102
RTVSPropertyOp35
 70
     1
102
RTVSPropertyOp36
 70
     1
102
RTVSPropertyOp37
 70
     1
102
RTVSPropertyOp38
 70
     1
102
RTVSPropertyOp39
 70
     1
102
RTVSPropertyOp40
 70
     1
102
RTVSPropertyOp41
 70
     1
102
RTVSPropertyOp42
 70
     1
102
RTVSPropertyOp43
 70
     1
102
RTVSPropertyOp44
 70
     1
102
RTVSPropertyOp45
 70
     1
102
RTVSPropertyOp46
 70
     1
102
RTVSPropertyOp47
 70
     1
102
RTVSPropertyOp48
 70
     1
102
RTVSPropertyOp49
 70
     1
102
RTVSPropertyOp50
 70
     1
102
RTVSPropertyOp51
 70
     0
102
RTVSPropertyOp52
 70
     0
102
RTVSPropertyOp53
 70
     1
102
RTVSPropertyOp54
 70
     1
102
RTVSPropertyOp55
 70
     1
102
RTVSPropertyOp56
 70
     1
102
RTVSPropertyOp57
 70
     1
102
RTVSPropertyOp58
 70
     1
102
RTVSPropertyOp59
 70
     1
102
RTVSPropertyOp60
 70
     1
102
RTVSPropertyOp61
 70
     1
102
RTVSPropertyOp62
 70
     1
  0
XRECORD
  5
C074
102
{ACAD_REACTORS
330
C073
102
}
330
C073
100
AcDbXrecord
280
     1
102
RTVSPost2010Prop28
280
     0
102
RTVSPost2010PropOp28
 70
     1
102
RTVSPost2010Prop29
280
     1
102
RTVSPost2010PropOp29
 70
     1
102
RTVSPost2010Prop30
280
     1
102
RTVSPost2010PropOp30
 70
     1
102
RTVSPost2010Prop31
280
     0
102
RTVSPost2010PropOp31
 70
     1
102
RTVSPost2010Prop32
280
     0
102
RTVSPost2010PropOp32
 70
     1
102
RTVSPost2010Prop33
280
     0
102
RTVSPost2010PropOp33
 70
     1
102
RTVSPost2010Prop34
280
     0
102
RTVSPost2010PropOp34
 70
     1
102
RTVSPost2010Prop35
280
     0
102
RTVSPost2010PropOp35
 70
     1
102
RTVSPost2010Prop36
280
     0
102
RTVSPost2010PropOp36
 70
     1
102
RTVSPost2010Prop37
 90
       50
102
RTVSPost2010PropOp37
 70
     1
102
RTVSPost2010Prop38
140
0.0
102
RTVSPost2010PropOp38
 70
     1
102
RTVSPost2010Prop39
140
1.0
102
RTVSPost2010PropOp39
 70
     1
102
RTVSPost2010Prop40
 90
        0
102
RTVSPost2010PropOp40
 70
     1
102
RTVSPost2010Prop41ColorIndex
 90
       18
102
RTVSPost2010Prop41ColorRGB
 90
        0
102
RTVSPost2010PropOp41
 70
     1
102
RTVSPost2010Prop42
 90
       50
102
RTVSPost2010PropOp42
 70
     1
102
RTVSPost2010Prop43
 90
        3
102
RTVSPost2010PropOp43
 70
     1
102
RTVSPost2010Prop44ColorIndex
 90
        5
102
RTVSPost2010Prop44ColorRGB
 90
      255
102
RTVSPost2010PropOp44
 70
     1
102
RTVSPost2010Prop45
280
     0
102
RTVSPost2010PropOp45
 70
     1
102
RTVSPost2010Prop46
 90
       50
102
RTVSPost2010PropOp46
 70
     1
102
RTVSPost2010Prop47
 90
       50
102
RTVSPost2010PropOp47
 70
     1
102
RTVSPost2010Prop48
 90
       50
102
RTVSPost2010PropOp48
 70
     1
102
RTVSPost2010Prop49
280
     0
102
RTVSPost2010PropOp49
 70
     1
102
RTVSPost2010Prop50
 90
       50
102
RTVSPost2010PropOp50
 70
     1
102
RTVSPost2010Prop51ColorIndex
 90
      256
102
RTVSPost2010Prop51ColorRGB
 90
-16777216
102
RTVSPost2010PropOp51
 70
     0
102
RTVSPost2010Prop52
140
1.0
102
RTVSPost2010PropOp52
 70
     0
102
RTVSPost2010Prop53
 90
        2
102
RTVSPost2010PropOp53
 70
     1
102
RTVSPost2010Prop54
  1
strokes_ogs.tif
102
RTVSPost2010PropOp54
 70
     1
102
RTVSPost2010Prop55
280
     0
102
RTVSPost2010PropOp55
 70
     1
102
RTVSPost2010Prop56
140
1.0
102
RTVSPost2010PropOp56
 70
     1
102
RTVSPost2010Prop57
140
1.0
102
RTVSPost2010PropOp57
 70
     1
102
RTVSPropertyOp0
 70
     1
102
RTVSPropertyOp1
 70
     1
102
RTVSPropertyOp2
 70
     1
102
RTVSPropertyOp3
 70
     1
102
RTVSPropertyOp4
 70
     1
102
RTVSPropertyOp5
 70
     1
102
RTVSPropertyOp6
 70
     1
102
RTVSPropertyOp7
 70
     1
102
RTVSPropertyOp8
 70
     1
102
RTVSPropertyOp9
 70
     1
102
RTVSPropertyOp10
 70
     1
102
RTVSPropertyOp11
 70
     1
102
RTVSPropertyOp12
 70
     1
102
RTVSPropertyOp13
 70
     1
102
RTVSPropertyOp14
 70
     1
102
RTVSPropertyOp15
 70
     1
102
RTVSPropertyOp16
 70
     1
102
RTVSPropertyOp17
 70
     1
102
RTVSPropertyOp18
 70
     1
102
RTVSPropertyOp19
 70
     1
102
RTVSPropertyOp20
 70
     1
102
RTVSPropertyOp21
 70
     1
102
RTVSPropertyOp22
 70
     1
102
RTVSPropertyOp23
 70
     1
102
RTVSPropertyOp24
 70
     1
102
RTVSPropertyOp25
 70
     1
102
RTVSPropertyOp26
 70
     1
102
RTVSPropertyOp27
 70
     1
102
RTVSPropertyOp28
 70
     1
102
RTVSPropertyOp29
 70
     1
102
RTVSPropertyOp30
 70
     1
102
RTVSPropertyOp31
 70
     1
102
RTVSPropertyOp32
 70
     1
102
RTVSPropertyOp33
 70
     1
102
RTVSPropertyOp34
 70
     1
102
RTVSPropertyOp35
 70
     1
102
RTVSPropertyOp36
 70
     1
102
RTVSPropertyOp37
 70
     1
102
RTVSPropertyOp38
 70
     1
102
RTVSPropertyOp39
 70
     1
102
RTVSPropertyOp40
 70
     1
102
RTVSPropertyOp41
 70
     1
102
RTVSPropertyOp42
 70
     1
102
RTVSPropertyOp43
 70
     1
102
RTVSPropertyOp44
 70
     1
102
RTVSPropertyOp45
 70
     1
102
RTVSPropertyOp46
 70
     1
102
RTVSPropertyOp47
 70
     1
102
RTVSPropertyOp48
 70
     1
102
RTVSPropertyOp49
 70
     1
102
RTVSPropertyOp50
 70
     1
102
RTVSPropertyOp51
 70
     0
102
RTVSPropertyOp52
 70
     0
102
RTVSPropertyOp53
 70
     1
102
RTVSPropertyOp54
 70
     1
102
RTVSPropertyOp55
 70
     1
102
RTVSPropertyOp56
 70
     1
102
RTVSPropertyOp57
 70
     1
102
RTVSPropertyOp58
 70
     1
102
RTVSPropertyOp59
 70
     1
102
RTVSPropertyOp60
 70
     1
102
RTVSPropertyOp61
 70
     1
102
RTVSPropertyOp62
 70
     1
  0
XRECORD
  5
C076
102
{ACAD_REACTORS
330
C075
102
}
330
C075
100
AcDbXrecord
280
     1
102
RTVSPost2010Prop28
280
     0
102
RTVSPost2010PropOp28
 70
     1
102
RTVSPost2010Prop29
280
     1
102
RTVSPost2010PropOp29
 70
     1
102
RTVSPost2010Prop30
280
     1
102
RTVSPost2010PropOp30
 70
     1
102
RTVSPost2010Prop31
280
     0
102
RTVSPost2010PropOp31
 70
     1
102
RTVSPost2010Prop32
280
     0
102
RTVSPost2010PropOp32
 70
     1
102
RTVSPost2010Prop33
280
     0
102
RTVSPost2010PropOp33
 70
     1
102
RTVSPost2010Prop34
280
     0
102
RTVSPost2010PropOp34
 70
     1
102
RTVSPost2010Prop35
280
     0
102
RTVSPost2010PropOp35
 70
     1
102
RTVSPost2010Prop36
280
     0
102
RTVSPost2010PropOp36
 70
     1
102
RTVSPost2010Prop37
 90
       50
102
RTVSPost2010PropOp37
 70
     1
102
RTVSPost2010Prop38
140
0.0
102
RTVSPost2010PropOp38
 70
     1
102
RTVSPost2010Prop39
140
1.0
102
RTVSPost2010PropOp39
 70
     1
102
RTVSPost2010Prop40
 90
        0
102
RTVSPost2010PropOp40
 70
     1
102
RTVSPost2010Prop41ColorIndex
 90
       18
102
RTVSPost2010Prop41ColorRGB
 90
        0
102
RTVSPost2010PropOp41
 70
     1
102
RTVSPost2010Prop42
 90
       50
102
RTVSPost2010PropOp42
 70
     1
102
RTVSPost2010Prop43
 90
        3
102
RTVSPost2010PropOp43
 70
     1
102
RTVSPost2010Prop44ColorIndex
 90
        5
102
RTVSPost2010Prop44ColorRGB
 90
      255
102
RTVSPost2010PropOp44
 70
     1
102
RTVSPost2010Prop45
280
     0
102
RTVSPost2010PropOp45
 70
     1
102
RTVSPost2010Prop46
 90
       50
102
RTVSPost2010PropOp46
 70
     1
102
RTVSPost2010Prop47
 90
       50
102
RTVSPost2010PropOp47
 70
     1
102
RTVSPost2010Prop48
 90
       50
102
RTVSPost2010PropOp48
 70
     1
102
RTVSPost2010Prop49
280
     0
102
RTVSPost2010PropOp49
 70
     1
102
RTVSPost2010Prop50
 90
       50
102
RTVSPost2010PropOp50
 70
     1
102
RTVSPost2010Prop51ColorIndex
 90
      256
102
RTVSPost2010Prop51ColorRGB
 90
-16777216
102
RTVSPost2010PropOp51
 70
     0
102
RTVSPost2010Prop52
140
1.0
102
RTVSPost2010PropOp52
 70
     0
102
RTVSPost2010Prop53
 90
        2
102
RTVSPost2010PropOp53
 70
     1
102
RTVSPost2010Prop54
  1
strokes_ogs.tif
102
RTVSPost2010PropOp54
 70
     1
102
RTVSPost2010Prop55
280
     0
102
RTVSPost2010PropOp55
 70
     1
102
RTVSPost2010Prop56
140
1.0
102
RTVSPost2010PropOp56
 70
     1
102
RTVSPost2010Prop57
140
1.0
102
RTVSPost2010PropOp57
 70
     1
102
RTVSPropertyOp0
 70
     1
102
RTVSPropertyOp1
 70
     1
102
RTVSPropertyOp2
 70
     1
102
RTVSPropertyOp3
 70
     1
102
RTVSPropertyOp4
 70
     1
102
RTVSPropertyOp5
 70
     1
102
RTVSPropertyOp6
 70
     1
102
RTVSPropertyOp7
 70
     1
102
RTVSPropertyOp8
 70
     1
102
RTVSPropertyOp9
 70
     1
102
RTVSPropertyOp10
 70
     1
102
RTVSPropertyOp11
 70
     1
102
RTVSPropertyOp12
 70
     1
102
RTVSPropertyOp13
 70
     1
102
RTVSPropertyOp14
 70
     1
102
RTVSPropertyOp15
 70
     1
102
RTVSPropertyOp16
 70
     1
102
RTVSPropertyOp17
 70
     1
102
RTVSPropertyOp18
 70
     1
102
RTVSPropertyOp19
 70
     1
102
RTVSPropertyOp20
 70
     1
102
RTVSPropertyOp21
 70
     1
102
RTVSPropertyOp22
 70
     1
102
RTVSPropertyOp23
 70
     1
102
RTVSPropertyOp24
 70
     1
102
RTVSPropertyOp25
 70
     1
102
RTVSPropertyOp26
 70
     1
102
RTVSPropertyOp27
 70
     1
102
RTVSPropertyOp28
 70
     1
102
RTVSPropertyOp29
 70
     1
102
RTVSPropertyOp30
 70
     1
102
RTVSPropertyOp31
 70
     1
102
RTVSPropertyOp32
 70
     1
102
RTVSPropertyOp33
 70
     1
102
RTVSPropertyOp34
 70
     1
102
RTVSPropertyOp35
 70
     1
102
RTVSPropertyOp36
 70
     1
102
RTVSPropertyOp37
 70
     1
102
RTVSPropertyOp38
 70
     1
102
RTVSPropertyOp39
 70
     1
102
RTVSPropertyOp40
 70
     1
102
RTVSPropertyOp41
 70
     1
102
RTVSPropertyOp42
 70
     1
102
RTVSPropertyOp43
 70
     1
102
RTVSPropertyOp44
 70
     1
102
RTVSPropertyOp45
 70
     1
102
RTVSPropertyOp46
 70
     1
102
RTVSPropertyOp47
 70
     1
102
RTVSPropertyOp48
 70
     1
102
RTVSPropertyOp49
 70
     1
102
RTVSPropertyOp50
 70
     1
102
RTVSPropertyOp51
 70
     0
102
RTVSPropertyOp52
 70
     0
102
RTVSPropertyOp53
 70
     1
102
RTVSPropertyOp54
 70
     1
102
RTVSPropertyOp55
 70
     1
102
RTVSPropertyOp56
 70
     1
102
RTVSPropertyOp57
 70
     1
102
RTVSPropertyOp58
 70
     1
102
RTVSPropertyOp59
 70
     1
102
RTVSPropertyOp60
 70
     1
102
RTVSPropertyOp61
 70
     1
102
RTVSPropertyOp62
 70
     1
  0
XRECORD
  5
C078
102
{ACAD_REACTORS
330
C077
102
}
330
C077
100
AcDbXrecord
280
     1
102
RTVSPost2010Prop28
280
     0
102
RTVSPost2010PropOp28
 70
     1
102
RTVSPost2010Prop29
280
     1
102
RTVSPost2010PropOp29
 70
     1
102
RTVSPost2010Prop30
280
     1
102
RTVSPost2010PropOp30
 70
     1
102
RTVSPost2010Prop31
280
     0
102
RTVSPost2010PropOp31
 70
     1
102
RTVSPost2010Prop32
280
     0
102
RTVSPost2010PropOp32
 70
     1
102
RTVSPost2010Prop33
280
     0
102
RTVSPost2010PropOp33
 70
     1
102
RTVSPost2010Prop34
280
     0
102
RTVSPost2010PropOp34
 70
     1
102
RTVSPost2010Prop35
280
     0
102
RTVSPost2010PropOp35
 70
     1
102
RTVSPost2010Prop36
280
     0
102
RTVSPost2010PropOp36
 70
     1
102
RTVSPost2010Prop37
 90
       50
102
RTVSPost2010PropOp37
 70
     1
102
RTVSPost2010Prop38
140
0.0
102
RTVSPost2010PropOp38
 70
     1
102
RTVSPost2010Prop39
140
1.0
102
RTVSPost2010PropOp39
 70
     1
102
RTVSPost2010Prop40
 90
        0
102
RTVSPost2010PropOp40
 70
     1
102
RTVSPost2010Prop41ColorIndex
 90
       18
102
RTVSPost2010Prop41ColorRGB
 90
        0
102
RTVSPost2010PropOp41
 70
     1
102
RTVSPost2010Prop42
 90
       50
102
RTVSPost2010PropOp42
 70
     1
102
RTVSPost2010Prop43
 90
        3
102
RTVSPost2010PropOp43
 70
     1
102
RTVSPost2010Prop44ColorIndex
 90
        5
102
RTVSPost2010Prop44ColorRGB
 90
      255
102
RTVSPost2010PropOp44
 70
     1
102
RTVSPost2010Prop45
280
     0
102
RTVSPost2010PropOp45
 70
     1
102
RTVSPost2010Prop46
 90
       50
102
RTVSPost2010PropOp46
 70
     1
102
RTVSPost2010Prop47
 90
       50
102
RTVSPost2010PropOp47
 70
     1
102
RTVSPost2010Prop48
 90
       50
102
RTVSPost2010PropOp48
 70
     1
102
RTVSPost2010Prop49
280
     0
102
RTVSPost2010PropOp49
 70
     1
102
RTVSPost2010Prop50
 90
       50
102
RTVSPost2010PropOp50
 70
     1
102
RTVSPost2010Prop51ColorIndex
 90
      256
102
RTVSPost2010Prop51ColorRGB
 90
-16777216
102
RTVSPost2010PropOp51
 70
     0
102
RTVSPost2010Prop52
140
1.0
102
RTVSPost2010PropOp52
 70
     0
102
RTVSPost2010Prop53
 90
        2
102
RTVSPost2010PropOp53
 70
     1
102
RTVSPost2010Prop54
  1
strokes_ogs.tif
102
RTVSPost2010PropOp54
 70
     1
102
RTVSPost2010Prop55
280
     0
102
RTVSPost2010PropOp55
 70
     1
102
RTVSPost2010Prop56
140
1.0
102
RTVSPost2010PropOp56
 70
     1
102
RTVSPost2010Prop57
140
1.0
102
RTVSPost2010PropOp57
 70
     1
102
RTVSPropertyOp0
 70
     1
102
RTVSPropertyOp1
 70
     1
102
RTVSPropertyOp2
 70
     1
102
RTVSPropertyOp3
 70
     1
102
RTVSPropertyOp4
 70
     1
102
RTVSPropertyOp5
 70
     1
102
RTVSPropertyOp6
 70
     1
102
RTVSPropertyOp7
 70
     1
102
RTVSPropertyOp8
 70
     1
102
RTVSPropertyOp9
 70
     1
102
RTVSPropertyOp10
 70
     1
102
RTVSPropertyOp11
 70
     1
102
RTVSPropertyOp12
 70
     1
102
RTVSPropertyOp13
 70
     1
102
RTVSPropertyOp14
 70
     1
102
RTVSPropertyOp15
 70
     1
102
RTVSPropertyOp16
 70
     1
102
RTVSPropertyOp17
 70
     1
102
RTVSPropertyOp18
 70
     1
102
RTVSPropertyOp19
 70
     1
102
RTVSPropertyOp20
 70
     1
102
RTVSPropertyOp21
 70
     1
102
RTVSPropertyOp22
 70
     1
102
RTVSPropertyOp23
 70
     1
102
RTVSPropertyOp24
 70
     1
102
RTVSPropertyOp25
 70
     1
102
RTVSPropertyOp26
 70
     1
102
RTVSPropertyOp27
 70
     1
102
RTVSPropertyOp28
 70
     1
102
RTVSPropertyOp29
 70
     1
102
RTVSPropertyOp30
 70
     1
102
RTVSPropertyOp31
 70
     1
102
RTVSPropertyOp32
 70
     1
102
RTVSPropertyOp33
 70
     1
102
RTVSPropertyOp34
 70
     1
102
RTVSPropertyOp35
 70
     1
102
RTVSPropertyOp36
 70
     1
102
RTVSPropertyOp37
 70
     1
102
RTVSPropertyOp38
 70
     1
102
RTVSPropertyOp39
 70
     1
102
RTVSPropertyOp40
 70
     1
102
RTVSPropertyOp41
 70
     1
102
RTVSPropertyOp42
 70
     1
102
RTVSPropertyOp43
 70
     1
102
RTVSPropertyOp44
 70
     1
102
RTVSPropertyOp45
 70
     1
102
RTVSPropertyOp46
 70
     1
102
RTVSPropertyOp47
 70
     1
102
RTVSPropertyOp48
 70
     1
102
RTVSPropertyOp49
 70
     1
102
RTVSPropertyOp50
 70
     1
102
RTVSPropertyOp51
 70
     0
102
RTVSPropertyOp52
 70
     0
102
RTVSPropertyOp53
 70
     1
102
RTVSPropertyOp54
 70
     1
102
RTVSPropertyOp55
 70
     1
102
RTVSPropertyOp56
 70
     1
102
RTVSPropertyOp57
 70
     1
102
RTVSPropertyOp58
 70
     1
102
RTVSPropertyOp59
 70
     1
102
RTVSPropertyOp60
 70
     1
102
RTVSPropertyOp61
 70
     1
102
RTVSPropertyOp62
 70
     1
  0
XRECORD
  5
C080
102
{ACAD_REACTORS
330
C07F
102
}
330
C07F
100
AcDbXrecord
280
     1
102
RTVSPost2010Prop28
280
     0
102
RTVSPost2010PropOp28
 70
     1
102
RTVSPost2010Prop29
280
     1
102
RTVSPost2010PropOp29
 70
     1
102
RTVSPost2010Prop30
280
     1
102
RTVSPost2010PropOp30
 70
     1
102
RTVSPost2010Prop31
280
     0
102
RTVSPost2010PropOp31
 70
     1
102
RTVSPost2010Prop32
280
     0
102
RTVSPost2010PropOp32
 70
     1
102
RTVSPost2010Prop33
280
     0
102
RTVSPost2010PropOp33
 70
     1
102
RTVSPost2010Prop34
280
     0
102
RTVSPost2010PropOp34
 70
     1
102
RTVSPost2010Prop35
280
     0
102
RTVSPost2010PropOp35
 70
     1
102
RTVSPost2010Prop36
280
     0
102
RTVSPost2010PropOp36
 70
     1
102
RTVSPost2010Prop37
 90
       50
102
RTVSPost2010PropOp37
 70
     1
102
RTVSPost2010Prop38
140
0.0
102
RTVSPost2010PropOp38
 70
     1
102
RTVSPost2010Prop39
140
1.0
102
RTVSPost2010PropOp39
 70
     1
102
RTVSPost2010Prop40
 90
        0
102
RTVSPost2010PropOp40
 70
     1
102
RTVSPost2010Prop41ColorIndex
 90
       18
102
RTVSPost2010Prop41ColorRGB
 90
        0
102
RTVSPost2010PropOp41
 70
     1
102
RTVSPost2010Prop42
 90
       50
102
RTVSPost2010PropOp42
 70
     1
102
RTVSPost2010Prop43
 90
        3
102
RTVSPost2010PropOp43
 70
     1
102
RTVSPost2010Prop44ColorIndex
 90
        5
102
RTVSPost2010Prop44ColorRGB
 90
      255
102
RTVSPost2010PropOp44
 70
     1
102
RTVSPost2010Prop45
280
     0
102
RTVSPost2010PropOp45
 70
     1
102
RTVSPost2010Prop46
 90
       50
102
RTVSPost2010PropOp46
 70
     1
102
RTVSPost2010Prop47
 90
       50
102
RTVSPost2010PropOp47
 70
     1
102
RTVSPost2010Prop48
 90
       50
102
RTVSPost2010PropOp48
 70
     1
102
RTVSPost2010Prop49
280
     0
102
RTVSPost2010PropOp49
 70
     1
102
RTVSPost2010Prop50
 90
       50
102
RTVSPost2010PropOp50
 70
     1
102
RTVSPost2010Prop51ColorIndex
 90
      256
102
RTVSPost2010Prop51ColorRGB
 90
-16777216
102
RTVSPost2010PropOp51
 70
     0
102
RTVSPost2010Prop52
140
1.0
102
RTVSPost2010PropOp52
 70
     0
102
RTVSPost2010Prop53
 90
        2
102
RTVSPost2010PropOp53
 70
     1
102
RTVSPost2010Prop54
  1
strokes_ogs.tif
102
RTVSPost2010PropOp54
 70
     1
102
RTVSPost2010Prop55
280
     0
102
RTVSPost2010PropOp55
 70
     1
102
RTVSPost2010Prop56
140
1.0
102
RTVSPost2010PropOp56
 70
     1
102
RTVSPost2010Prop57
140
1.0
102
RTVSPost2010PropOp57
 70
     1
102
RTVSPropertyOp0
 70
     1
102
RTVSPropertyOp1
 70
     1
102
RTVSPropertyOp2
 70
     1
102
RTVSPropertyOp3
 70
     1
102
RTVSPropertyOp4
 70
     1
102
RTVSPropertyOp5
 70
     1
102
RTVSPropertyOp6
 70
     1
102
RTVSPropertyOp7
 70
     1
102
RTVSPropertyOp8
 70
     1
102
RTVSPropertyOp9
 70
     1
102
RTVSPropertyOp10
 70
     1
102
RTVSPropertyOp11
 70
     1
102
RTVSPropertyOp12
 70
     1
102
RTVSPropertyOp13
 70
     1
102
RTVSPropertyOp14
 70
     1
102
RTVSPropertyOp15
 70
     1
102
RTVSPropertyOp16
 70
     1
102
RTVSPropertyOp17
 70
     1
102
RTVSPropertyOp18
 70
     1
102
RTVSPropertyOp19
 70
     1
102
RTVSPropertyOp20
 70
     1
102
RTVSPropertyOp21
 70
     1
102
RTVSPropertyOp22
 70
     1
102
RTVSPropertyOp23
 70
     1
102
RTVSPropertyOp24
 70
     1
102
RTVSPropertyOp25
 70
     1
102
RTVSPropertyOp26
 70
     1
102
RTVSPropertyOp27
 70
     1
102
RTVSPropertyOp28
 70
     1
102
RTVSPropertyOp29
 70
     1
102
RTVSPropertyOp30
 70
     1
102
RTVSPropertyOp31
 70
     1
102
RTVSPropertyOp32
 70
     1
102
RTVSPropertyOp33
 70
     1
102
RTVSPropertyOp34
 70
     1
102
RTVSPropertyOp35
 70
     1
102
RTVSPropertyOp36
 70
     1
102
RTVSPropertyOp37
 70
     1
102
RTVSPropertyOp38
 70
     1
102
RTVSPropertyOp39
 70
     1
102
RTVSPropertyOp40
 70
     1
102
RTVSPropertyOp41
 70
     1
102
RTVSPropertyOp42
 70
     1
102
RTVSPropertyOp43
 70
     1
102
RTVSPropertyOp44
 70
     1
102
RTVSPropertyOp45
 70
     1
102
RTVSPropertyOp46
 70
     1
102
RTVSPropertyOp47
 70
     1
102
RTVSPropertyOp48
 70
     1
102
RTVSPropertyOp49
 70
     1
102
RTVSPropertyOp50
 70
     1
102
RTVSPropertyOp51
 70
     0
102
RTVSPropertyOp52
 70
     0
102
RTVSPropertyOp53
 70
     1
102
RTVSPropertyOp54
 70
     1
102
RTVSPropertyOp55
 70
     1
102
RTVSPropertyOp56
 70
     1
102
RTVSPropertyOp57
 70
     1
102
RTVSPropertyOp58
 70
     1
102
RTVSPropertyOp59
 70
     1
102
RTVSPropertyOp60
 70
     1
102
RTVSPropertyOp61
 70
     1
102
RTVSPropertyOp62
 70
     1
  0
XRECORD
  5
C09C
102
{ACAD_REACTORS
330
C09B
102
}
330
C09B
100
AcDbXrecord
280
     1
102
RTVSPost2010Prop28
280
     0
102
RTVSPost2010PropOp28
 70
     1
102
RTVSPost2010Prop29
280
     1
102
RTVSPost2010PropOp29
 70
     1
102
RTVSPost2010Prop30
280
     1
102
RTVSPost2010PropOp30
 70
     1
102
RTVSPost2010Prop31
280
     0
102
RTVSPost2010PropOp31
 70
     1
102
RTVSPost2010Prop32
280
     0
102
RTVSPost2010PropOp32
 70
     1
102
RTVSPost2010Prop33
280
     0
102
RTVSPost2010PropOp33
 70
     1
102
RTVSPost2010Prop34
280
     0
102
RTVSPost2010PropOp34
 70
     1
102
RTVSPost2010Prop35
280
     0
102
RTVSPost2010PropOp35
 70
     1
102
RTVSPost2010Prop36
280
     0
102
RTVSPost2010PropOp36
 70
     1
102
RTVSPost2010Prop37
 90
       50
102
RTVSPost2010PropOp37
 70
     0
102
RTVSPost2010Prop38
140
0.0
102
RTVSPost2010PropOp38
 70
     0
102
RTVSPost2010Prop39
140
1.0
102
RTVSPost2010PropOp39
 70
     0
102
RTVSPost2010Prop40
 90
        0
102
RTVSPost2010PropOp40
 70
     0
102
RTVSPost2010Prop41ColorIndex
 90
       18
102
RTVSPost2010Prop41ColorRGB
 90
        0
102
RTVSPost2010PropOp41
 70
     0
102
RTVSPost2010Prop42
 90
       50
102
RTVSPost2010PropOp42
 70
     0
102
RTVSPost2010Prop43
 90
        3
102
RTVSPost2010PropOp43
 70
     0
102
RTVSPost2010Prop44ColorIndex
 90
        5
102
RTVSPost2010Prop44ColorRGB
 90
      255
102
RTVSPost2010PropOp44
 70
     0
102
RTVSPost2010Prop45
280
     0
102
RTVSPost2010PropOp45
 70
     1
102
RTVSPost2010Prop46
 90
       50
102
RTVSPost2010PropOp46
 70
     0
102
RTVSPost2010Prop47
 90
       50
102
RTVSPost2010PropOp47
 70
     0
102
RTVSPost2010Prop48
 90
       50
102
RTVSPost2010PropOp48
 70
     0
102
RTVSPost2010Prop49
280
     0
102
RTVSPost2010PropOp49
 70
     1
102
RTVSPost2010Prop50
 90
       50
102
RTVSPost2010PropOp50
 70
     0
102
RTVSPost2010Prop51ColorIndex
 90
      256
102
RTVSPost2010Prop51ColorRGB
 90
-16777216
102
RTVSPost2010PropOp51
 70
     0
102
RTVSPost2010Prop52
140
1.0
102
RTVSPost2010PropOp52
 70
     0
102
RTVSPost2010Prop53
 90
        2
102
RTVSPost2010PropOp53
 70
     0
102
RTVSPost2010Prop54
  1
strokes_ogs.tif
102
RTVSPost2010PropOp54
 70
     0
102
RTVSPost2010Prop55
280
     0
102
RTVSPost2010PropOp55
 70
     1
102
RTVSPost2010Prop56
140
1.0
102
RTVSPost2010PropOp56
 70
     0
102
RTVSPost2010Prop57
140
1.0
102
RTVSPost2010PropOp57
 70
     0
102
RTVSPropertyOp0
 70
     0
102
RTVSPropertyOp1
 70
     0
102
RTVSPropertyOp2
 70
     0
102
RTVSPropertyOp3
 70
     0
102
RTVSPropertyOp4
 70
     0
102
RTVSPropertyOp5
 70
     0
102
RTVSPropertyOp6
 70
     0
102
RTVSPropertyOp7
 70
     0
102
RTVSPropertyOp8
 70
     0
102
RTVSPropertyOp9
 70
     0
102
RTVSPropertyOp10
 70
     0
102
RTVSPropertyOp11
 70
     0
102
RTVSPropertyOp12
 70
     0
102
RTVSPropertyOp13
 70
     0
102
RTVSPropertyOp14
 70
     2
102
RTVSPropertyOp15
 70
     0
102
RTVSPropertyOp16
 70
     0
102
RTVSPropertyOp17
 70
     0
102
RTVSPropertyOp18
 70
     0
102
RTVSPropertyOp19
 70
     0
102
RTVSPropertyOp20
 70
     0
102
RTVSPropertyOp21
 70
     0
102
RTVSPropertyOp22
 70
     0
102
RTVSPropertyOp23
 70
     0
102
RTVSPropertyOp24
 70
     0
102
RTVSPropertyOp25
 70
     0
102
RTVSPropertyOp26
 70
     0
102
RTVSPropertyOp27
 70
     0
102
RTVSPropertyOp28
 70
     1
102
RTVSPropertyOp29
 70
     1
102
RTVSPropertyOp30
 70
     1
102
RTVSPropertyOp31
 70
     1
102
RTVSPropertyOp32
 70
     1
102
RTVSPropertyOp33
 70
     1
102
RTVSPropertyOp34
 70
     1
102
RTVSPropertyOp35
 70
     1
102
RTVSPropertyOp36
 70
     1
102
RTVSPropertyOp37
 70
     0
102
RTVSPropertyOp38
 70
     0
102
RTVSPropertyOp39
 70
     0
102
RTVSPropertyOp40
 70
     0
102
RTVSPropertyOp41
 70
     0
102
RTVSPropertyOp42
 70
     0
102
RTVSPropertyOp43
 70
     0
102
RTVSPropertyOp44
 70
     0
102
RTVSPropertyOp45
 70
     1
102
RTVSPropertyOp46
 70
     0
102
RTVSPropertyOp47
 70
     0
102
RTVSPropertyOp48
 70
     0
102
RTVSPropertyOp49
 70
     1
102
RTVSPropertyOp50
 70
     0
102
RTVSPropertyOp51
 70
     0
102
RTVSPropertyOp52
 70
     0
102
RTVSPropertyOp53
 70
     0
102
RTVSPropertyOp54
 70
     0
102
RTVSPropertyOp55
 70
     1
102
RTVSPropertyOp56
 70
     0
102
RTVSPropertyOp57
 70
     0
102
RTVSPropertyOp58
 70
     0
102
RTVSPropertyOp59
 70
     0
102
RTVSPropertyOp60
 70
     0
102
RTVSPropertyOp61
 70
     0
102
RTVSPropertyOp62
 70
     0
  0
XRECORD
  5
C08C
102
{ACAD_REACTORS
330
C08B
102
}
330
C08B
100
AcDbXrecord
280
     1
102
RTVSPost2010Prop28
280
     0
102
RTVSPost2010PropOp28
 70
     1
102
RTVSPost2010Prop29
280
     1
102
RTVSPost2010PropOp29
 70
     1
102
RTVSPost2010Prop30
280
     1
102
RTVSPost2010PropOp30
 70
     1
102
RTVSPost2010Prop31
280
     0
102
RTVSPost2010PropOp31
 70
     1
102
RTVSPost2010Prop32
280
     0
102
RTVSPost2010PropOp32
 70
     1
102
RTVSPost2010Prop33
280
     0
102
RTVSPost2010PropOp33
 70
     1
102
RTVSPost2010Prop34
280
     0
102
RTVSPost2010PropOp34
 70
     1
102
RTVSPost2010Prop35
280
     0
102
RTVSPost2010PropOp35
 70
     1
102
RTVSPost2010Prop36
280
     0
102
RTVSPost2010PropOp36
 70
     1
102
RTVSPost2010Prop37
 90
       50
102
RTVSPost2010PropOp37
 70
     1
102
RTVSPost2010Prop38
140
0.0
102
RTVSPost2010PropOp38
 70
     1
102
RTVSPost2010Prop39
140
1.0
102
RTVSPost2010PropOp39
 70
     1
102
RTVSPost2010Prop40
 90
        0
102
RTVSPost2010PropOp40
 70
     1
102
RTVSPost2010Prop41ColorIndex
 90
       18
102
RTVSPost2010Prop41ColorRGB
 90
        0
102
RTVSPost2010PropOp41
 70
     1
102
RTVSPost2010Prop42
 90
       50
102
RTVSPost2010PropOp42
 70
     1
102
RTVSPost2010Prop43
 90
        3
102
RTVSPost2010PropOp43
 70
     1
102
RTVSPost2010Prop44ColorIndex
 90
        5
102
RTVSPost2010Prop44ColorRGB
 90
      255
102
RTVSPost2010PropOp44
 70
     1
102
RTVSPost2010Prop45
280
     0
102
RTVSPost2010PropOp45
 70
     1
102
RTVSPost2010Prop46
 90
       50
102
RTVSPost2010PropOp46
 70
     1
102
RTVSPost2010Prop47
 90
       50
102
RTVSPost2010PropOp47
 70
     1
102
RTVSPost2010Prop48
 90
       50
102
RTVSPost2010PropOp48
 70
     1
102
RTVSPost2010Prop49
280
     0
102
RTVSPost2010PropOp49
 70
     1
102
RTVSPost2010Prop50
 90
       50
102
RTVSPost2010PropOp50
 70
     1
102
RTVSPost2010Prop51ColorIndex
 90
      256
102
RTVSPost2010Prop51ColorRGB
 90
-16777216
102
RTVSPost2010PropOp51
 70
     0
102
RTVSPost2010Prop52
140
1.0
102
RTVSPost2010PropOp52
 70
     0
102
RTVSPost2010Prop53
 90
        2
102
RTVSPost2010PropOp53
 70
     1
102
RTVSPost2010Prop54
  1
strokes_ogs.tif
102
RTVSPost2010PropOp54
 70
     1
102
RTVSPost2010Prop55
280
     0
102
RTVSPost2010PropOp55
 70
     1
102
RTVSPost2010Prop56
140
1.0
102
RTVSPost2010PropOp56
 70
     1
102
RTVSPost2010Prop57
140
1.0
102
RTVSPost2010PropOp57
 70
     1
102
RTVSPropertyOp0
 70
     1
102
RTVSPropertyOp1
 70
     1
102
RTVSPropertyOp2
 70
     1
102
RTVSPropertyOp3
 70
     1
102
RTVSPropertyOp4
 70
     1
102
RTVSPropertyOp5
 70
     1
102
RTVSPropertyOp6
 70
     1
102
RTVSPropertyOp7
 70
     1
102
RTVSPropertyOp8
 70
     1
102
RTVSPropertyOp9
 70
     1
102
RTVSPropertyOp10
 70
     1
102
RTVSPropertyOp11
 70
     1
102
RTVSPropertyOp12
 70
     1
102
RTVSPropertyOp13
 70
     1
102
RTVSPropertyOp14
 70
     1
102
RTVSPropertyOp15
 70
     1
102
RTVSPropertyOp16
 70
     1
102
RTVSPropertyOp17
 70
     1
102
RTVSPropertyOp18
 70
     1
102
RTVSPropertyOp19
 70
     1
102
RTVSPropertyOp20
 70
     1
102
RTVSPropertyOp21
 70
     1
102
RTVSPropertyOp22
 70
     1
102
RTVSPropertyOp23
 70
     1
102
RTVSPropertyOp24
 70
     1
102
RTVSPropertyOp25
 70
     1
102
RTVSPropertyOp26
 70
     1
102
RTVSPropertyOp27
 70
     1
102
RTVSPropertyOp28
 70
     1
102
RTVSPropertyOp29
 70
     1
102
RTVSPropertyOp30
 70
     1
102
RTVSPropertyOp31
 70
     1
102
RTVSPropertyOp32
 70
     1
102
RTVSPropertyOp33
 70
     1
102
RTVSPropertyOp34
 70
     1
102
RTVSPropertyOp35
 70
     1
102
RTVSPropertyOp36
 70
     1
102
RTVSPropertyOp37
 70
     1
102
RTVSPropertyOp38
 70
     1
102
RTVSPropertyOp39
 70
     1
102
RTVSPropertyOp40
 70
     1
102
RTVSPropertyOp41
 70
     1
102
RTVSPropertyOp42
 70
     1
102
RTVSPropertyOp43
 70
     1
102
RTVSPropertyOp44
 70
     1
102
RTVSPropertyOp45
 70
     1
102
RTVSPropertyOp46
 70
     1
102
RTVSPropertyOp47
 70
     1
102
RTVSPropertyOp48
 70
     1
102
RTVSPropertyOp49
 70
     1
102
RTVSPropertyOp50
 70
     1
102
RTVSPropertyOp51
 70
     0
102
RTVSPropertyOp52
 70
     0
102
RTVSPropertyOp53
 70
     1
102
RTVSPropertyOp54
 70
     1
102
RTVSPropertyOp55
 70
     1
102
RTVSPropertyOp56
 70
     1
102
RTVSPropertyOp57
 70
     1
102
RTVSPropertyOp58
 70
     1
102
RTVSPropertyOp59
 70
     1
102
RTVSPropertyOp60
 70
     1
102
RTVSPropertyOp61
 70
     1
102
RTVSPropertyOp62
 70
     1
  0
XRECORD
  5
C09E
102
{ACAD_REACTORS
330
C09D
102
}
330
C09D
100
AcDbXrecord
280
     1
102
RTVSPost2010Prop28
280
     0
102
RTVSPost2010PropOp28
 70
     1
102
RTVSPost2010Prop29
280
     1
102
RTVSPost2010PropOp29
 70
     1
102
RTVSPost2010Prop30
280
     1
102
RTVSPost2010PropOp30
 70
     1
102
RTVSPost2010Prop31
280
     0
102
RTVSPost2010PropOp31
 70
     1
102
RTVSPost2010Prop32
280
     0
102
RTVSPost2010PropOp32
 70
     1
102
RTVSPost2010Prop33
280
     0
102
RTVSPost2010PropOp33
 70
     1
102
RTVSPost2010Prop34
280
     0
102
RTVSPost2010PropOp34
 70
     1
102
RTVSPost2010Prop35
280
     0
102
RTVSPost2010PropOp35
 70
     1
102
RTVSPost2010Prop36
280
     0
102
RTVSPost2010PropOp36
 70
     1
102
RTVSPost2010Prop37
 90
       50
102
RTVSPost2010PropOp37
 70
     0
102
RTVSPost2010Prop38
140
0.0
102
RTVSPost2010PropOp38
 70
     0
102
RTVSPost2010Prop39
140
1.0
102
RTVSPost2010PropOp39
 70
     0
102
RTVSPost2010Prop40
 90
        0
102
RTVSPost2010PropOp40
 70
     0
102
RTVSPost2010Prop41ColorIndex
 90
       18
102
RTVSPost2010Prop41ColorRGB
 90
        0
102
RTVSPost2010PropOp41
 70
     0
102
RTVSPost2010Prop42
 90
       50
102
RTVSPost2010PropOp42
 70
     0
102
RTVSPost2010Prop43
 90
        3
102
RTVSPost2010PropOp43
 70
     0
102
RTVSPost2010Prop44ColorIndex
 90
        5
102
RTVSPost2010Prop44ColorRGB
 90
      255
102
RTVSPost2010PropOp44
 70
     0
102
RTVSPost2010Prop45
280
     0
102
RTVSPost2010PropOp45
 70
     1
102
RTVSPost2010Prop46
 90
       50
102
RTVSPost2010PropOp46
 70
     0
102
RTVSPost2010Prop47
 90
       50
102
RTVSPost2010PropOp47
 70
     0
102
RTVSPost2010Prop48
 90
       50
102
RTVSPost2010PropOp48
 70
     0
102
RTVSPost2010Prop49
280
     0
102
RTVSPost2010PropOp49
 70
     1
102
RTVSPost2010Prop50
 90
       50
102
RTVSPost2010PropOp50
 70
     0
102
RTVSPost2010Prop51ColorIndex
 90
      256
102
RTVSPost2010Prop51ColorRGB
 90
-16777216
102
RTVSPost2010PropOp51
 70
     0
102
RTVSPost2010Prop52
140
1.0
102
RTVSPost2010PropOp52
 70
     0
102
RTVSPost2010Prop53
 90
        2
102
RTVSPost2010PropOp53
 70
     0
102
RTVSPost2010Prop54
  1
strokes_ogs.tif
102
RTVSPost2010PropOp54
 70
     0
102
RTVSPost2010Prop55
280
     0
102
RTVSPost2010PropOp55
 70
     1
102
RTVSPost2010Prop56
140
1.0
102
RTVSPost2010PropOp56
 70
     0
102
RTVSPost2010Prop57
140
1.0
102
RTVSPost2010PropOp57
 70
     0
102
RTVSPropertyOp0
 70
     0
102
RTVSPropertyOp1
 70
     0
102
RTVSPropertyOp2
 70
     0
102
RTVSPropertyOp3
 70
     0
102
RTVSPropertyOp4
 70
     0
102
RTVSPropertyOp5
 70
     0
102
RTVSPropertyOp6
 70
     0
102
RTVSPropertyOp7
 70
     0
102
RTVSPropertyOp8
 70
     0
102
RTVSPropertyOp9
 70
     0
102
RTVSPropertyOp10
 70
     0
102
RTVSPropertyOp11
 70
     0
102
RTVSPropertyOp12
 70
     0
102
RTVSPropertyOp13
 70
     0
102
RTVSPropertyOp14
 70
     2
102
RTVSPropertyOp15
 70
     0
102
RTVSPropertyOp16
 70
     0
102
RTVSPropertyOp17
 70
     0
102
RTVSPropertyOp18
 70
     0
102
RTVSPropertyOp19
 70
     0
102
RTVSPropertyOp20
 70
     0
102
RTVSPropertyOp21
 70
     0
102
RTVSPropertyOp22
 70
     0
102
RTVSPropertyOp23
 70
     0
102
RTVSPropertyOp24
 70
     0
102
RTVSPropertyOp25
 70
     0
102
RTVSPropertyOp26
 70
     0
102
RTVSPropertyOp27
 70
     0
102
RTVSPropertyOp28
 70
     1
102
RTVSPropertyOp29
 70
     1
102
RTVSPropertyOp30
 70
     1
102
RTVSPropertyOp31
 70
     1
102
RTVSPropertyOp32
 70
     1
102
RTVSPropertyOp33
 70
     1
102
RTVSPropertyOp34
 70
     1
102
RTVSPropertyOp35
 70
     1
102
RTVSPropertyOp36
 70
     1
102
RTVSPropertyOp37
 70
     0
102
RTVSPropertyOp38
 70
     0
102
RTVSPropertyOp39
 70
     0
102
RTVSPropertyOp40
 70
     0
102
RTVSPropertyOp41
 70
     0
102
RTVSPropertyOp42
 70
     0
102
RTVSPropertyOp43
 70
     0
102
RTVSPropertyOp44
 70
     0
102
RTVSPropertyOp45
 70
     1
102
RTVSPropertyOp46
 70
     0
102
RTVSPropertyOp47
 70
     0
102
RTVSPropertyOp48
 70
     0
102
RTVSPropertyOp49
 70
     1
102
RTVSPropertyOp50
 70
     0
102
RTVSPropertyOp51
 70
     0
102
RTVSPropertyOp52
 70
     0
102
RTVSPropertyOp53
 70
     0
102
RTVSPropertyOp54
 70
     0
102
RTVSPropertyOp55
 70
     1
102
RTVSPropertyOp56
 70
     0
102
RTVSPropertyOp57
 70
     0
102
RTVSPropertyOp58
 70
     0
102
RTVSPropertyOp59
 70
     0
102
RTVSPropertyOp60
 70
     0
102
RTVSPropertyOp61
 70
     0
102
RTVSPropertyOp62
 70
     0
  0
XRECORD
  5
C084
102
{ACAD_REACTORS
330
C083
102
}
330
C083
100
AcDbXrecord
280
     1
102
RTVSPost2010Prop28
280
     0
102
RTVSPost2010PropOp28
 70
     1
102
RTVSPost2010Prop29
280
     1
102
RTVSPost2010PropOp29
 70
     1
102
RTVSPost2010Prop30
280
     1
102
RTVSPost2010PropOp30
 70
     1
102
RTVSPost2010Prop31
280
     0
102
RTVSPost2010PropOp31
 70
     1
102
RTVSPost2010Prop32
280
     0
102
RTVSPost2010PropOp32
 70
     1
102
RTVSPost2010Prop33
280
     0
102
RTVSPost2010PropOp33
 70
     1
102
RTVSPost2010Prop34
280
     0
102
RTVSPost2010PropOp34
 70
     1
102
RTVSPost2010Prop35
280
     0
102
RTVSPost2010PropOp35
 70
     1
102
RTVSPost2010Prop36
280
     0
102
RTVSPost2010PropOp36
 70
     1
102
RTVSPost2010Prop37
 90
       50
102
RTVSPost2010PropOp37
 70
     1
102
RTVSPost2010Prop38
140
0.0
102
RTVSPost2010PropOp38
 70
     1
102
RTVSPost2010Prop39
140
1.0
102
RTVSPost2010PropOp39
 70
     1
102
RTVSPost2010Prop40
 90
        0
102
RTVSPost2010PropOp40
 70
     1
102
RTVSPost2010Prop41ColorIndex
 90
       18
102
RTVSPost2010Prop41ColorRGB
 90
        0
102
RTVSPost2010PropOp41
 70
     1
102
RTVSPost2010Prop42
 90
       50
102
RTVSPost2010PropOp42
 70
     1
102
RTVSPost2010Prop43
 90
        3
102
RTVSPost2010PropOp43
 70
     1
102
RTVSPost2010Prop44ColorIndex
 90
        5
102
RTVSPost2010Prop44ColorRGB
 90
      255
102
RTVSPost2010PropOp44
 70
     1
102
RTVSPost2010Prop45
280
     0
102
RTVSPost2010PropOp45
 70
     1
102
RTVSPost2010Prop46
 90
       50
102
RTVSPost2010PropOp46
 70
     1
102
RTVSPost2010Prop47
 90
       50
102
RTVSPost2010PropOp47
 70
     1
102
RTVSPost2010Prop48
 90
       50
102
RTVSPost2010PropOp48
 70
     1
102
RTVSPost2010Prop49
280
     0
102
RTVSPost2010PropOp49
 70
     1
102
RTVSPost2010Prop50
 90
       50
102
RTVSPost2010PropOp50
 70
     1
102
RTVSPost2010Prop51ColorIndex
 90
      256
102
RTVSPost2010Prop51ColorRGB
 90
-16777216
102
RTVSPost2010PropOp51
 70
     0
102
RTVSPost2010Prop52
140
1.0
102
RTVSPost2010PropOp52
 70
     0
102
RTVSPost2010Prop53
 90
        2
102
RTVSPost2010PropOp53
 70
     1
102
RTVSPost2010Prop54
  1
strokes_ogs.tif
102
RTVSPost2010PropOp54
 70
     1
102
RTVSPost2010Prop55
280
     0
102
RTVSPost2010PropOp55
 70
     1
102
RTVSPost2010Prop56
140
1.0
102
RTVSPost2010PropOp56
 70
     1
102
RTVSPost2010Prop57
140
1.0
102
RTVSPost2010PropOp57
 70
     1
102
RTVSPropertyOp0
 70
     1
102
RTVSPropertyOp1
 70
     1
102
RTVSPropertyOp2
 70
     1
102
RTVSPropertyOp3
 70
     1
102
RTVSPropertyOp4
 70
     1
102
RTVSPropertyOp5
 70
     1
102
RTVSPropertyOp6
 70
     1
102
RTVSPropertyOp7
 70
     1
102
RTVSPropertyOp8
 70
     1
102
RTVSPropertyOp9
 70
     1
102
RTVSPropertyOp10
 70
     1
102
RTVSPropertyOp11
 70
     1
102
RTVSPropertyOp12
 70
     1
102
RTVSPropertyOp13
 70
     1
102
RTVSPropertyOp14
 70
     1
102
RTVSPropertyOp15
 70
     1
102
RTVSPropertyOp16
 70
     1
102
RTVSPropertyOp17
 70
     1
102
RTVSPropertyOp18
 70
     1
102
RTVSPropertyOp19
 70
     1
102
RTVSPropertyOp20
 70
     1
102
RTVSPropertyOp21
 70
     1
102
RTVSPropertyOp22
 70
     1
102
RTVSPropertyOp23
 70
     1
102
RTVSPropertyOp24
 70
     1
102
RTVSPropertyOp25
 70
     1
102
RTVSPropertyOp26
 70
     1
102
RTVSPropertyOp27
 70
     1
102
RTVSPropertyOp28
 70
     1
102
RTVSPropertyOp29
 70
     1
102
RTVSPropertyOp30
 70
     1
102
RTVSPropertyOp31
 70
     1
102
RTVSPropertyOp32
 70
     1
102
RTVSPropertyOp33
 70
     1
102
RTVSPropertyOp34
 70
     1
102
RTVSPropertyOp35
 70
     1
102
RTVSPropertyOp36
 70
     1
102
RTVSPropertyOp37
 70
     1
102
RTVSPropertyOp38
 70
     1
102
RTVSPropertyOp39
 70
     1
102
RTVSPropertyOp40
 70
     1
102
RTVSPropertyOp41
 70
     1
102
RTVSPropertyOp42
 70
     1
102
RTVSPropertyOp43
 70
     1
102
RTVSPropertyOp44
 70
     1
102
RTVSPropertyOp45
 70
     1
102
RTVSPropertyOp46
 70
     1
102
RTVSPropertyOp47
 70
     1
102
RTVSPropertyOp48
 70
     1
102
RTVSPropertyOp49
 70
     1
102
RTVSPropertyOp50
 70
     1
102
RTVSPropertyOp51
 70
     0
102
RTVSPropertyOp52
 70
     0
102
RTVSPropertyOp53
 70
     1
102
RTVSPropertyOp54
 70
     1
102
RTVSPropertyOp55
 70
     1
102
RTVSPropertyOp56
 70
     1
102
RTVSPropertyOp57
 70
     1
102
RTVSPropertyOp58
 70
     1
102
RTVSPropertyOp59
 70
     1
102
RTVSPropertyOp60
 70
     1
102
RTVSPropertyOp61
 70
     1
102
RTVSPropertyOp62
 70
     1
  0
XRECORD
  5
C09A
102
{ACAD_REACTORS
330
C099
102
}
330
C099
100
AcDbXrecord
280
     1
102
RTVSPost2010Prop28
280
     0
102
RTVSPost2010PropOp28
 70
     1
102
RTVSPost2010Prop29
280
     1
102
RTVSPost2010PropOp29
 70
     1
102
RTVSPost2010Prop30
280
     1
102
RTVSPost2010PropOp30
 70
     1
102
RTVSPost2010Prop31
280
     0
102
RTVSPost2010PropOp31
 70
     1
102
RTVSPost2010Prop32
280
     0
102
RTVSPost2010PropOp32
 70
     1
102
RTVSPost2010Prop33
280
     0
102
RTVSPost2010PropOp33
 70
     1
102
RTVSPost2010Prop34
280
     0
102
RTVSPost2010PropOp34
 70
     1
102
RTVSPost2010Prop35
280
     0
102
RTVSPost2010PropOp35
 70
     1
102
RTVSPost2010Prop36
280
     0
102
RTVSPost2010PropOp36
 70
     1
102
RTVSPost2010Prop37
 90
       50
102
RTVSPost2010PropOp37
 70
     1
102
RTVSPost2010Prop38
140
0.0
102
RTVSPost2010PropOp38
 70
     1
102
RTVSPost2010Prop39
140
1.0
102
RTVSPost2010PropOp39
 70
     1
102
RTVSPost2010Prop40
 90
        0
102
RTVSPost2010PropOp40
 70
     1
102
RTVSPost2010Prop41ColorIndex
 90
       18
102
RTVSPost2010Prop41ColorRGB
 90
        0
102
RTVSPost2010PropOp41
 70
     1
102
RTVSPost2010Prop42
 90
       50
102
RTVSPost2010PropOp42
 70
     1
102
RTVSPost2010Prop43
 90
        3
102
RTVSPost2010PropOp43
 70
     1
102
RTVSPost2010Prop44ColorIndex
 90
        5
102
RTVSPost2010Prop44ColorRGB
 90
      255
102
RTVSPost2010PropOp44
 70
     1
102
RTVSPost2010Prop45
280
     0
102
RTVSPost2010PropOp45
 70
     1
102
RTVSPost2010Prop46
 90
       50
102
RTVSPost2010PropOp46
 70
     1
102
RTVSPost2010Prop47
 90
       50
102
RTVSPost2010PropOp47
 70
     1
102
RTVSPost2010Prop48
 90
       50
102
RTVSPost2010PropOp48
 70
     1
102
RTVSPost2010Prop49
280
     0
102
RTVSPost2010PropOp49
 70
     1
102
RTVSPost2010Prop50
 90
       50
102
RTVSPost2010PropOp50
 70
     1
102
RTVSPost2010Prop51ColorIndex
 90
      256
102
RTVSPost2010Prop51ColorRGB
 90
-16777216
102
RTVSPost2010PropOp51
 70
     0
102
RTVSPost2010Prop52
140
1.0
102
RTVSPost2010PropOp52
 70
     0
102
RTVSPost2010Prop53
 90
        2
102
RTVSPost2010PropOp53
 70
     1
102
RTVSPost2010Prop54
  1
strokes_ogs.tif
102
RTVSPost2010PropOp54
 70
     1
102
RTVSPost2010Prop55
280
     0
102
RTVSPost2010PropOp55
 70
     1
102
RTVSPost2010Prop56
140
1.0
102
RTVSPost2010PropOp56
 70
     1
102
RTVSPost2010Prop57
140
1.0
102
RTVSPost2010PropOp57
 70
     1
102
RTVSPropertyOp0
 70
     1
102
RTVSPropertyOp1
 70
     1
102
RTVSPropertyOp2
 70
     1
102
RTVSPropertyOp3
 70
     1
102
RTVSPropertyOp4
 70
     1
102
RTVSPropertyOp5
 70
     1
102
RTVSPropertyOp6
 70
     1
102
RTVSPropertyOp7
 70
     1
102
RTVSPropertyOp8
 70
     1
102
RTVSPropertyOp9
 70
     1
102
RTVSPropertyOp10
 70
     1
102
RTVSPropertyOp11
 70
     1
102
RTVSPropertyOp12
 70
     1
102
RTVSPropertyOp13
 70
     1
102
RTVSPropertyOp14
 70
     1
102
RTVSPropertyOp15
 70
     1
102
RTVSPropertyOp16
 70
     1
102
RTVSPropertyOp17
 70
     1
102
RTVSPropertyOp18
 70
     1
102
RTVSPropertyOp19
 70
     1
102
RTVSPropertyOp20
 70
     1
102
RTVSPropertyOp21
 70
     1
102
RTVSPropertyOp22
 70
     1
102
RTVSPropertyOp23
 70
     1
102
RTVSPropertyOp24
 70
     1
102
RTVSPropertyOp25
 70
     1
102
RTVSPropertyOp26
 70
     1
102
RTVSPropertyOp27
 70
     1
102
RTVSPropertyOp28
 70
     1
102
RTVSPropertyOp29
 70
     1
102
RTVSPropertyOp30
 70
     1
102
RTVSPropertyOp31
 70
     1
102
RTVSPropertyOp32
 70
     1
102
RTVSPropertyOp33
 70
     1
102
RTVSPropertyOp34
 70
     1
102
RTVSPropertyOp35
 70
     1
102
RTVSPropertyOp36
 70
     1
102
RTVSPropertyOp37
 70
     1
102
RTVSPropertyOp38
 70
     1
102
RTVSPropertyOp39
 70
     1
102
RTVSPropertyOp40
 70
     1
102
RTVSPropertyOp41
 70
     1
102
RTVSPropertyOp42
 70
     1
102
RTVSPropertyOp43
 70
     1
102
RTVSPropertyOp44
 70
     1
102
RTVSPropertyOp45
 70
     1
102
RTVSPropertyOp46
 70
     1
102
RTVSPropertyOp47
 70
     1
102
RTVSPropertyOp48
 70
     1
102
RTVSPropertyOp49
 70
     1
102
RTVSPropertyOp50
 70
     1
102
RTVSPropertyOp51
 70
     0
102
RTVSPropertyOp52
 70
     0
102
RTVSPropertyOp53
 70
     1
102
RTVSPropertyOp54
 70
     1
102
RTVSPropertyOp55
 70
     1
102
RTVSPropertyOp56
 70
     1
102
RTVSPropertyOp57
 70
     1
102
RTVSPropertyOp58
 70
     1
102
RTVSPropertyOp59
 70
     1
102
RTVSPropertyOp60
 70
     1
102
RTVSPropertyOp61
 70
     1
102
RTVSPropertyOp62
 70
     1
  0
XRECORD
  5
C098
102
{ACAD_REACTORS
330
C097
102
}
330
C097
100
AcDbXrecord
280
     1
102
RTVSPost2010Prop28
280
     0
102
RTVSPost2010PropOp28
 70
     1
102
RTVSPost2010Prop29
280
     1
102
RTVSPost2010PropOp29
 70
     1
102
RTVSPost2010Prop30
280
     1
102
RTVSPost2010PropOp30
 70
     1
102
RTVSPost2010Prop31
280
     0
102
RTVSPost2010PropOp31
 70
     1
102
RTVSPost2010Prop32
280
     0
102
RTVSPost2010PropOp32
 70
     1
102
RTVSPost2010Prop33
280
     0
102
RTVSPost2010PropOp33
 70
     1
102
RTVSPost2010Prop34
280
     0
102
RTVSPost2010PropOp34
 70
     1
102
RTVSPost2010Prop35
280
     0
102
RTVSPost2010PropOp35
 70
     1
102
RTVSPost2010Prop36
280
     0
102
RTVSPost2010PropOp36
 70
     1
102
RTVSPost2010Prop37
 90
       50
102
RTVSPost2010PropOp37
 70
     1
102
RTVSPost2010Prop38
140
0.0
102
RTVSPost2010PropOp38
 70
     1
102
RTVSPost2010Prop39
140
1.0
102
RTVSPost2010PropOp39
 70
     1
102
RTVSPost2010Prop40
 90
        0
102
RTVSPost2010PropOp40
 70
     1
102
RTVSPost2010Prop41ColorIndex
 90
       18
102
RTVSPost2010Prop41ColorRGB
 90
        0
102
RTVSPost2010PropOp41
 70
     1
102
RTVSPost2010Prop42
 90
       50
102
RTVSPost2010PropOp42
 70
     1
102
RTVSPost2010Prop43
 90
        3
102
RTVSPost2010PropOp43
 70
     1
102
RTVSPost2010Prop44ColorIndex
 90
        5
102
RTVSPost2010Prop44ColorRGB
 90
      255
102
RTVSPost2010PropOp44
 70
     1
102
RTVSPost2010Prop45
280
     0
102
RTVSPost2010PropOp45
 70
     1
102
RTVSPost2010Prop46
 90
       50
102
RTVSPost2010PropOp46
 70
     1
102
RTVSPost2010Prop47
 90
       50
102
RTVSPost2010PropOp47
 70
     1
102
RTVSPost2010Prop48
 90
       50
102
RTVSPost2010PropOp48
 70
     1
102
RTVSPost2010Prop49
280
     0
102
RTVSPost2010PropOp49
 70
     1
102
RTVSPost2010Prop50
 90
       50
102
RTVSPost2010PropOp50
 70
     1
102
RTVSPost2010Prop51ColorIndex
 90
      256
102
RTVSPost2010Prop51ColorRGB
 90
-16777216
102
RTVSPost2010PropOp51
 70
     0
102
RTVSPost2010Prop52
140
1.0
102
RTVSPost2010PropOp52
 70
     0
102
RTVSPost2010Prop53
 90
        2
102
RTVSPost2010PropOp53
 70
     1
102
RTVSPost2010Prop54
  1
strokes_ogs.tif
102
RTVSPost2010PropOp54
 70
     1
102
RTVSPost2010Prop55
280
     0
102
RTVSPost2010PropOp55
 70
     1
102
RTVSPost2010Prop56
140
1.0
102
RTVSPost2010PropOp56
 70
     1
102
RTVSPost2010Prop57
140
1.0
102
RTVSPost2010PropOp57
 70
     1
102
RTVSPropertyOp0
 70
     1
102
RTVSPropertyOp1
 70
     1
102
RTVSPropertyOp2
 70
     1
102
RTVSPropertyOp3
 70
     1
102
RTVSPropertyOp4
 70
     1
102
RTVSPropertyOp5
 70
     1
102
RTVSPropertyOp6
 70
     1
102
RTVSPropertyOp7
 70
     1
102
RTVSPropertyOp8
 70
     1
102
RTVSPropertyOp9
 70
     1
102
RTVSPropertyOp10
 70
     1
102
RTVSPropertyOp11
 70
     1
102
RTVSPropertyOp12
 70
     1
102
RTVSPropertyOp13
 70
     1
102
RTVSPropertyOp14
 70
     1
102
RTVSPropertyOp15
 70
     1
102
RTVSPropertyOp16
 70
     1
102
RTVSPropertyOp17
 70
     1
102
RTVSPropertyOp18
 70
     1
102
RTVSPropertyOp19
 70
     1
102
RTVSPropertyOp20
 70
     1
102
RTVSPropertyOp21
 70
     1
102
RTVSPropertyOp22
 70
     1
102
RTVSPropertyOp23
 70
     1
102
RTVSPropertyOp24
 70
     1
102
RTVSPropertyOp25
 70
     1
102
RTVSPropertyOp26
 70
     1
102
RTVSPropertyOp27
 70
     1
102
RTVSPropertyOp28
 70
     1
102
RTVSPropertyOp29
 70
     1
102
RTVSPropertyOp30
 70
     1
102
RTVSPropertyOp31
 70
     1
102
RTVSPropertyOp32
 70
     1
102
RTVSPropertyOp33
 70
     1
102
RTVSPropertyOp34
 70
     1
102
RTVSPropertyOp35
 70
     1
102
RTVSPropertyOp36
 70
     1
102
RTVSPropertyOp37
 70
     1
102
RTVSPropertyOp38
 70
     1
102
RTVSPropertyOp39
 70
     1
102
RTVSPropertyOp40
 70
     1
102
RTVSPropertyOp41
 70
     1
102
RTVSPropertyOp42
 70
     1
102
RTVSPropertyOp43
 70
     1
102
RTVSPropertyOp44
 70
     1
102
RTVSPropertyOp45
 70
     1
102
RTVSPropertyOp46
 70
     1
102
RTVSPropertyOp47
 70
     1
102
RTVSPropertyOp48
 70
     1
102
RTVSPropertyOp49
 70
     1
102
RTVSPropertyOp50
 70
     1
102
RTVSPropertyOp51
 70
     0
102
RTVSPropertyOp52
 70
     0
102
RTVSPropertyOp53
 70
     1
102
RTVSPropertyOp54
 70
     1
102
RTVSPropertyOp55
 70
     1
102
RTVSPropertyOp56
 70
     1
102
RTVSPropertyOp57
 70
     1
102
RTVSPropertyOp58
 70
     1
102
RTVSPropertyOp59
 70
     1
102
RTVSPropertyOp60
 70
     1
102
RTVSPropertyOp61
 70
     1
102
RTVSPropertyOp62
 70
     1
  0
XRECORD
  5
C092
102
{ACAD_REACTORS
330
C091
102
}
330
C091
100
AcDbXrecord
280
     1
102
RTVSPost2010Prop28
280
     0
102
RTVSPost2010PropOp28
 70
     1
102
RTVSPost2010Prop29
280
     1
102
RTVSPost2010PropOp29
 70
     1
102
RTVSPost2010Prop30
280
     1
102
RTVSPost2010PropOp30
 70
     1
102
RTVSPost2010Prop31
280
     0
102
RTVSPost2010PropOp31
 70
     1
102
RTVSPost2010Prop32
280
     0
102
RTVSPost2010PropOp32
 70
     1
102
RTVSPost2010Prop33
280
     0
102
RTVSPost2010PropOp33
 70
     1
102
RTVSPost2010Prop34
280
     0
102
RTVSPost2010PropOp34
 70
     1
102
RTVSPost2010Prop35
280
     0
102
RTVSPost2010PropOp35
 70
     1
102
RTVSPost2010Prop36
280
     0
102
RTVSPost2010PropOp36
 70
     1
102
RTVSPost2010Prop37
 90
       50
102
RTVSPost2010PropOp37
 70
     1
102
RTVSPost2010Prop38
140
0.0
102
RTVSPost2010PropOp38
 70
     1
102
RTVSPost2010Prop39
140
1.0
102
RTVSPost2010PropOp39
 70
     1
102
RTVSPost2010Prop40
 90
        0
102
RTVSPost2010PropOp40
 70
     1
102
RTVSPost2010Prop41ColorIndex
 90
       18
102
RTVSPost2010Prop41ColorRGB
 90
        0
102
RTVSPost2010PropOp41
 70
     1
102
RTVSPost2010Prop42
 90
       50
102
RTVSPost2010PropOp42
 70
     1
102
RTVSPost2010Prop43
 90
        3
102
RTVSPost2010PropOp43
 70
     1
102
RTVSPost2010Prop44ColorIndex
 90
        5
102
RTVSPost2010Prop44ColorRGB
 90
      255
102
RTVSPost2010PropOp44
 70
     1
102
RTVSPost2010Prop45
280
     0
102
RTVSPost2010PropOp45
 70
     1
102
RTVSPost2010Prop46
 90
       50
102
RTVSPost2010PropOp46
 70
     1
102
RTVSPost2010Prop47
 90
       50
102
RTVSPost2010PropOp47
 70
     1
102
RTVSPost2010Prop48
 90
       50
102
RTVSPost2010PropOp48
 70
     1
102
RTVSPost2010Prop49
280
     0
102
RTVSPost2010PropOp49
 70
     1
102
RTVSPost2010Prop50
 90
       50
102
RTVSPost2010PropOp50
 70
     1
102
RTVSPost2010Prop51ColorIndex
 90
      256
102
RTVSPost2010Prop51ColorRGB
 90
-16777216
102
RTVSPost2010PropOp51
 70
     0
102
RTVSPost2010Prop52
140
1.0
102
RTVSPost2010PropOp52
 70
     0
102
RTVSPost2010Prop53
 90
        2
102
RTVSPost2010PropOp53
 70
     1
102
RTVSPost2010Prop54
  1
strokes_ogs.tif
102
RTVSPost2010PropOp54
 70
     1
102
RTVSPost2010Prop55
280
     0
102
RTVSPost2010PropOp55
 70
     1
102
RTVSPost2010Prop56
140
1.0
102
RTVSPost2010PropOp56
 70
     1
102
RTVSPost2010Prop57
140
1.0
102
RTVSPost2010PropOp57
 70
     1
102
RTVSPropertyOp0
 70
     1
102
RTVSPropertyOp1
 70
     1
102
RTVSPropertyOp2
 70
     1
102
RTVSPropertyOp3
 70
     1
102
RTVSPropertyOp4
 70
     1
102
RTVSPropertyOp5
 70
     1
102
RTVSPropertyOp6
 70
     1
102
RTVSPropertyOp7
 70
     1
102
RTVSPropertyOp8
 70
     1
102
RTVSPropertyOp9
 70
     1
102
RTVSPropertyOp10
 70
     1
102
RTVSPropertyOp11
 70
     1
102
RTVSPropertyOp12
 70
     1
102
RTVSPropertyOp13
 70
     1
102
RTVSPropertyOp14
 70
     1
102
RTVSPropertyOp15
 70
     1
102
RTVSPropertyOp16
 70
     1
102
RTVSPropertyOp17
 70
     1
102
RTVSPropertyOp18
 70
     1
102
RTVSPropertyOp19
 70
     1
102
RTVSPropertyOp20
 70
     1
102
RTVSPropertyOp21
 70
     1
102
RTVSPropertyOp22
 70
     1
102
RTVSPropertyOp23
 70
     1
102
RTVSPropertyOp24
 70
     1
102
RTVSPropertyOp25
 70
     1
102
RTVSPropertyOp26
 70
     1
102
RTVSPropertyOp27
 70
     1
102
RTVSPropertyOp28
 70
     1
102
RTVSPropertyOp29
 70
     1
102
RTVSPropertyOp30
 70
     1
102
RTVSPropertyOp31
 70
     1
102
RTVSPropertyOp32
 70
     1
102
RTVSPropertyOp33
 70
     1
102
RTVSPropertyOp34
 70
     1
102
RTVSPropertyOp35
 70
     1
102
RTVSPropertyOp36
 70
     1
102
RTVSPropertyOp37
 70
     1
102
RTVSPropertyOp38
 70
     1
102
RTVSPropertyOp39
 70
     1
102
RTVSPropertyOp40
 70
     1
102
RTVSPropertyOp41
 70
     1
102
RTVSPropertyOp42
 70
     1
102
RTVSPropertyOp43
 70
     1
102
RTVSPropertyOp44
 70
     1
102
RTVSPropertyOp45
 70
     1
102
RTVSPropertyOp46
 70
     1
102
RTVSPropertyOp47
 70
     1
102
RTVSPropertyOp48
 70
     1
102
RTVSPropertyOp49
 70
     1
102
RTVSPropertyOp50
 70
     1
102
RTVSPropertyOp51
 70
     0
102
RTVSPropertyOp52
 70
     0
102
RTVSPropertyOp53
 70
     1
102
RTVSPropertyOp54
 70
     1
102
RTVSPropertyOp55
 70
     1
102
RTVSPropertyOp56
 70
     1
102
RTVSPropertyOp57
 70
     1
102
RTVSPropertyOp58
 70
     1
102
RTVSPropertyOp59
 70
     1
102
RTVSPropertyOp60
 70
     1
102
RTVSPropertyOp61
 70
     1
102
RTVSPropertyOp62
 70
     1
  0
XRECORD
  5
C094
102
{ACAD_REACTORS
330
C093
102
}
330
C093
100
AcDbXrecord
280
     1
102
RTVSPost2010Prop28
280
     0
102
RTVSPost2010PropOp28
 70
     1
102
RTVSPost2010Prop29
280
     1
102
RTVSPost2010PropOp29
 70
     1
102
RTVSPost2010Prop30
280
     1
102
RTVSPost2010PropOp30
 70
     1
102
RTVSPost2010Prop31
280
     0
102
RTVSPost2010PropOp31
 70
     1
102
RTVSPost2010Prop32
280
     0
102
RTVSPost2010PropOp32
 70
     1
102
RTVSPost2010Prop33
280
     0
102
RTVSPost2010PropOp33
 70
     1
102
RTVSPost2010Prop34
280
     0
102
RTVSPost2010PropOp34
 70
     1
102
RTVSPost2010Prop35
280
     0
102
RTVSPost2010PropOp35
 70
     1
102
RTVSPost2010Prop36
280
     0
102
RTVSPost2010PropOp36
 70
     1
102
RTVSPost2010Prop37
 90
       50
102
RTVSPost2010PropOp37
 70
     1
102
RTVSPost2010Prop38
140
0.0
102
RTVSPost2010PropOp38
 70
     1
102
RTVSPost2010Prop39
140
1.0
102
RTVSPost2010PropOp39
 70
     1
102
RTVSPost2010Prop40
 90
        0
102
RTVSPost2010PropOp40
 70
     1
102
RTVSPost2010Prop41ColorIndex
 90
       18
102
RTVSPost2010Prop41ColorRGB
 90
        0
102
RTVSPost2010PropOp41
 70
     1
102
RTVSPost2010Prop42
 90
       50
102
RTVSPost2010PropOp42
 70
     1
102
RTVSPost2010Prop43
 90
        3
102
RTVSPost2010PropOp43
 70
     1
102
RTVSPost2010Prop44ColorIndex
 90
        5
102
RTVSPost2010Prop44ColorRGB
 90
      255
102
RTVSPost2010PropOp44
 70
     1
102
RTVSPost2010Prop45
280
     0
102
RTVSPost2010PropOp45
 70
     1
102
RTVSPost2010Prop46
 90
       50
102
RTVSPost2010PropOp46
 70
     1
102
RTVSPost2010Prop47
 90
       50
102
RTVSPost2010PropOp47
 70
     1
102
RTVSPost2010Prop48
 90
       50
102
RTVSPost2010PropOp48
 70
     1
102
RTVSPost2010Prop49
280
     0
102
RTVSPost2010PropOp49
 70
     1
102
RTVSPost2010Prop50
 90
       50
102
RTVSPost2010PropOp50
 70
     1
102
RTVSPost2010Prop51ColorIndex
 90
      256
102
RTVSPost2010Prop51ColorRGB
 90
-16777216
102
RTVSPost2010PropOp51
 70
     0
102
RTVSPost2010Prop52
140
1.0
102
RTVSPost2010PropOp52
 70
     0
102
RTVSPost2010Prop53
 90
        2
102
RTVSPost2010PropOp53
 70
     1
102
RTVSPost2010Prop54
  1
strokes_ogs.tif
102
RTVSPost2010PropOp54
 70
     1
102
RTVSPost2010Prop55
280
     0
102
RTVSPost2010PropOp55
 70
     1
102
RTVSPost2010Prop56
140
1.0
102
RTVSPost2010PropOp56
 70
     1
102
RTVSPost2010Prop57
140
1.0
102
RTVSPost2010PropOp57
 70
     1
102
RTVSPropertyOp0
 70
     1
102
RTVSPropertyOp1
 70
     1
102
RTVSPropertyOp2
 70
     1
102
RTVSPropertyOp3
 70
     1
102
RTVSPropertyOp4
 70
     1
102
RTVSPropertyOp5
 70
     1
102
RTVSPropertyOp6
 70
     1
102
RTVSPropertyOp7
 70
     1
102
RTVSPropertyOp8
 70
     1
102
RTVSPropertyOp9
 70
     1
102
RTVSPropertyOp10
 70
     1
102
RTVSPropertyOp11
 70
     1
102
RTVSPropertyOp12
 70
     1
102
RTVSPropertyOp13
 70
     1
102
RTVSPropertyOp14
 70
     1
102
RTVSPropertyOp15
 70
     1
102
RTVSPropertyOp16
 70
     1
102
RTVSPropertyOp17
 70
     1
102
RTVSPropertyOp18
 70
     1
102
RTVSPropertyOp19
 70
     1
102
RTVSPropertyOp20
 70
     1
102
RTVSPropertyOp21
 70
     1
102
RTVSPropertyOp22
 70
     1
102
RTVSPropertyOp23
 70
     1
102
RTVSPropertyOp24
 70
     1
102
RTVSPropertyOp25
 70
     1
102
RTVSPropertyOp26
 70
     1
102
RTVSPropertyOp27
 70
     1
102
RTVSPropertyOp28
 70
     1
102
RTVSPropertyOp29
 70
     1
102
RTVSPropertyOp30
 70
     1
102
RTVSPropertyOp31
 70
     1
102
RTVSPropertyOp32
 70
     1
102
RTVSPropertyOp33
 70
     1
102
RTVSPropertyOp34
 70
     1
102
RTVSPropertyOp35
 70
     1
102
RTVSPropertyOp36
 70
     1
102
RTVSPropertyOp37
 70
     1
102
RTVSPropertyOp38
 70
     1
102
RTVSPropertyOp39
 70
     1
102
RTVSPropertyOp40
 70
     1
102
RTVSPropertyOp41
 70
     1
102
RTVSPropertyOp42
 70
     1
102
RTVSPropertyOp43
 70
     1
102
RTVSPropertyOp44
 70
     1
102
RTVSPropertyOp45
 70
     1
102
RTVSPropertyOp46
 70
     1
102
RTVSPropertyOp47
 70
     1
102
RTVSPropertyOp48
 70
     1
102
RTVSPropertyOp49
 70
     1
102
RTVSPropertyOp50
 70
     1
102
RTVSPropertyOp51
 70
     0
102
RTVSPropertyOp52
 70
     0
102
RTVSPropertyOp53
 70
     1
102
RTVSPropertyOp54
 70
     1
102
RTVSPropertyOp55
 70
     1
102
RTVSPropertyOp56
 70
     1
102
RTVSPropertyOp57
 70
     1
102
RTVSPropertyOp58
 70
     1
102
RTVSPropertyOp59
 70
     1
102
RTVSPropertyOp60
 70
     1
102
RTVSPropertyOp61
 70
     1
102
RTVSPropertyOp62
 70
     1
  0
XRECORD
  5
C08A
102
{ACAD_REACTORS
330
C089
102
}
330
C089
100
AcDbXrecord
280
     1
102
RTVSPost2010Prop28
280
     0
102
RTVSPost2010PropOp28
 70
     1
102
RTVSPost2010Prop29
280
     1
102
RTVSPost2010PropOp29
 70
     1
102
RTVSPost2010Prop30
280
     1
102
RTVSPost2010PropOp30
 70
     1
102
RTVSPost2010Prop31
280
     0
102
RTVSPost2010PropOp31
 70
     1
102
RTVSPost2010Prop32
280
     0
102
RTVSPost2010PropOp32
 70
     1
102
RTVSPost2010Prop33
280
     0
102
RTVSPost2010PropOp33
 70
     1
102
RTVSPost2010Prop34
280
     0
102
RTVSPost2010PropOp34
 70
     1
102
RTVSPost2010Prop35
280
     0
102
RTVSPost2010PropOp35
 70
     1
102
RTVSPost2010Prop36
280
     0
102
RTVSPost2010PropOp36
 70
     1
102
RTVSPost2010Prop37
 90
       50
102
RTVSPost2010PropOp37
 70
     1
102
RTVSPost2010Prop38
140
0.0
102
RTVSPost2010PropOp38
 70
     1
102
RTVSPost2010Prop39
140
1.0
102
RTVSPost2010PropOp39
 70
     1
102
RTVSPost2010Prop40
 90
        0
102
RTVSPost2010PropOp40
 70
     1
102
RTVSPost2010Prop41ColorIndex
 90
       18
102
RTVSPost2010Prop41ColorRGB
 90
        0
102
RTVSPost2010PropOp41
 70
     1
102
RTVSPost2010Prop42
 90
       50
102
RTVSPost2010PropOp42
 70
     1
102
RTVSPost2010Prop43
 90
        3
102
RTVSPost2010PropOp43
 70
     1
102
RTVSPost2010Prop44ColorIndex
 90
        5
102
RTVSPost2010Prop44ColorRGB
 90
      255
102
RTVSPost2010PropOp44
 70
     1
102
RTVSPost2010Prop45
280
     0
102
RTVSPost2010PropOp45
 70
     1
102
RTVSPost2010Prop46
 90
       50
102
RTVSPost2010PropOp46
 70
     1
102
RTVSPost2010Prop47
 90
       50
102
RTVSPost2010PropOp47
 70
     1
102
RTVSPost2010Prop48
 90
       50
102
RTVSPost2010PropOp48
 70
     1
102
RTVSPost2010Prop49
280
     0
102
RTVSPost2010PropOp49
 70
     1
102
RTVSPost2010Prop50
 90
       50
102
RTVSPost2010PropOp50
 70
     1
102
RTVSPost2010Prop51ColorIndex
 90
      256
102
RTVSPost2010Prop51ColorRGB
 90
-16777216
102
RTVSPost2010PropOp51
 70
     0
102
RTVSPost2010Prop52
140
1.0
102
RTVSPost2010PropOp52
 70
     0
102
RTVSPost2010Prop53
 90
        2
102
RTVSPost2010PropOp53
 70
     1
102
RTVSPost2010Prop54
  1
strokes_ogs.tif
102
RTVSPost2010PropOp54
 70
     1
102
RTVSPost2010Prop55
280
     0
102
RTVSPost2010PropOp55
 70
     1
102
RTVSPost2010Prop56
140
1.0
102
RTVSPost2010PropOp56
 70
     1
102
RTVSPost2010Prop57
140
1.0
102
RTVSPost2010PropOp57
 70
     1
102
RTVSPropertyOp0
 70
     1
102
RTVSPropertyOp1
 70
     1
102
RTVSPropertyOp2
 70
     1
102
RTVSPropertyOp3
 70
     1
102
RTVSPropertyOp4
 70
     1
102
RTVSPropertyOp5
 70
     1
102
RTVSPropertyOp6
 70
     1
102
RTVSPropertyOp7
 70
     1
102
RTVSPropertyOp8
 70
     1
102
RTVSPropertyOp9
 70
     1
102
RTVSPropertyOp10
 70
     1
102
RTVSPropertyOp11
 70
     1
102
RTVSPropertyOp12
 70
     1
102
RTVSPropertyOp13
 70
     1
102
RTVSPropertyOp14
 70
     1
102
RTVSPropertyOp15
 70
     1
102
RTVSPropertyOp16
 70
     1
102
RTVSPropertyOp17
 70
     1
102
RTVSPropertyOp18
 70
     1
102
RTVSPropertyOp19
 70
     1
102
RTVSPropertyOp20
 70
     1
102
RTVSPropertyOp21
 70
     1
102
RTVSPropertyOp22
 70
     1
102
RTVSPropertyOp23
 70
     1
102
RTVSPropertyOp24
 70
     1
102
RTVSPropertyOp25
 70
     1
102
RTVSPropertyOp26
 70
     1
102
RTVSPropertyOp27
 70
     1
102
RTVSPropertyOp28
 70
     1
102
RTVSPropertyOp29
 70
     1
102
RTVSPropertyOp30
 70
     1
102
RTVSPropertyOp31
 70
     1
102
RTVSPropertyOp32
 70
     1
102
RTVSPropertyOp33
 70
     1
102
RTVSPropertyOp34
 70
     1
102
RTVSPropertyOp35
 70
     1
102
RTVSPropertyOp36
 70
     1
102
RTVSPropertyOp37
 70
     1
102
RTVSPropertyOp38
 70
     1
102
RTVSPropertyOp39
 70
     1
102
RTVSPropertyOp40
 70
     1
102
RTVSPropertyOp41
 70
     1
102
RTVSPropertyOp42
 70
     1
102
RTVSPropertyOp43
 70
     1
102
RTVSPropertyOp44
 70
     1
102
RTVSPropertyOp45
 70
     1
102
RTVSPropertyOp46
 70
     1
102
RTVSPropertyOp47
 70
     1
102
RTVSPropertyOp48
 70
     1
102
RTVSPropertyOp49
 70
     1
102
RTVSPropertyOp50
 70
     1
102
RTVSPropertyOp51
 70
     0
102
RTVSPropertyOp52
 70
     0
102
RTVSPropertyOp53
 70
     1
102
RTVSPropertyOp54
 70
     1
102
RTVSPropertyOp55
 70
     1
102
RTVSPropertyOp56
 70
     1
102
RTVSPropertyOp57
 70
     1
102
RTVSPropertyOp58
 70
     1
102
RTVSPropertyOp59
 70
     1
102
RTVSPropertyOp60
 70
     1
102
RTVSPropertyOp61
 70
     1
102
RTVSPropertyOp62
 70
     1
  0
XRECORD
  5
C07E
102
{ACAD_REACTORS
330
C07D
102
}
330
C07D
100
AcDbXrecord
280
     1
102
RTVSPost2010Prop28
280
     0
102
RTVSPost2010PropOp28
 70
     1
102
RTVSPost2010Prop29
280
     1
102
RTVSPost2010PropOp29
 70
     1
102
RTVSPost2010Prop30
280
     1
102
RTVSPost2010PropOp30
 70
     1
102
RTVSPost2010Prop31
280
     0
102
RTVSPost2010PropOp31
 70
     1
102
RTVSPost2010Prop32
280
     0
102
RTVSPost2010PropOp32
 70
     1
102
RTVSPost2010Prop33
280
     0
102
RTVSPost2010PropOp33
 70
     1
102
RTVSPost2010Prop34
280
     0
102
RTVSPost2010PropOp34
 70
     1
102
RTVSPost2010Prop35
280
     0
102
RTVSPost2010PropOp35
 70
     1
102
RTVSPost2010Prop36
280
     0
102
RTVSPost2010PropOp36
 70
     1
102
RTVSPost2010Prop37
 90
       50
102
RTVSPost2010PropOp37
 70
     1
102
RTVSPost2010Prop38
140
0.0
102
RTVSPost2010PropOp38
 70
     1
102
RTVSPost2010Prop39
140
1.0
102
RTVSPost2010PropOp39
 70
     1
102
RTVSPost2010Prop40
 90
        0
102
RTVSPost2010PropOp40
 70
     1
102
RTVSPost2010Prop41ColorIndex
 90
       18
102
RTVSPost2010Prop41ColorRGB
 90
        0
102
RTVSPost2010PropOp41
 70
     1
102
RTVSPost2010Prop42
 90
       50
102
RTVSPost2010PropOp42
 70
     1
102
RTVSPost2010Prop43
 90
        3
102
RTVSPost2010PropOp43
 70
     1
102
RTVSPost2010Prop44ColorIndex
 90
        5
102
RTVSPost2010Prop44ColorRGB
 90
      255
102
RTVSPost2010PropOp44
 70
     1
102
RTVSPost2010Prop45
280
     0
102
RTVSPost2010PropOp45
 70
     1
102
RTVSPost2010Prop46
 90
       50
102
RTVSPost2010PropOp46
 70
     1
102
RTVSPost2010Prop47
 90
       50
102
RTVSPost2010PropOp47
 70
     1
102
RTVSPost2010Prop48
 90
       50
102
RTVSPost2010PropOp48
 70
     1
102
RTVSPost2010Prop49
280
     0
102
RTVSPost2010PropOp49
 70
     1
102
RTVSPost2010Prop50
 90
       50
102
RTVSPost2010PropOp50
 70
     1
102
RTVSPost2010Prop51ColorIndex
 90
      256
102
RTVSPost2010Prop51ColorRGB
 90
-16777216
102
RTVSPost2010PropOp51
 70
     0
102
RTVSPost2010Prop52
140
1.0
102
RTVSPost2010PropOp52
 70
     0
102
RTVSPost2010Prop53
 90
        2
102
RTVSPost2010PropOp53
 70
     1
102
RTVSPost2010Prop54
  1
strokes_ogs.tif
102
RTVSPost2010PropOp54
 70
     1
102
RTVSPost2010Prop55
280
     0
102
RTVSPost2010PropOp55
 70
     1
102
RTVSPost2010Prop56
140
1.0
102
RTVSPost2010PropOp56
 70
     1
102
RTVSPost2010Prop57
140
1.0
102
RTVSPost2010PropOp57
 70
     1
102
RTVSPropertyOp0
 70
     1
102
RTVSPropertyOp1
 70
     1
102
RTVSPropertyOp2
 70
     1
102
RTVSPropertyOp3
 70
     1
102
RTVSPropertyOp4
 70
     1
102
RTVSPropertyOp5
 70
     1
102
RTVSPropertyOp6
 70
     1
102
RTVSPropertyOp7
 70
     1
102
RTVSPropertyOp8
 70
     1
102
RTVSPropertyOp9
 70
     1
102
RTVSPropertyOp10
 70
     1
102
RTVSPropertyOp11
 70
     1
102
RTVSPropertyOp12
 70
     1
102
RTVSPropertyOp13
 70
     1
102
RTVSPropertyOp14
 70
     1
102
RTVSPropertyOp15
 70
     1
102
RTVSPropertyOp16
 70
     1
102
RTVSPropertyOp17
 70
     1
102
RTVSPropertyOp18
 70
     1
102
RTVSPropertyOp19
 70
     1
102
RTVSPropertyOp20
 70
     1
102
RTVSPropertyOp21
 70
     1
102
RTVSPropertyOp22
 70
     1
102
RTVSPropertyOp23
 70
     1
102
RTVSPropertyOp24
 70
     1
102
RTVSPropertyOp25
 70
     1
102
RTVSPropertyOp26
 70
     1
102
RTVSPropertyOp27
 70
     1
102
RTVSPropertyOp28
 70
     1
102
RTVSPropertyOp29
 70
     1
102
RTVSPropertyOp30
 70
     1
102
RTVSPropertyOp31
 70
     1
102
RTVSPropertyOp32
 70
     1
102
RTVSPropertyOp33
 70
     1
102
RTVSPropertyOp34
 70
     1
102
RTVSPropertyOp35
 70
     1
102
RTVSPropertyOp36
 70
     1
102
RTVSPropertyOp37
 70
     1
102
RTVSPropertyOp38
 70
     1
102
RTVSPropertyOp39
 70
     1
102
RTVSPropertyOp40
 70
     1
102
RTVSPropertyOp41
 70
     1
102
RTVSPropertyOp42
 70
     1
102
RTVSPropertyOp43
 70
     1
102
RTVSPropertyOp44
 70
     1
102
RTVSPropertyOp45
 70
     1
102
RTVSPropertyOp46
 70
     1
102
RTVSPropertyOp47
 70
     1
102
RTVSPropertyOp48
 70
     1
102
RTVSPropertyOp49
 70
     1
102
RTVSPropertyOp50
 70
     1
102
RTVSPropertyOp51
 70
     0
102
RTVSPropertyOp52
 70
     0
102
RTVSPropertyOp53
 70
     1
102
RTVSPropertyOp54
 70
     1
102
RTVSPropertyOp55
 70
     1
102
RTVSPropertyOp56
 70
     1
102
RTVSPropertyOp57
 70
     1
102
RTVSPropertyOp58
 70
     1
102
RTVSPropertyOp59
 70
     1
102
RTVSPropertyOp60
 70
     1
102
RTVSPropertyOp61
 70
     1
102
RTVSPropertyOp62
 70
     1
  0
XRECORD
  5
C096
102
{ACAD_REACTORS
330
C095
102
}
330
C095
100
AcDbXrecord
280
     1
102
RTVSPost2010Prop28
280
     0
102
RTVSPost2010PropOp28
 70
     1
102
RTVSPost2010Prop29
280
     1
102
RTVSPost2010PropOp29
 70
     1
102
RTVSPost2010Prop30
280
     1
102
RTVSPost2010PropOp30
 70
     1
102
RTVSPost2010Prop31
280
     0
102
RTVSPost2010PropOp31
 70
     1
102
RTVSPost2010Prop32
280
     0
102
RTVSPost2010PropOp32
 70
     1
102
RTVSPost2010Prop33
280
     0
102
RTVSPost2010PropOp33
 70
     1
102
RTVSPost2010Prop34
280
     0
102
RTVSPost2010PropOp34
 70
     1
102
RTVSPost2010Prop35
280
     0
102
RTVSPost2010PropOp35
 70
     1
102
RTVSPost2010Prop36
280
     0
102
RTVSPost2010PropOp36
 70
     1
102
RTVSPost2010Prop37
 90
       50
102
RTVSPost2010PropOp37
 70
     1
102
RTVSPost2010Prop38
140
0.0
102
RTVSPost2010PropOp38
 70
     1
102
RTVSPost2010Prop39
140
1.0
102
RTVSPost2010PropOp39
 70
     1
102
RTVSPost2010Prop40
 90
        0
102
RTVSPost2010PropOp40
 70
     1
102
RTVSPost2010Prop41ColorIndex
 90
       18
102
RTVSPost2010Prop41ColorRGB
 90
        0
102
RTVSPost2010PropOp41
 70
     1
102
RTVSPost2010Prop42
 90
       50
102
RTVSPost2010PropOp42
 70
     1
102
RTVSPost2010Prop43
 90
        3
102
RTVSPost2010PropOp43
 70
     1
102
RTVSPost2010Prop44ColorIndex
 90
        5
102
RTVSPost2010Prop44ColorRGB
 90
      255
102
RTVSPost2010PropOp44
 70
     1
102
RTVSPost2010Prop45
280
     0
102
RTVSPost2010PropOp45
 70
     1
102
RTVSPost2010Prop46
 90
       50
102
RTVSPost2010PropOp46
 70
     1
102
RTVSPost2010Prop47
 90
       50
102
RTVSPost2010PropOp47
 70
     1
102
RTVSPost2010Prop48
 90
       50
102
RTVSPost2010PropOp48
 70
     1
102
RTVSPost2010Prop49
280
     0
102
RTVSPost2010PropOp49
 70
     1
102
RTVSPost2010Prop50
 90
       50
102
RTVSPost2010PropOp50
 70
     1
102
RTVSPost2010Prop51ColorIndex
 90
      256
102
RTVSPost2010Prop51ColorRGB
 90
-16777216
102
RTVSPost2010PropOp51
 70
     0
102
RTVSPost2010Prop52
140
1.0
102
RTVSPost2010PropOp52
 70
     0
102
RTVSPost2010Prop53
 90
        2
102
RTVSPost2010PropOp53
 70
     1
102
RTVSPost2010Prop54
  1
strokes_ogs.tif
102
RTVSPost2010PropOp54
 70
     1
102
RTVSPost2010Prop55
280
     0
102
RTVSPost2010PropOp55
 70
     1
102
RTVSPost2010Prop56
140
1.0
102
RTVSPost2010PropOp56
 70
     1
102
RTVSPost2010Prop57
140
1.0
102
RTVSPost2010PropOp57
 70
     1
102
RTVSPropertyOp0
 70
     1
102
RTVSPropertyOp1
 70
     1
102
RTVSPropertyOp2
 70
     1
102
RTVSPropertyOp3
 70
     1
102
RTVSPropertyOp4
 70
     1
102
RTVSPropertyOp5
 70
     1
102
RTVSPropertyOp6
 70
     1
102
RTVSPropertyOp7
 70
     1
102
RTVSPropertyOp8
 70
     1
102
RTVSPropertyOp9
 70
     1
102
RTVSPropertyOp10
 70
     1
102
RTVSPropertyOp11
 70
     1
102
RTVSPropertyOp12
 70
     1
102
RTVSPropertyOp13
 70
     1
102
RTVSPropertyOp14
 70
     1
102
RTVSPropertyOp15
 70
     1
102
RTVSPropertyOp16
 70
     1
102
RTVSPropertyOp17
 70
     1
102
RTVSPropertyOp18
 70
     1
102
RTVSPropertyOp19
 70
     1
102
RTVSPropertyOp20
 70
     1
102
RTVSPropertyOp21
 70
     1
102
RTVSPropertyOp22
 70
     1
102
RTVSPropertyOp23
 70
     1
102
RTVSPropertyOp24
 70
     1
102
RTVSPropertyOp25
 70
     1
102
RTVSPropertyOp26
 70
     1
102
RTVSPropertyOp27
 70
     1
102
RTVSPropertyOp28
 70
     1
102
RTVSPropertyOp29
 70
     1
102
RTVSPropertyOp30
 70
     1
102
RTVSPropertyOp31
 70
     1
102
RTVSPropertyOp32
 70
     1
102
RTVSPropertyOp33
 70
     1
102
RTVSPropertyOp34
 70
     1
102
RTVSPropertyOp35
 70
     1
102
RTVSPropertyOp36
 70
     1
102
RTVSPropertyOp37
 70
     1
102
RTVSPropertyOp38
 70
     1
102
RTVSPropertyOp39
 70
     1
102
RTVSPropertyOp40
 70
     1
102
RTVSPropertyOp41
 70
     1
102
RTVSPropertyOp42
 70
     1
102
RTVSPropertyOp43
 70
     1
102
RTVSPropertyOp44
 70
     1
102
RTVSPropertyOp45
 70
     1
102
RTVSPropertyOp46
 70
     1
102
RTVSPropertyOp47
 70
     1
102
RTVSPropertyOp48
 70
     1
102
RTVSPropertyOp49
 70
     1
102
RTVSPropertyOp50
 70
     1
102
RTVSPropertyOp51
 70
     0
102
RTVSPropertyOp52
 70
     0
102
RTVSPropertyOp53
 70
     1
102
RTVSPropertyOp54
 70
     1
102
RTVSPropertyOp55
 70
     1
102
RTVSPropertyOp56
 70
     1
102
RTVSPropertyOp57
 70
     1
102
RTVSPropertyOp58
 70
     1
102
RTVSPropertyOp59
 70
     1
102
RTVSPropertyOp60
 70
     1
102
RTVSPropertyOp61
 70
     1
102
RTVSPropertyOp62
 70
     1
  0
ENDSEC
  0
EOF
