  0
SECTION
  2
HEADER
  9
$ACADVER
  1
AC1009
  9
$INSBASE
 10
973.7180480346439708
 20
138.8416624001091861
 30
0.0
  9
$EXTMIN
 10
966.7540513256835766
 20
138.8300234132192941
 30
-0.0000000349181948
  9
$EXTMAX
 10
975.3663289183300549
 20
149.4576329429208954
 30
0.0000000814935746
  9
$LIMMIN
 10
0.0
 20
0.0
  9
$LIMMAX
 10
11.6929133858000007
 20
8.2677165353999982
  9
$ORTHOMODE
 70
     0
  9
$REGENMODE
 70
     1
  9
$FILLMODE
 70
     1
  9
$QTEXTMODE
 70
     0
  9
$MIRRTEXT
 70
     0
  9
$DRAGMODE
 70
     2
  9
$LTSCALE
 40
0.6431102362
  9
$OSMODE
 70
  4095
  9
$ATTMODE
 70
     1
  9
$TEXTSIZE
 40
0.2
  9
$TRACEWID
 40
0.05
  9
$TEXTSTYLE
  7
STANDARD
  9
$CLAYER
  8
0
  9
$CELTYPE
  6
BYLAYER
  9
$CECOLOR
 62
   256
  9
$DIMSCALE
 40
1.0
  9
$DIMASZ
 40
0.1875
  9
$DIMEXO
 40
0.0625
  9
$DIMDLI
 40
0.4443307087
  9
$DIMRND
 40
0.0
  9
$DIMDLE
 40
0.0
  9
$DIMEXE
 40
0.125
  9
$DIMTP
 40
0.01
  9
$DIMTM
 40
0.01
  9
$DIMTXT
 40
1.0
  9
$DIMCEN
 40
0.1052362205
  9
$DIMTSZ
 40
0.0
  9
$DIMTOL
 70
     1
  9
$DIMLIM
 70
     0
  9
$DIMTIH
 70
     0
  9
$DIMTOH
 70
     1
  9
$DIMSE1
 70
     0
  9
$DIMSE2
 70
     0
  9
$DIMTAD
 70
     0
  9
$DIMZIN
 70
     0
  9
$DIMBLK
  1

  9
$DIMASO
 70
     1
  9
$DIMSHO
 70
     1
  9
$DIMPOST
  1
\X
  9
$DIMAPOST
  1

  9
$DIMALT
 70
     1
  9
$DIMALTD
 70
     2
  9
$DIMALTF
 40
25.3999999999999986
  9
$DIMLFAC
 40
1.0
  9
$DIMTOFL
 70
     0
  9
$DIMTVP
 40
0.0
  9
$DIMTIX
 70
     0
  9
$DIMSOXD
 70
     0
  9
$DIMSAH
 70
     0
  9
$DIMBLK1
  1

  9
$DIMBLK2
  1

  9
$DIMSTYLE
  2
STANDARD
  9
$DIMCLRD
 70
     0
  9
$DIMCLRE
 70
     0
  9
$DIMCLRT
 70
     0
  9
$DIMTFAC
 40
1.0
  9
$DIMGAP
 40
0.09
  9
$LUNITS
 70
     2
  9
$LUPREC
 70
     4
  9
$SKETCHINC
 40
0.1
  9
$FILLETRAD
 40
0.0
  9
$AUNITS
 70
     0
  9
$AUPREC
 70
     0
  9
$MENU
  1
.
  9
$ELEVATION
 40
0.0
  9
$PELEVATION
 40
0.0
  9
$THICKNESS
 40
0.0
  9
$LIMCHECK
 70
     0
  9
$BLIPMODE
 70
     0
  9
$CHAMFERA
 40
0.0
  9
$CHAMFERB
 40
0.0
  9
$SKPOLY
 70
     0
  9
$TDCREATE
 40
2458172.5207638889551163
  9
$TDUPDATE
 40
2459207.4743518522009254
  9
$TDINDWG
 40
0.4457993287
  9
$TDUSRTIMER
 40
0.4457993287
  9
$USRTIMER
 70
     1
  9
$ANGBASE
 50
0.0
  9
$ANGDIR
 70
     0
  9
$PDMODE
 70
     0
  9
$PDSIZE
 40
0.3125
  9
$PLINEWID
 40
0.0
  9
$COORDS
 70
     1
  9
$SPLFRAME
 70
     0
  9
$SPLINETYPE
 70
     6
  9
$SPLINESEGS
 70
     8
  9
$ATTDIA
 70
     1
  9
$ATTREQ
 70
     1
  9
$HANDLING
 70
     1
  9
$HANDSEED
  5
C33B
  9
$SURFTAB1
 70
     6
  9
$SURFTAB2
 70
     6
  9
$SURFTYPE
 70
     6
  9
$SURFU
 70
     6
  9
$SURFV
 70
     6
  9
$UCSNAME
  2

  9
$UCSORG
 10
0.0
 20
0.0
 30
0.0
  9
$UCSXDIR
 10
1.0
 20
0.0
 30
0.0
  9
$UCSYDIR
 10
0.0
 20
1.0
 30
0.0
  9
$PUCSNAME
  2

  9
$PUCSORG
 10
0.0
 20
0.0
 30
0.0
  9
$PUCSXDIR
 10
1.0
 20
0.0
 30
0.0
  9
$PUCSYDIR
 10
0.0
 20
1.0
 30
0.0
  9
$USERI1
 70
     0
  9
$USERI2
 70
     0
  9
$USERI3
 70
     0
  9
$USERI4
 70
     0
  9
$USERI5
 70
     0
  9
$USERR1
 40
0.0
  9
$USERR2
 40
0.0
  9
$USERR3
 40
0.0
  9
$USERR4
 40
0.0
  9
$USERR5
 40
0.0
  9
$WORLDVIEW
 70
     1
  9
$SHADEDGE
 70
     3
  9
$SHADEDIF
 70
    70
  9
$TILEMODE
 70
     1
  9
$MAXACTVP
 70
    64
  9
$PLIMCHECK
 70
     0
  9
$PEXTMIN
 10
1.0000000000000000E+20
 20
1.0000000000000000E+20
 30
1.0000000000000000E+20
  9
$PEXTMAX
 10
-1.0000000000000000E+20
 20
-1.0000000000000000E+20
 30
-1.0000000000000000E+20
  9
$PLIMMIN
 10
0.0
 20
0.0
  9
$PLIMMAX
 10
12.0
 20
9.0
  9
$UNITMODE
 70
     0
  9
$VISRETAIN
 70
     1
  9
$PLINEGEN
 70
     0
  9
$PSLTSCALE
 70
     1
  0
ENDSEC
  0
SECTION
  2
TABLES
  0
TABLE
  2
VPORT
 70
     1
  0
VPORT
  2
*ACTIVE
 70
     0
 10
0.0
 20
0.0
 11
1.0
 21
1.0
 12
504.317988414176682
 22
55.0106810581403565
 13
0.0
 23
0.0
 14
1.0
 24
1.0
 15
0.0
 25
0.0
 16
0.0
 26
0.0
 36
24.1179433675886514
 17
466.74220170783002
 27
89.133147119929788
 37
0.0
 40
10.7718403262915903
 41
2.9182795698924728
 42
50.0
 43
0.0
 44
0.0
 50
0.0
 51
0.0
 71
     0
 72
   100
 73
     1
 74
     1
 75
     0
 76
     0
 77
     0
 78
     0
  0
ENDTAB
  0
TABLE
  2
LTYPE
 70
     2
  0
LTYPE
  2
CONTINUOUS
 70
     0
  3
Solid line
 72
    65
 73
     0
 40
0.0
  0
LTYPE
  2
PHANTOM2
 70
     0
  3
___ _ _ ___ _ _ ___ _ _ ___ _ _
 72
    65
 73
     6
 40
1.25
 49
0.625
 49
-0.125
 49
0.125
 49
-0.125
 49
0.125
 49
-0.125
  0
ENDTAB
  0
TABLE
  2
LAYER
 70
     2
  0
LAYER
  2
0
 70
     0
 62
   255
  6
CONTINUOUS
  0
LAYER
  2
DEFPOINTS
 70
     0
 62
     7
  6
CONTINUOUS
  0
ENDTAB
  0
TABLE
  2
STYLE
 70
     1
  0
STYLE
  2
STANDARD
 70
     0
 40
0.0
 41
0.8
 50
0.0
 71
     0
 42
0.2
  3
txt
  4

  0
ENDTAB
  0
TABLE
  2
VIEW
 70
     0
  0
ENDTAB
  0
TABLE
  2
UCS
 70
     0
  0
ENDTAB
  0
TABLE
  2
APPID
 70
    11
  0
APPID
  2
ACAD
 70
     0
  0
APPID
  2
ACAD_MLEADERVER
 70
     0
  0
APPID
  2
ACAD_EXEMPT_FROM_CAD_STANDARDS
 70
     0
  0
APPID
  2
ACAD_DSTYLE_DIMJAG
 70
     0
  0
APPID
  2
ACAD_DSTYLE_DIMTALN
 70
     0
  0
APPID
  2
ACAD_NAV_VCDISPLAY
 70
     0
  0
APPID
  2
ACAECLAYERSTANDARD
 70
     0
  0
APPID
  2
ACCMTRANSPARENCY
 70
     0
  0
APPID
  2
DCO15
 70
     0
  0
APPID
  2
ACDBATTR
 70
     0
  0
APPID
  2
ACADANNOTATIVE
 70
     0
  0
ENDTAB
  0
TABLE
  2
DIMSTYLE
 70
     1
  0
DIMSTYLE
  2
STANDARD
 70
     0
  3

  4

  5

  6

  7

 40
1.0
 41
0.1875
 42
0.0625
 43
0.38
 44
0.125
 45
0.0
 46
0.0
 47
0.01
 48
0.01
140
0.15625
141
0.09
142
0.0
143
25.3999999999999986
144
1.0
145
0.0
146
1.0
147
0.09
 71
     1
 72
     0
 73
     1
 74
     1
 75
     0
 76
     0
 77
     0
 78
     4
170
     0
171
     2
172
     0
173
     0
174
     0
175
     0
176
     0
177
     0
178
     0
  0
ENDTAB
  0
ENDSEC
  0
SECTION
  2
BLOCKS
  0
BLOCK
  8
0
  2
$MODEL_SPACE
 70
     0
 10
0.0
 20
0.0
 30
0.0
  3
$MODEL_SPACE
  1

  0
ENDBLK
  5
21
  8
0
  0
BLOCK
 67
     1
  8
0
  2
$PAPER_SPACE
 70
     0
 10
0.0
 20
0.0
 30
0.0
  3
$PAPER_SPACE
  1

  0
ENDBLK
  5
1D
 67
     1
  8
0
  0
ENDSEC
  0
SECTION
  2
ENTITIES
  0
ATTDEF
  5
829
  8
DEFPOINTS
 10
973.7147894582130903
 20
138.8383087092744006
 30
0.0
 40
0.001
  1
K-72337IN-4
  3

  2
MODELNUMBER
 70
     0
1001
ACDBATTR
1070
     0
1070
     1
  0
ATTDEF
  5
82A
  8
DEFPOINTS
 10
973.7147894582130903
 20
138.8366420426077923
 30
0.0
 40
0.001
  1
ALEO
  3

  2
TRADENAME
 70
     0
1001
ACDBATTR
1070
     0
1070
     1
  0
ATTDEF
  5
82B
  8
DEFPOINTS
 10
973.7147894582130903
 20
138.8349753759410987
 30
0.0
 40
0.001
  1
BATHROOM SINK FAUCET
  3

  2
PRODUCT
 70
     0
1001
ACDBATTR
1070
     0
1070
     1
  0
LINE
  5
C154
  8
0
 10
972.609635461094058
 20
138.8416624001091861
 30
0.0
 11
974.8264606081939974
 21
138.8416624001091861
 31
0.0
  0
LINE
  5
C155
  8
0
 10
974.8264606081939974
 20
138.8416624001091861
 30
0.0
 11
974.8264606081939974
 21
141.244291572914392
 31
0.0
  0
LINE
  5
C156
  8
0
 10
974.8264606081939974
 20
141.4597921318494116
 30
0.0
 11
974.8264606081939974
 21
147.936146652109187
 31
0.0
  0
LINE
  5
C157
  8
0
 10
972.609635461094058
 20
145.8546025447996897
 30
0.0
 11
972.609635461094058
 21
138.8416624001091861
 31
0.0
  0
LINE
  5
C158
  8
0
 10
966.7900898964396674
 20
147.9676466521092095
 30
0.0
 11
974.7949606081939464
 21
147.9676466521092095
 31
0.0
  0
LINE
  5
C159
  8
0
 10
972.8800107372940147
 20
148.4997332663091925
 30
0.0
 11
974.7601632134941383
 21
148.4997332663091925
 31
0.0
  0
LINE
  5
C15A
  8
0
 10
969.2633111865355886
 20
149.4508071817056134
 30
0.0
 11
974.725206914182877
 21
149.4031422162310037
 31
0.0
  0
ARC
  5
C15B
  8
0
 10
965.621618441094256
 20
145.9666466627843988
 30
0.0
 40
6.9889152059657853
 50
359.0814125062689186
 51
4.262025747936975
  0
ARC
  5
C15C
  8
0
 10
968.5428716230927648
 20
146.1886301038873057
 30
0.0
 40
1.1027779381838261
 50
109.4143016116908029
 51
119.5896589333011946
  0
ARC
  5
C15D
  8
0
 10
965.9483685761732659
 20
146.6184965526761914
 30
0.0
 40
1.379803825626011
 50
37.4661958813967928
 51
41.7461902121756765
  0
ARC
  5
C15E
  8
0
 10
967.7097019883844951
 20
148.2021359463234944
 30
0.0
 40
0.9888070062878096
 50
196.1320239160320966
 51
222.256322580133201
  0
ARC
  5
C15F
  8
0
 10
966.7900898964396674
 20
147.936146652109187
 30
0.0
 40
0.0315
 50
90.0
 51
196.1320239160203869
  0
LINE
  5
C160
  8
0
 10
967.0435359369872685
 20
147.4578219061714037
 30
0.0
 11
967.9983364992001498
 21
147.1475882259092032
 31
0.0
  0
LINE
  5
C161
  8
0
 10
967.1489621112873465
 20
147.4070083856339011
 30
0.0
 11
967.8831777030986814
 21
147.1684471466085995
 31
0.0
  0
LINE
  5
C162
  8
0
 10
967.8831777030986814
 20
147.1684471466085995
 30
0.0
 11
967.9030213819642086
 21
147.1785580019808037
 31
0.0
  0
LINE
  5
C163
  8
0
 10
967.1459425726473
 20
147.4129345662317974
 30
0.0
 11
967.1489621112873465
 21
147.4070083856339011
 31
0.0
  0
LINE
  5
C164
  8
0
 10
967.1512623657330323
 20
147.414066641132905
 30
0.0
 11
967.1459425726473
 21
147.4129345662317974
 31
0.0
  0
LINE
  5
C165
  8
0
 10
967.1512623657330323
 20
147.414066641132905
 30
0.0
 11
967.1538347523912762
 21
147.4219836287493024
 31
0.0
  0
ARC
  5
C166
  8
0
 10
901.3404031507820946
 20
-66.6133338730550548
 30
0.0
 40
223.9142974458048059
 50
72.7090425674436176
 51
72.9091807274056407
  0
ARC
  5
C167
  8
0
 10
967.151877412290105
 20
147.408938187122601
 30
0.0
 40
0.005165203074725
 50
77.8574430795642769
 51
96.8387212311157555
  0
ARC
  5
C168
  8
0
 10
963.7329304047608503
 20
135.3296598075687882
 30
0.0
 40
12.5589654341736594
 50
72.8446117111704012
 51
74.1977466011693139
  0
LINE
  5
C169
  8
0
 10
967.7755550858693141
 20
147.1147584720469865
 30
0.0
 11
967.8132750528272936
 21
147.1911599070647014
 31
0.0
  0
LINE
  5
C16A
  8
0
 10
967.2044731917010267
 20
147.3003143303153024
 30
0.0
 11
967.2188647614980255
 21
147.3842956251976091
 31
0.0
  0
LINE
  5
C16B
  8
0
 10
967.7393843903748802
 20
147.0995076011174092
 30
0.0
 11
967.2247716511070621
 21
147.2667155085649995
 31
0.0
  0
ARC
  5
C16C
  8
0
 10
967.7486549048462621
 20
147.1280392950986027
 30
0.0
 40
0.03
 50
251.9999906819712976
 51
333.7240978210189724
  0
ARC
  5
C16D
  8
0
 10
967.2340421655785576
 20
147.295247202546193
 30
0.0
 40
0.03
 50
170.2758835232534125
 51
251.9999906819712976
  0
ARC
  5
C16E
  8
0
 10
974.7949606081939464
 20
147.936146652109187
 30
0.0
 40
0.0315
 50
359.9999999999968168
 51
90.0
  0
ARC
  5
C16F
  8
0
 10
967.584425751310846
 20
147.5019841471043094
 30
0.0
 40
0.3997931685551829
 50
218.8944340215896887
 51
244.9886067572149955
  0
LINE
  5
C170
  8
0
 10
967.3993530212228507
 20
147.1922369944379909
 30
0.0
 11
967.3946939137626941
 21
147.1778977439454081
 31
0.0
  0
LINE
  5
C171
  8
0
 10
967.3942779970924448
 20
147.1766176847559962
 30
0.0
 11
967.3908818427502183
 21
147.1661654021588959
 31
0.0
  0
LINE
  5
C172
  8
0
 10
967.390623662999019
 20
147.1653708070236064
 30
0.0
 11
967.3884355244118751
 21
147.1586364125965076
 31
0.0
  0
LINE
  5
C173
  8
0
 10
967.3882662904045446
 20
147.1581155641626992
 30
0.0
 11
967.387205743377649
 21
147.1548515378210027
 31
0.0
  0
LINE
  5
C174
  8
0
 10
967.3999200947095005
 20
147.1939822662191091
 30
0.0
 11
967.4045706630137147
 21
147.2082952359056094
 31
0.0
  0
LINE
  5
C175
  8
0
 10
967.3759977850693303
 20
147.1642095293697139
 30
0.0
 11
967.3753816854690513
 21
147.1623133708104092
 31
0.0
  0
LINE
  5
C176
  8
0
 10
967.3768948958047531
 20
147.166970550801409
 30
0.0
 11
967.378119514134255
 21
147.1707395364117872
 31
0.0
  0
LINE
  5
C177
  8
0
 10
967.3796557423407876
 20
147.1754675580862965
 30
0.0
 11
967.3815302840564527
 21
147.1812368011084118
 31
0.0
  0
LINE
  5
C178
  8
0
 10
967.3837225035404117
 20
147.1879837552340007
 30
0.0
 11
967.3863511412874914
 21
147.1960738659286108
 31
0.0
  0
LINE
  5
C179
  8
0
 10
967.389279018458069
 20
147.2050849403665893
 30
0.0
 11
967.3916827246341654
 21
147.2124827832462017
 31
0.0
  0
LINE
  5
C17A
  8
0
 10
967.3870173060706747
 20
147.2139986704673902
 30
0.0
 11
967.3850698572524607
 21
147.20800504268189
 31
0.0
  0
LINE
  5
C17B
  8
0
 10
967.3820797458477045
 20
147.1988024312288985
 30
0.0
 11
967.3794591314978106
 21
147.1907370141373121
 31
0.0
  0
LINE
  5
C17C
  8
0
 10
967.377259983745148
 20
147.1839687371220862
 30
0.0
 11
967.3753660157038894
 21
147.1781397061498069
 31
0.0
  0
LINE
  5
C17D
  8
0
 10
967.3738450528501289
 20
147.1734586664553888
 30
0.0
 11
967.3726176791531088
 21
147.1696812007650976
 31
0.0
  0
LINE
  5
C17E
  8
0
 10
967.371728026524238
 20
147.1669431330597888
 30
0.0
 11
967.3711239349920561
 21
147.1650839315458938
 31
0.0
  0
LINE
  5
C17F
  8
0
 10
967.3711082742967164
 20
147.2191678310992131
 30
0.0
 11
967.3563192701560638
 21
147.1736519816398925
 31
0.0
  0
LINE
  5
C180
  8
0
 10
967.370500554088494
 20
147.2193652914739914
 30
0.0
 11
967.3557713066787755
 21
147.1740333541895041
 31
0.0
  0
LINE
  5
C181
  8
0
 10
967.3418363956078565
 20
147.1852782296072064
 30
0.0
 11
967.3424451849009529
 21
147.1871518893539132
 31
0.0
  0
LINE
  5
C182
  8
0
 10
967.343344728668967
 20
147.1899203988648992
 30
0.0
 11
967.3446235763619825
 21
147.1938562851748031
 31
0.0
  0
LINE
  5
C183
  8
0
 10
967.3461705885099491
 20
147.1986174963550127
 30
0.0
 11
967.3481602388188776
 21
147.2047410069610009
 31
0.0
  0
LINE
  5
C184
  8
0
 10
967.3504213712868705
 20
147.211700053275905
 30
0.0
 11
967.353143875711794
 21
147.2200790556794914
 31
0.0
  0
LINE
  5
C185
  8
0
 10
967.3491383255229721
 20
147.2236258084944893
 30
0.0
 11
967.3463915617466
 21
147.2151721434636897
 31
0.0
  0
LINE
  5
C186
  8
0
 10
967.344098653152173
 20
147.2081153002912117
 30
0.0
 11
967.342145285876768
 21
147.2021034572742906
 31
0.0
  0
LINE
  5
C187
  8
0
 10
967.3405686918231368
 20
147.197251202365095
 30
0.0
 11
967.3392937665751106
 21
147.1933273880648869
 31
0.0
  0
LINE
  5
C188
  8
0
 10
967.338386826627243
 20
147.1905361154450134
 30
0.0
 11
967.3377422789735647
 21
147.1885524028278098
 31
0.0
  0
LINE
  5
C189
  8
0
 10
967.3162867259369477
 20
147.232851063482201
 30
0.0
 11
967.3142090626146228
 21
147.2264566768294003
 31
0.0
  0
LINE
  5
C18A
  8
0
 10
967.3125845347474296
 20
147.2214568969324091
 30
0.0
 11
967.3112590961068236
 21
147.2173776185132112
 31
0.0
  0
LINE
  5
C18B
  8
0
 10
967.3103220942214193
 20
147.2144938248370067
 30
0.0
 11
967.3096537671800661
 21
147.2124369268468058
 31
0.0
  0
LINE
  5
C18C
  8
0
 10
967.3340170721933191
 20
147.2312194998885957
 30
0.0
 11
967.3235574722282308
 21
147.1990281790299946
 31
0.0
  0
LINE
  5
C18D
  8
0
 10
967.3334093519629278
 20
147.2314169602705078
 30
0.0
 11
967.323032678067193
 21
147.1994808597110875
 31
0.0
  0
LINE
  5
C18E
  8
0
 10
967.3128349015995582
 20
147.2381020081319889
 30
0.0
 11
967.3105073107495855
 21
147.2309384240535906
 31
0.0
  0
LINE
  5
C18F
  8
0
 10
967.3088782330531785
 20
147.225924641220189
 30
0.0
 11
967.3074101785539369
 21
147.2214064365549859
 31
0.0
  0
LINE
  5
C190
  8
0
 10
967.3064905240703411
 20
147.2185760326565003
 30
0.0
 11
967.3057981980382465
 21
147.2164452734035081
 31
0.0
  0
LINE
  5
C191
  8
0
 10
967.2969258699993134
 20
147.2432711687073947
 30
0.0
 11
967.2923020066003801
 21
147.2290403884290981
 31
0.0
  0
LINE
  5
C192
  8
0
 10
967.2963181498073482
 20
147.2434686290768013
 30
0.0
 11
967.2918037241507818
 21
147.2295746633409976
 31
0.0
  0
LINE
  5
C193
  8
0
 10
967.2790787016583636
 20
147.2445431910165041
 30
0.0
 11
967.2797643037139323
 21
147.2466532560283952
 31
0.0
  0
LINE
  5
C194
  8
0
 10
967.3993530212228507
 20
147.1922369944379909
 30
0.0
 11
967.3863511412874914
 21
147.1960738659286108
 31
0.0
  0
LINE
  5
C195
  8
0
 10
967.3999200947095005
 20
147.1939822662191091
 30
0.0
 11
967.389279018458069
 21
147.2050849403665893
 31
0.0
  0
LINE
  5
C196
  8
0
 10
967.3946939137626941
 20
147.1778977439454081
 30
0.0
 11
967.3837225035404117
 21
147.1879837552340007
 31
0.0
  0
LINE
  5
C197
  8
0
 10
967.3942779970924448
 20
147.1766176847559962
 30
0.0
 11
967.3815302840564527
 21
147.1812368011084118
 31
0.0
  0
LINE
  5
C198
  8
0
 10
967.3908818427502183
 20
147.1661654021588959
 30
0.0
 11
967.3796557423407876
 21
147.1754675580862965
 31
0.0
  0
LINE
  5
C199
  8
0
 10
967.390623662999019
 20
147.1653708070236064
 30
0.0
 11
967.378119514134255
 21
147.1707395364117872
 31
0.0
  0
LINE
  5
C19A
  8
0
 10
967.3884355244118751
 20
147.1586364125965076
 30
0.0
 11
967.3768948958047531
 21
147.166970550801409
 31
0.0
  0
LINE
  5
C19B
  8
0
 10
967.3882662904045446
 20
147.1581155641626992
 30
0.0
 11
967.3759977850693303
 21
147.1642095293697139
 31
0.0
  0
LINE
  5
C19C
  8
0
 10
967.387205743377649
 20
147.1548515378210027
 30
0.0
 11
967.3753816854690513
 21
147.1623133708104092
 31
0.0
  0
LINE
  5
C19D
  8
0
 10
967.3711239349920561
 20
147.1650839315458938
 30
0.0
 11
967.3563569572050937
 21
147.1737679703867059
 31
0.0
  0
LINE
  5
C19E
  8
0
 10
967.3576245352103342
 20
147.177669172192509
 30
0.0
 11
967.371728026524238
 21
147.1669431330597888
 31
0.0
  0
LINE
  5
C19F
  8
0
 10
967.3576245352103342
 20
147.177669172192509
 30
0.0
 11
967.3726176791531088
 21
147.1696812007650976
 31
0.0
  0
LINE
  5
C1A0
  8
0
 10
967.3600966227843401
 20
147.1852774712228893
 30
0.0
 11
967.3738450528501289
 21
147.1734586664553888
 31
0.0
  0
LINE
  5
C1A1
  8
0
 10
967.3600966227843401
 20
147.1852774712228893
 30
0.0
 11
967.3753660157038894
 21
147.1781397061498069
 31
0.0
  0
LINE
  5
C1A2
  8
0
 10
967.3639162410622703
 20
147.1970330410285044
 30
0.0
 11
967.377259983745148
 21
147.1839687371220862
 31
0.0
  0
LINE
  5
C1A3
  8
0
 10
967.3639162410622703
 20
147.1970330410285044
 30
0.0
 11
967.3794591314978106
 21
147.1907370141373121
 31
0.0
  0
LINE
  5
C1A4
  8
0
 10
967.3692425038781266
 20
147.2134255833666998
 30
0.0
 11
967.3820797458477045
 21
147.1988024312288985
 31
0.0
  0
LINE
  5
C1A5
  8
0
 10
967.3692425038781266
 20
147.2134255833666998
 30
0.0
 11
967.3850698572524607
 21
147.20800504268189
 31
0.0
  0
LINE
  5
C1A6
  8
0
 10
967.3686974982900892
 20
147.2138160593850955
 30
0.0
 11
967.353143875711794
 21
147.2200790556794914
 31
0.0
  0
LINE
  5
C1A7
  8
0
 10
967.3686974982900892
 20
147.2138160593850955
 30
0.0
 11
967.3619496930880359
 21
147.2221436361701876
 31
0.0
  0
LINE
  5
C1A8
  8
0
 10
967.3633921906985051
 20
147.1974880105491934
 30
0.0
 11
967.3504213712868705
 21
147.211700053275905
 31
0.0
  0
LINE
  5
C1A9
  8
0
 10
967.3633921906985051
 20
147.1974880105491934
 30
0.0
 11
967.3481602388188776
 21
147.2047410069610009
 31
0.0
  0
LINE
  5
C1AA
  8
0
 10
967.3595981811661204
 20
147.1858112563072041
 30
0.0
 11
967.3461705885099491
 21
147.1986174963550127
 31
0.0
  0
LINE
  5
C1AB
  8
0
 10
967.3595981811661204
 20
147.1858112563072041
 30
0.0
 11
967.3446235763619825
 21
147.1938562851748031
 31
0.0
  0
LINE
  5
C1AC
  8
0
 10
967.3571239017827565
 20
147.1781962115790918
 30
0.0
 11
967.343344728668967
 21
147.1899203988648992
 31
0.0
  0
LINE
  5
C1AD
  8
0
 10
967.3571239017827565
 20
147.1781962115790918
 30
0.0
 11
967.3424451849009529
 21
147.1871518893539132
 31
0.0
  0
LINE
  5
C1AE
  8
0
 10
967.3559038569396762
 20
147.1744413017202078
 30
0.0
 11
967.3418363956078565
 21
147.1852782296072064
 31
0.0
  0
LINE
  5
C1AF
  8
0
 10
967.3377422789735647
 20
147.1885524028278098
 30
0.0
 11
967.323606721280953
 21
147.1991797519457066
 31
0.0
  0
LINE
  5
C1B0
  8
0
 10
967.3383672178879351
 20
147.1904757659835923
 30
0.0
 11
967.3248710980012675
 21
147.2030711012153859
 31
0.0
  0
LINE
  5
C1B1
  8
0
 10
967.3392937665751106
 20
147.1933273880648869
 30
0.0
 11
967.3248710980012675
 21
147.2030711012153859
 31
0.0
  0
LINE
  5
C1B2
  8
0
 10
967.3405686918231368
 20
147.197251202365095
 30
0.0
 11
967.3274357031205
 21
147.2109641398157009
 31
0.0
  0
LINE
  5
C1B3
  8
0
 10
967.342145285876768
 20
147.2021034572742906
 30
0.0
 11
967.3274357031205
 21
147.2109641398157009
 31
0.0
  0
LINE
  5
C1B4
  8
0
 10
967.344098653152173
 20
147.2081153002912117
 30
0.0
 11
967.3314002067196498
 21
147.2231656205449042
 31
0.0
  0
LINE
  5
C1B5
  8
0
 10
967.3463915617466
 20
147.2151721434636897
 30
0.0
 11
967.3314002067196498
 21
147.2231656205449042
 31
0.0
  0
LINE
  5
C1B6
  8
0
 10
967.3491383255229721
 20
147.2236258084944893
 30
0.0
 11
967.3464087590581357
 21
147.2271931945286951
 31
0.0
  0
LINE
  5
C1B7
  8
0
 10
967.3309389282009079
 20
147.2238137819797998
 30
0.0
 11
967.3162867259369477
 21
147.232851063482201
 31
0.0
  0
LINE
  5
C1B8
  8
0
 10
967.3309389282009079
 20
147.2238137819797998
 30
0.0
 11
967.3224717554785457
 21
147.2349708027643089
 31
0.0
  0
LINE
  5
C1B9
  8
0
 10
967.3269725421010889
 20
147.2116065076062057
 30
0.0
 11
967.3142090626146228
 21
147.2264566768294003
 31
0.0
  0
LINE
  5
C1BA
  8
0
 10
967.3269725421010889
 20
147.2116065076062057
 30
0.0
 11
967.3125845347474296
 21
147.2214568969324091
 31
0.0
  0
LINE
  5
C1BB
  8
0
 10
967.3243993658913951
 20
147.2036870899760004
 30
0.0
 11
967.3112590961068236
 21
147.2173776185132112
 31
0.0
  0
LINE
  5
C1BC
  8
0
 10
967.3243993658913951
 20
147.2036870899760004
 30
0.0
 11
967.3103220942214193
 21
147.2144938248370067
 31
0.0
  0
LINE
  5
C1BD
  8
0
 10
967.3231367030464298
 20
147.1998010154979966
 30
0.0
 11
967.3096537671800661
 21
147.2124369268468058
 31
0.0
  0
LINE
  5
C1BE
  8
0
 10
967.2938808524062324
 20
147.2273603328711999
 30
0.0
 11
967.3057981980382465
 21
147.2164452734035081
 31
0.0
  0
LINE
  5
C1BF
  8
0
 10
967.2936134692698715
 20
147.2330766532325015
 30
0.0
 11
967.3064905240703411
 21
147.2185760326565003
 31
0.0
  0
LINE
  5
C1C0
  8
0
 10
967.2936134692698715
 20
147.2330766532325015
 30
0.0
 11
967.3074101785539369
 21
147.2214064365549859
 31
0.0
  0
LINE
  5
C1C1
  8
0
 10
967.2964068701811584
 20
147.2416738524071889
 30
0.0
 11
967.3088782330531785
 21
147.225924641220189
 31
0.0
  0
LINE
  5
C1C2
  8
0
 10
967.2964068701811584
 20
147.2416738524071889
 30
0.0
 11
967.3105073107495855
 21
147.2309384240535906
 31
0.0
  0
LINE
  5
C1C3
  8
0
 10
967.2932632515735349
 20
147.2444612262322892
 30
0.0
 11
967.2959110816868815
 21
147.2422158029262107
 31
0.0
  0
LINE
  5
C1C4
  8
0
 10
967.2946246230690122
 20
147.2440188895747042
 30
0.0
 11
967.2959110816868815
 21
147.2422158029262107
 31
0.0
  0
LINE
  5
C1C5
  8
0
 10
967.2819419736498503
 20
147.248139734451712
 30
0.0
 11
967.2931925751493054
 21
147.2338491047989066
 31
0.0
  0
LINE
  5
C1C6
  8
0
 10
967.2797643037139323
 20
147.2466532560283952
 30
0.0
 11
967.2931925751493054
 21
147.2338491047989066
 31
0.0
  0
LINE
  5
C1C7
  8
0
 10
967.2918474051324438
 20
147.2297090995041913
 30
0.0
 11
967.2790787016583636
 21
147.2445431910165041
 31
0.0
  0
LINE
  5
C1C8
  8
0
 10
967.2742379272702919
 20
147.2506429322463077
 30
0.0
 11
967.2754557705999332
 21
147.249267523709193
 31
0.0
  0
LINE
  5
C1C9
  8
0
 10
967.2754557705999332
 20
147.249267523709193
 30
0.0
 11
967.275743699412601
 21
147.2501536769485142
 31
0.0
  0
LINE
  5
C1CA
  8
0
 10
967.415393810400019
 20
147.1396820900091882
 30
0.0
 11
967.4345251974451685
 21
147.1985624122914942
 31
0.0
  0
ARC
  5
C1CB
  8
0
 10
967.5867056778853339
 20
147.5012433536444973
 30
0.0
 40
0.3997931685551829
 50
259.0113746151292844
 51
285.1055473507539091
  0
LINE
  5
C1CC
  8
0
 10
967.5543677366074462
 20
147.141869632344509
 30
0.0
 11
967.5497086290912421
 21
147.1275303818702014
 31
0.0
  0
LINE
  5
C1CD
  8
0
 10
967.5492927124156495
 20
147.1262503226824947
 30
0.0
 11
967.5458965580324957
 21
147.1157980400986958
 31
0.0
  0
LINE
  5
C1CE
  8
0
 10
967.5456383782784542
 20
147.1150034449642874
 30
0.0
 11
967.5434502396647076
 21
147.1082690505459141
 31
0.0
  0
LINE
  5
C1CF
  8
0
 10
967.5432810056554445
 20
147.1077482021127025
 30
0.0
 11
967.5422204586154749
 21
147.1044841757752124
 31
0.0
  0
LINE
  5
C1D0
  8
0
 10
967.5549348101012583
 20
147.1436149041234103
 30
0.0
 11
967.5595853784614064
 21
147.1579278737916923
 31
0.0
  0
LINE
  5
C1D1
  8
0
 10
967.5567883771020661
 20
147.1054670726331892
 30
0.0
 11
967.5561722774951932
 21
147.1035709140761014
 31
0.0
  0
LINE
  5
C1D2
  8
0
 10
967.557685487847607
 20
147.1082280940615874
 30
0.0
 11
967.5589101061907513
 21
147.1119970796675887
 31
0.0
  0
LINE
  5
C1D3
  8
0
 10
967.5604463344144506
 20
147.1167251013364989
 30
0.0
 11
967.562320876150693
 21
147.122494344351793
 31
0.0
  0
LINE
  5
C1D4
  8
0
 10
967.5645130956594357
 20
147.1292412984695943
 30
0.0
 11
967.5671417334356192
 21
147.1373314091547115
 31
0.0
  0
LINE
  5
C1D5
  8
0
 10
967.5700696106387113
 20
147.1463424835820888
 30
0.0
 11
967.5724733168415241
 21
147.1537403264530042
 31
0.0
  0
LINE
  5
C1D6
  8
0
 10
967.5771387354052422
 20
147.1522244392324126
 30
0.0
 11
967.5751912866260227
 21
147.1462308114342079
 31
0.0
  0
LINE
  5
C1D7
  8
0
 10
967.5722011752809522
 20
147.1370281999616907
 30
0.0
 11
967.5695805609836952
 21
147.1289627828529945
 31
0.0
  0
LINE
  5
C1D8
  8
0
 10
967.5673814132752568
 20
147.1221945058235008
 30
0.0
 11
967.5654874452717422
 21
147.1163654748388865
 31
0.0
  0
LINE
  5
C1D9
  8
0
 10
967.5639664824484498
 20
147.1116844351346913
 30
0.0
 11
967.5627391087758724
 21
147.1079069694361863
 31
0.0
  0
LINE
  5
C1DA
  8
0
 10
967.5618494561648504
 20
147.1051689017253068
 30
0.0
 11
967.5612453646449467
 21
147.1033097002074044
 31
0.0
  0
LINE
  5
C1DB
  8
0
 10
967.5930477671797689
 20
147.1470552786028918
 30
0.0
 11
967.578258763003987
 21
147.1015394291549967
 31
0.0
  0
LINE
  5
C1DC
  8
0
 10
967.5936554873882187
 20
147.1468578182283125
 30
0.0
 11
967.5789262399251811
 21
147.1015258809611055
 31
0.0
  0
LINE
  5
C1DD
  8
0
 10
967.5968093920258752
 20
147.1024324352401038
 30
0.0
 11
967.5974181813177211
 21
147.1043060949872086
 31
0.0
  0
LINE
  5
C1DE
  8
0
 10
967.5983177250838025
 20
147.1070746044987914
 30
0.0
 11
967.5995965727740895
 21
147.1110104908096901
 31
0.0
  0
LINE
  5
C1DF
  8
0
 10
967.6011435849186455
 20
147.1157717019908944
 30
0.0
 11
967.6031332352232539
 21
147.1218952125983037
 31
0.0
  0
LINE
  5
C1E0
  8
0
 10
967.6053943676863582
 20
147.1288542589147141
 30
0.0
 11
967.60811687210537
 21
147.13723326132029
 31
0.0
  0
LINE
  5
C1E1
  8
0
 10
967.6134421594454125
 20
147.1377482395629102
 30
0.0
 11
967.6106953956390271
 21
147.1292945745418876
 31
0.0
  0
LINE
  5
C1E2
  8
0
 10
967.6084024870193616
 20
147.1222377313775951
 30
0.0
 11
967.6064491197224697
 21
147.1162258883676088
 31
0.0
  0
LINE
  5
C1E3
  8
0
 10
967.6048725256516718
 20
147.1113736334640976
 30
0.0
 11
967.6035976003897758
 21
147.1074498191682949
 31
0.0
  0
LINE
  5
C1E4
  8
0
 10
967.6026710516922549
 20
147.1045981970902972
 30
0.0
 11
967.6020461127712906
 21
147.1026748339367884
 31
0.0
  0
LINE
  5
C1E5
  8
0
 10
967.6454421267819725
 20
147.1259019314709064
 30
0.0
 11
967.643364463467492
 21
147.1195075448156047
 31
0.0
  0
LINE
  5
C1E6
  8
0
 10
967.6417399356060969
 20
147.1145077649165955
 30
0.0
 11
967.640414496970493
 21
147.1104284864958061
 31
0.0
  0
LINE
  5
C1E7
  8
0
 10
967.6394774950884994
 20
147.1075446928184931
 30
0.0
 11
967.6388091680496473
 21
147.1054877948274111
 31
0.0
  0
LINE
  5
C1E8
  8
0
 10
967.6301389692849853
 20
147.1350036098189946
 30
0.0
 11
967.6196793692929532
 21
147.1028122889692042
 31
0.0
  0
LINE
  5
C1E9
  8
0
 10
967.6307466895153766
 20
147.1348061494371962
 30
0.0
 11
967.6203700157348067
 21
147.1028700488404013
 31
0.0
  0
LINE
  5
C1EA
  8
0
 10
967.6513211398796557
 20
147.1281211015788131
 30
0.0
 11
967.6489935490294556
 21
147.1209575175003863
 31
0.0
  0
LINE
  5
C1EB
  8
0
 10
967.647364471333276
 20
147.1159437346670131
 30
0.0
 11
967.6458964168340344
 21
147.1114255300018101
 31
0.0
  0
LINE
  5
C1EC
  8
0
 10
967.6449767623504385
 20
147.108595126103296
 30
0.0
 11
967.6442844363181166
 21
147.1064643668503038
 31
0.0
  0
LINE
  5
C1ED
  8
0
 10
967.6672301714806963
 20
147.1229519410057094
 30
0.0
 11
967.6626063081473603
 21
147.1087211607060965
 31
0.0
  0
LINE
  5
C1EE
  8
0
 10
967.6678378916728889
 20
147.1227544806363028
 30
0.0
 11
967.6633234660763492
 21
147.1088605148810018
 31
0.0
  0
LINE
  5
C1EF
  8
0
 10
967.6824165068478578
 20
147.1134907213877909
 30
0.0
 11
967.6831021089151363
 21
147.1156007863959019
 31
0.0
  0
LINE
  5
C1F0
  8
0
 10
967.5543677366074462
 20
147.141869632344509
 30
0.0
 11
967.5671417334356192
 21
147.1373314091547115
 31
0.0
  0
LINE
  5
C1F1
  8
0
 10
967.5549348101012583
 20
147.1436149041234103
 30
0.0
 11
967.5700696106387113
 21
147.1463424835820888
 31
0.0
  0
LINE
  5
C1F2
  8
0
 10
967.5497086290912421
 20
147.1275303818702014
 30
0.0
 11
967.5645130956594357
 21
147.1292412984695943
 31
0.0
  0
LINE
  5
C1F3
  8
0
 10
967.5492927124156495
 20
147.1262503226824947
 30
0.0
 11
967.562320876150693
 21
147.122494344351793
 31
0.0
  0
LINE
  5
C1F4
  8
0
 10
967.5458965580324957
 20
147.1157980400986958
 30
0.0
 11
967.5604463344144506
 21
147.1167251013364989
 31
0.0
  0
LINE
  5
C1F5
  8
0
 10
967.5456383782784542
 20
147.1150034449642874
 30
0.0
 11
967.5589101061907513
 21
147.1119970796675887
 31
0.0
  0
LINE
  5
C1F6
  8
0
 10
967.5434502396647076
 20
147.1082690505459141
 30
0.0
 11
967.557685487847607
 21
147.1082280940615874
 31
0.0
  0
LINE
  5
C1F7
  8
0
 10
967.5432810056554445
 20
147.1077482021127025
 30
0.0
 11
967.5567883771020661
 21
147.1054670726331892
 31
0.0
  0
LINE
  5
C1F8
  8
0
 10
967.5422204586154749
 20
147.1044841757752124
 30
0.0
 11
967.5561722774951932
 21
147.1035709140761014
 31
0.0
  0
LINE
  5
C1F9
  8
0
 10
967.5612453646449467
 20
147.1033097002074044
 30
0.0
 11
967.5782964500532444
 21
147.1016554179018101
 31
0.0
  0
LINE
  5
C1FA
  8
0
 10
967.5795640280615544
 20
147.10555661970659
 30
0.0
 11
967.5618494561648504
 21
147.1051689017253068
 31
0.0
  0
LINE
  5
C1FB
  8
0
 10
967.5795640280615544
 20
147.10555661970659
 30
0.0
 11
967.5627391087758724
 21
147.1079069694361863
 31
0.0
  0
LINE
  5
C1FC
  8
0
 10
967.5820361156412446
 20
147.1131649187350945
 30
0.0
 11
967.5639664824484498
 21
147.1116844351346913
 31
0.0
  0
LINE
  5
C1FD
  8
0
 10
967.5820361156412446
 20
147.1131649187350945
 30
0.0
 11
967.5654874452717422
 21
147.1163654748388865
 31
0.0
  0
LINE
  5
C1FE
  8
0
 10
967.585855733928156
 20
147.1249204885378106
 30
0.0
 11
967.5673814132752568
 21
147.1221945058235008
 31
0.0
  0
LINE
  5
C1FF
  8
0
 10
967.585855733928156
 20
147.1249204885378106
 30
0.0
 11
967.5695805609836952
 21
147.1289627828529945
 31
0.0
  0
LINE
  5
C200
  8
0
 10
967.5911819967569727
 20
147.1413130308717996
 30
0.0
 11
967.5722011752809522
 21
147.1370281999616907
 31
0.0
  0
LINE
  5
C201
  8
0
 10
967.5911819967569727
 20
147.1413130308717996
 30
0.0
 11
967.5751912866260227
 21
147.1462308114342079
 31
0.0
  0
LINE
  5
C202
  8
0
 10
967.5918524315832201
 20
147.141308586141605
 30
0.0
 11
967.60811687210537
 21
147.13723326132029
 31
0.0
  0
LINE
  5
C203
  8
0
 10
967.5918524315832201
 20
147.141308586141605
 30
0.0
 11
967.6022063483889042
 21
147.14407947353331
 31
0.0
  0
LINE
  5
C204
  8
0
 10
967.5865471239724229
 20
147.1249805373118988
 30
0.0
 11
967.6053943676863582
 21
147.1288542589147141
 31
0.0
  0
LINE
  5
C205
  8
0
 10
967.5865471239724229
 20
147.1249805373118988
 30
0.0
 11
967.6031332352232539
 21
147.1218952125983037
 31
0.0
  0
LINE
  5
C206
  8
0
 10
967.5827531144263958
 20
147.1133037830742865
 30
0.0
 11
967.6011435849186455
 21
147.1157717019908944
 31
0.0
  0
LINE
  5
C207
  8
0
 10
967.5827531144263958
 20
147.1133037830742865
 30
0.0
 11
967.5995965727740895
 21
147.1110104908096901
 31
0.0
  0
LINE
  5
C208
  8
0
 10
967.5802788350340506
 20
147.1056887383491016
 30
0.0
 11
967.5983177250838025
 21
147.1070746044987914
 31
0.0
  0
LINE
  5
C209
  8
0
 10
967.5802788350340506
 20
147.1056887383491016
 30
0.0
 11
967.5974181813177211
 21
147.1043060949872086
 31
0.0
  0
LINE
  5
C20A
  8
0
 10
967.5790587901865365
 20
147.1019338284916103
 30
0.0
 11
967.5968093920258752
 21
147.1024324352401038
 31
0.0
  0
LINE
  5
C20B
  8
0
 10
967.6020461127712906
 20
147.1026748339367884
 30
0.0
 11
967.6197286183461301
 21
147.1029638618848026
 31
0.0
  0
LINE
  5
C20C
  8
0
 10
967.6026710516922549
 20
147.1045981970902972
 30
0.0
 11
967.6209929950694004
 21
147.1068552111534871
 31
0.0
  0
LINE
  5
C20D
  8
0
 10
967.6035976003897758
 20
147.1074498191682949
 30
0.0
 11
967.6209929950694004
 21
147.1068552111534871
 31
0.0
  0
LINE
  5
C20E
  8
0
 10
967.6048725256516718
 20
147.1113736334640976
 30
0.0
 11
967.6235576001952268
 21
147.1147482497516137
 31
0.0
  0
LINE
  5
C20F
  8
0
 10
967.6064491197224697
 20
147.1162258883676088
 30
0.0
 11
967.6235576001952268
 21
147.1147482497516137
 31
0.0
  0
LINE
  5
C210
  8
0
 10
967.6084024870193616
 20
147.1222377313775951
 30
0.0
 11
967.6275221038048358
 21
147.1269497304774916
 31
0.0
  0
LINE
  5
C211
  8
0
 10
967.6106953956390271
 20
147.1292945745418876
 30
0.0
 11
967.6275221038048358
 21
147.1269497304774916
 31
0.0
  0
LINE
  5
C212
  8
0
 10
967.6134421594454125
 20
147.1377482395629102
 30
0.0
 11
967.6177472824196002
 21
147.1390299151771046
 31
0.0
  0
LINE
  5
C213
  8
0
 10
967.6282762657805279
 20
147.1272029711375922
 30
0.0
 11
967.6454421267819725
 21
147.1259019314709064
 31
0.0
  0
LINE
  5
C214
  8
0
 10
967.6282762657805279
 20
147.1272029711375922
 30
0.0
 11
967.6416842860005545
 21
147.1312523069449867
 31
0.0
  0
LINE
  5
C215
  8
0
 10
967.6243098797251605
 20
147.1149956967497019
 30
0.0
 11
967.643364463467492
 21
147.1195075448156047
 31
0.0
  0
LINE
  5
C216
  8
0
 10
967.6243098797251605
 20
147.1149956967497019
 30
0.0
 11
967.6417399356060969
 21
147.1145077649165955
 31
0.0
  0
LINE
  5
C217
  8
0
 10
967.6217367035438883
 20
147.1070762791102027
 30
0.0
 11
967.640414496970493
 21
147.1104284864958061
 31
0.0
  0
LINE
  5
C218
  8
0
 10
967.6217367035438883
 20
147.1070762791102027
 30
0.0
 11
967.6394774950884994
 21
147.1075446928184931
 31
0.0
  0
LINE
  5
C219
  8
0
 10
967.6204740407129066
 20
147.1031902046277082
 30
0.0
 11
967.6388091680496473
 21
147.1054877948274111
 31
0.0
  0
LINE
  5
C21A
  8
0
 10
967.6603414830387919
 20
147.1082899902249892
 30
0.0
 11
967.6442844363181166
 21
147.1064643668503038
 31
0.0
  0
LINE
  5
C21B
  8
0
 10
967.6639177707983208
 20
147.1127574255154968
 30
0.0
 11
967.6449767623504385
 21
147.108595126103296
 31
0.0
  0
LINE
  5
C21C
  8
0
 10
967.6639177707983208
 20
147.1127574255154968
 30
0.0
 11
967.6458964168340344
 21
147.1114255300018101
 31
0.0
  0
LINE
  5
C21D
  8
0
 10
967.6667111716700447
 20
147.1213546247030877
 30
0.0
 11
967.647364471333276
 21
147.1159437346670131
 31
0.0
  0
LINE
  5
C21E
  8
0
 10
967.6667111716700447
 20
147.1213546247030877
 30
0.0
 11
967.6489935490294556
 21
147.1209575175003863
 31
0.0
  0
LINE
  5
C21F
  8
0
 10
967.6708927899069295
 20
147.1217618834812981
 30
0.0
 11
967.6674308235578792
 21
147.1215016544840068
 31
0.0
  0
LINE
  5
C220
  8
0
 10
967.6695314184113386
 20
147.1222042201387126
 30
0.0
 11
967.6674308235578792
 21
147.1215016544840068
 31
0.0
  0
LINE
  5
C221
  8
0
 10
967.6822140678310689
 20
147.1180833752634953
 30
0.0
 11
967.6647123170564555
 21
147.113134956344993
 31
0.0
  0
LINE
  5
C222
  8
0
 10
967.6831021089151363
 20
147.1156007863959019
 30
0.0
 11
967.6647123170564555
 21
147.113134956344993
 31
0.0
  0
LINE
  5
C223
  8
0
 10
967.6633671470575564
 20
147.1089949510443944
 30
0.0
 11
967.6824165068478578
 21
147.1134907213877909
 31
0.0
  0
LINE
  5
C224
  8
0
 10
967.6899181142108546
 20
147.1155801774700933
 30
0.0
 11
967.6881244132777056
 21
147.1151832795212897
 31
0.0
  0
LINE
  5
C225
  8
0
 10
967.6881244132777056
 20
147.1151832795212897
 30
0.0
 11
967.6884123420684318
 21
147.1160694327676879
 31
0.0
  0
LINE
  5
C226
  8
0
 10
967.5104994570433519
 20
147.1087803750995988
 30
0.0
 11
967.529630844028361
 21
147.1676606974014021
 31
0.0
  0
LINE
  5
C227
  8
0
 10
967.4817741606997288
 20
147.1832102850081867
 30
0.0
 11
967.4809635645998469
 21
147.1807155283092072
 31
0.0
  0
LINE
  5
C228
  8
0
 10
967.4809635645998469
 20
147.1807155283092072
 30
0.0
 11
967.4791811590400812
 21
147.1808106080216021
 31
0.0
  0
LINE
  5
C229
  8
0
 10
967.4791811590400812
 20
147.1808106080216021
 30
0.0
 11
967.446007454888445
 21
147.1924862707552961
 31
0.0
  0
LINE
  5
C22A
  8
0
 10
967.446007454888445
 20
147.1924862707552961
 30
0.0
 11
967.4448166339999489
 21
147.1936055346091905
 31
0.0
  0
LINE
  5
C22B
  8
0
 10
967.4448166339999489
 20
147.1936055346091905
 30
0.0
 11
967.4452906786846142
 21
147.195064493461814
 31
0.0
  0
LINE
  5
C22C
  8
0
 10
967.4448166339999489
 20
147.1936055346091905
 30
0.0
 11
967.4509417161012834
 21
147.1932283590847987
 31
0.0
  0
LINE
  5
C22D
  8
0
 10
967.4791812148998815
 20
147.1808106051092011
 30
0.0
 11
967.4723751957203604
 21
147.186264195544112
 31
0.0
  0
LINE
  5
C22E
  8
0
 10
967.4446829584902616
 20
147.1952619538319027
 30
0.0
 11
967.444231398437978
 21
147.1938721956420011
 31
0.0
  0
LINE
  5
C22F
  8
0
 10
967.444231398437978
 20
147.1938721956420011
 30
0.0
 11
967.4420126075000326
 21
147.1940419283592121
 31
0.0
  0
LINE
  5
C230
  8
0
 10
967.4420126075000326
 20
147.1940419283592121
 30
0.0
 11
967.4340459060906596
 21
147.197087305999105
 31
0.0
  0
LINE
  5
C231
  8
0
 10
967.444231398437978
 20
147.1938721956420011
 30
0.0
 11
967.4417956544781418
 21
147.1962000962936088
 31
0.0
  0
LINE
  5
C232
  8
0
 10
967.4823818807717544
 20
147.1830128246778031
 30
0.0
 11
967.4815712847849909
 21
147.1805180679421028
 31
0.0
  0
LINE
  5
C233
  8
0
 10
967.4815712847849909
 20
147.1805180679421028
 30
0.0
 11
967.4830691673111005
 21
147.1795473168565138
 31
0.0
  0
LINE
  5
C234
  8
0
 10
967.4830691673111005
 20
147.1795473168565138
 30
0.0
 11
967.5167700368333499
 21
147.1694941014077074
 31
0.0
  0
LINE
  5
C235
  8
0
 10
967.5167700368333499
 20
147.1694941014077074
 30
0.0
 11
967.5183913180228501
 21
147.1696996574034131
 31
0.0
  0
LINE
  5
C236
  8
0
 10
967.5183913180228501
 20
147.1696996574034131
 30
0.0
 11
967.5188653627885742
 21
147.1711586162294907
 31
0.0
  0
LINE
  5
C237
  8
0
 10
967.5183913180228501
 20
147.1696996574034131
 30
0.0
 11
967.5132143253714503
 21
147.1729947506055964
 31
0.0
  0
LINE
  5
C238
  8
0
 10
967.4830691204076629
 20
147.1795473473339939
 30
0.0
 11
967.4917808457513502
 21
147.1799589141432989
 31
0.0
  0
LINE
  5
C239
  8
0
 10
967.5194730829828131
 20
147.1709611558594872
 30
0.0
 11
967.5190215229190471
 21
147.1695713976731952
 31
0.0
  0
LINE
  5
C23A
  8
0
 10
967.5190215229190471
 20
147.1695713976731952
 30
0.0
 11
967.5209163285035174
 21
147.1684045411186901
 31
0.0
  0
LINE
  5
C23B
  8
0
 10
967.5209163285035174
 20
147.1684045411186901
 30
0.0
 11
967.5291515526754438
 21
147.1661855911083876
 31
0.0
  0
LINE
  5
C23C
  8
0
 10
967.5190215229190471
 20
147.1695713976731952
 30
0.0
 11
967.5223603869951603
 21
147.1700230133982075
 31
0.0
  0
LINE
  5
C23D
  8
0
 10
973.7311043410619504
 20
138.8416624001091861
 30
0.0
 11
973.7311043986637742
 21
146.2766475719166976
 31
0.0
  0
LINE
  5
C23E
  8
0
 10
972.1226790281439207
 20
147.7654383140092023
 30
0.0
 11
966.8225523540978656
 21
147.7654383140092023
 31
0.0
  0
ARC
  5
C23F
  8
0
 10
972.0730311870904643
 20
139.1802339350768136
 30
0.0
 40
8.5853479333200031
 50
86.1155957494024165
 51
89.6686648425550601
  0
ARC
  5
C240
  8
0
 10
972.5014991282620258
 20
145.8275526153032899
 30
0.0
 40
1.924409187641646
 50
70.7408340579932826
 51
85.4358444701306468
  0
ARC
  5
C241
  8
0
 10
972.8871176158452272
 20
146.9312270972621945
 30
0.0
 40
0.7553074041799706
 50
24.5146042430801998
 51
70.7408340579932826
  0
ARC
  5
C242
  8
0
 10
972.1505658178257363
 20
146.5953343454364131
 30
0.0
 40
1.5648334951092271
 50
0.803368860402235
 51
24.5146042430801998
  0
ARC
  5
C243
  8
0
 10
978.9612780203344755
 20
146.6908365402387062
 30
0.0
 40
5.2465482571210389
 50
180.803368860401406
 51
184.5279292564547973
  0
LINE
  5
C244
  8
0
 10
974.8065694066940523
 20
147.9755206679093078
 30
0.0
 11
972.87784787279395
 21
147.9755206679093078
 31
0.0
  0
LINE
  5
C245
  8
0
 10
972.9171062649938904
 20
147.9676466521092095
 30
0.0
 11
972.9171062649938904
 21
147.9755206679093078
 31
0.0
  0
LINE
  5
C246
  8
0
 10
974.7673110144439761
 20
147.9676466521092095
 30
0.0
 11
974.7673110144439761
 21
147.9755206679093078
 31
0.0
  0
LINE
  5
C247
  8
0
 10
974.8055281530984075
 20
148.0351740482003038
 30
0.0
 11
974.8065694066940523
 21
147.9755206679093078
 31
0.0
  0
LINE
  5
C248
  8
0
 10
972.8788607424763768
 20
148.0335479337014135
 30
0.0
 11
972.87784787279395
 21
147.9755206679093078
 31
0.0
  0
ARC
  5
C249
  8
0
 10
971.339495718748708
 20
149.6200434709818978
 30
0.0
 40
2.1937434367793749
 50
315.1965440085767796
 51
329.2905824723661112
  0
ARC
  5
C24A
  8
0
 10
972.9379517412603491
 20
148.032516496490814
 30
0.0
 40
0.0591
 50
135.1965440085922978
 51
179.000000009533295
  0
ARC
  5
C24B
  8
0
 10
975.0025790048280214
 20
148.2864592877976975
 30
0.0
 40
0.3004446466987962
 50
202.2325014122623088
 51
224.5689674494699091
  0
ARC
  5
C24C
  8
0
 10
975.2965733232234697
 20
148.4066307358947086
 30
0.0
 40
0.6180510638042359
 50
185.756542227909307
 51
202.2325014122623088
  0
ARC
  5
C24D
  8
0
 10
979.8918237889613465
 20
148.8698781544545966
 30
0.0
 40
5.2365925017116304
 50
184.0532922220754131
 51
185.756542227909307
  0
ARC
  5
C24E
  8
0
 10
974.7464371543143216
 20
148.0341426110101963
 30
0.0
 40
0.0591
 50
0.9999999705647667
 51
44.5689674496104473
  0
ARC
  5
C24F
  8
0
 10
976.1740540217012949
 20
148.6501093175625954
 30
0.0
 40
3.2974738992659258
 50
180.5093254173528976
 51
182.6137893780349089
  0
ARC
  5
C250
  8
0
 10
965.3816842566573087
 20
148.1291618289224914
 30
0.0
 40
7.5111332207032122
 50
3.752933004249503
 51
5.272909497360148
  0
ARC
  5
C251
  8
0
 10
972.3515973464889157
 20
148.7284768051183903
 30
0.0
 40
0.5174911448325193
 50
10.1231439176966607
 51
35.1459789596117176
  0
ARC
  5
C252
  8
0
 10
972.4144671342030506
 20
148.7460426882275044
 30
0.0
 40
0.4564934525772464
 50
37.8867569951236192
 51
69.900568058172567
  0
ARC
  5
C253
  8
0
 10
972.1357675002603855
 20
147.9618925303259118
 30
0.0
 40
1.2886855545093869
 50
70.2450213064892921
 51
87.6319279797406239
  0
ARC
  5
C254
  8
0
 10
969.742612247672696
 20
86.8480827401957072
 30
0.0
 40
62.4493311393433217
 50
87.7549094568147154
 51
89.8163499492061987
  0
ARC
  5
C255
  8
0
 10
969.9115520370559125
 20
154.8395394343367002
 30
0.0
 40
5.5425343318486231
 50
265.6175978791612238
 51
270.3228262802138033
  0
ARC
  5
C256
  8
0
 10
969.5263301400660794
 20
150.1066968302988016
 30
0.0
 40
0.7944105737875516
 50
252.7716973874370012
 51
267.2366939671002797
  0
LINE
  5
C257
  8
0
 10
969.2633111865355886
 20
149.3855619398983094
 30
0.0
 11
969.2633111865355886
 21
149.4508071817056134
 31
0.0
  0
ARC
  5
C258
  8
0
 10
969.3027111865355891
 20
149.3855619398983094
 30
0.0
 40
0.0394
 50
180.0000000000073044
 51
252.7716973874167081
  0
LINE
  5
C259
  8
0
 10
974.7601632134941383
 20
148.4997332663091925
 30
0.0
 11
974.7447320020253301
 21
149.3837867787449056
 31
0.0
  0
ARC
  5
C25A
  8
0
 10
974.7250350024304453
 20
149.3834429663378955
 30
0.0
 40
0.0197
 50
1.0000000005897669
 51
89.5000028995373356
  0
LINE
  5
C25C
  8
0
 10
974.7885403632046746
 20
148.0756170585790983
 30
0.0
 11
972.8974614831626013
 21
148.0756170585790983
 31
0.0
  0
ARC
  5
C25D
  8
0
 10
971.5580121779337333
 20
146.299801279624802
 30
0.0
 40
1.0498467866989361
 50
10.2185403997088304
 51
34.8532829842121217
  0
ARC
  5
C25E
  8
0
 10
971.8816393505286442
 20
146.5251746537672943
 30
0.0
 40
0.6554767769186181
 50
34.8532829842121217
 51
69.7631628708953144
  0
ARC
  5
C25F
  8
0
 10
971.6021599432380071
 20
145.7670762781831115
 30
0.0
 40
1.4634507159555239
 50
69.7631628708953144
 51
90.3177284615452862
  0
ARC
  5
C260
  8
0
 10
969.1591732842463216
 20
88.8745896404185345
 30
0.0
 40
58.4066896538742029
 50
87.6107482121423544
 51
90.3437551587741012
  0
ARC
  5
C261
  8
0
 10
968.6925599631151726
 20
144.4647037462250978
 30
0.0
 40
2.8179209866234829
 50
87.6367749093748358
 51
96.5683519371447829
  0
ARC
  5
C262
  8
0
 10
968.49985237727401
 20
146.0061069227340909
 30
0.0
 40
1.2646823414061259
 50
95.8831514094609076
 51
104.8226157385835933
  0
LINE
  5
C263
  8
0
 10
974.8756182181666645
 20
141.4679925421091866
 30
0.0
 11
975.2470345870927986
 21
141.4679925421091866
 31
0.0
  0
LINE
  5
C264
  8
0
 10
974.8799273175922053
 20
141.3105122271092
 30
0.0
 11
975.2448542671492078
 21
141.3105122271092
 31
0.0
  0
LINE
  5
C265
  8
0
 10
974.826969066984816
 20
141.2462671996279937
 30
0.0
 11
974.5382519531003709
 21
140.1244511289893921
 31
0.0
  0
LINE
  5
C266
  8
0
 10
974.6815828649107516
 20
141.3131992399974877
 30
0.0
 11
974.455168252501494
 21
140.4334607740653951
 31
0.0
  0
ARC
  5
C267
  8
0
 10
974.882452221974745
 20
141.2777201759093941
 30
0.0
 40
0.0328891131535533
 50
94.4029416316222125
 51
132.5803968694692969
  0
ARC
  5
C268
  8
0
 10
974.9370347565288739
 20
141.2183213399466126
 30
0.0
 40
0.1135580340097562
 50
132.5803968694692969
 51
165.7535525054321113
  0
ARC
  5
C269
  8
0
 10
974.8810099530813886
 20
141.2842330194025067
 30
0.0
 40
0.1838386058225972
 50
91.6806478615334584
 51
116.8520664929514936
  0
ARC
  5
C26A
  8
0
 10
974.9036671994393828
 20
141.2394803939675114
 30
0.0
 40
0.2339998288525022
 50
116.8520664929514936
 51
161.6368901158523101
  0
ARC
  5
C26B
  8
0
 10
975.2479133312990598
 20
141.4049612014146931
 30
0.0
 40
0.0630374658525901
 50
39.6756009192473513
 51
90.7987307928722061
  0
ARC
  5
C26C
  8
0
 10
975.2289297838299262
 20
141.3892144078554054
 30
0.0
 40
0.0877019460198191
 50
323.2499955680785888
 51
39.6756009192473513
  0
ARC
  5
C26D
  8
0
 10
975.2468231713238538
 20
141.3758527795135933
 30
0.0
 40
0.0653702101277084
 50
268.2740308997921943
 51
323.2499955680785888
  0
ARC
  5
C26E
  8
0
 10
975.2979820317300437
 20
141.3893652598941912
 30
0.0
 40
0.0491896562359316
 50
138.4490165773497097
 51
223.5351105530369864
  0
ARC
  5
C26F
  8
0
 10
975.2766946873617826
 20
141.3691395179093035
 30
0.0
 40
0.0198258746487953
 50
223.5351105530318989
 51
318.5980992414255866
  0
ARC
  5
C270
  8
0
 10
975.2539615583300474
 20
141.3891828074976047
 30
0.0
 40
0.0501331116244966
 50
318.5980992414304751
 51
42.3818567153444974
  0
ARC
  5
C271
  8
0
 10
975.2765017918545709
 20
141.4097517839416867
 30
0.0
 40
0.0196184443430281
 50
42.3818567153432966
 51
141.3971959236766054
  0
ARC
  5
C272
  8
0
 10
974.1465080218047206
 20
140.347838153611292
 30
0.0
 40
0.4636066335863556
 50
332.3336860095644738
 51
5.7790503725865978
  0
ARC
  5
C273
  8
0
 10
974.5366019262213513
 20
140.1542267354718092
 30
0.0
 40
0.0298212898797972
 50
197.7355149823387137
 51
313.4456282096642781
  0
ARC
  5
C274
  8
0
 10
975.2828930470464002
 20
140.4366662745077008
 30
0.0
 40
0.8277310014355928
 50
158.9917243230075883
 51
200.6217102766688924
  0
ARC
  5
C275
  8
0
 10
974.5504757365678188
 20
140.7145753196880946
 30
0.0
 40
0.0444780913727712
 50
105.5592436541110004
 51
154.9465816949380041
  0
ENDSEC
  0
EOF
