  0
SECTION
  2
HEADER
  9
$ACADVER
  1
AC1009
  9
$INSBASE
 10
3442.4510389724177912
 20
148.4694731337216069
 30
0.0
  9
$EXTMIN
 10
3435.3038450484041277
 20
127.7451782736215051
 30
0.0
  9
$EXTMAX
 10
3442.4510389724177912
 20
170.2547269519143924
 30
0.0
  9
$LIMMIN
 10
0.0
 20
0.0
  9
$LIMMAX
 10
11.6929133858000007
 20
8.2677165353999982
  9
$ORTHOMODE
 70
     0
  9
$REGENMODE
 70
     1
  9
$FILLMODE
 70
     1
  9
$QTEXTMODE
 70
     0
  9
$MIRRTEXT
 70
     0
  9
$DRAGMODE
 70
     2
  9
$LTSCALE
 40
0.6431102362
  9
$OSMODE
 70
  3839
  9
$ATTMODE
 70
     1
  9
$TEXTSIZE
 40
0.2
  9
$TRACEWID
 40
0.05
  9
$TEXTSTYLE
  7
STANDARD
  9
$CLAYER
  8
0
  9
$CELTYPE
  6
BYLAYER
  9
$CECOLOR
 62
   256
  9
$DIMSCALE
 40
1.0
  9
$DIMASZ
 40
0.1875
  9
$DIMEXO
 40
0.0625
  9
$DIMDLI
 40
0.4443307087
  9
$DIMRND
 40
0.0
  9
$DIMDLE
 40
0.0
  9
$DIMEXE
 40
0.125
  9
$DIMTP
 40
0.01
  9
$DIMTM
 40
0.01
  9
$DIMTXT
 40
2.0
  9
$DIMCEN
 40
0.1052362205
  9
$DIMTSZ
 40
0.0
  9
$DIMTOL
 70
     1
  9
$DIMLIM
 70
     0
  9
$DIMTIH
 70
     1
  9
$DIMTOH
 70
     1
  9
$DIMSE1
 70
     0
  9
$DIMSE2
 70
     0
  9
$DIMTAD
 70
     0
  9
$DIMZIN
 70
     0
  9
$DIMBLK
  1

  9
$DIMASO
 70
     1
  9
$DIMSHO
 70
     1
  9
$DIMPOST
  1
\X
  9
$DIMAPOST
  1

  9
$DIMALT
 70
     1
  9
$DIMALTD
 70
     2
  9
$DIMALTF
 40
25.3999999999999986
  9
$DIMLFAC
 40
1.0
  9
$DIMTOFL
 70
     0
  9
$DIMTVP
 40
0.0
  9
$DIMTIX
 70
     0
  9
$DIMSOXD
 70
     0
  9
$DIMSAH
 70
     0
  9
$DIMBLK1
  1

  9
$DIMBLK2
  1

  9
$DIMSTYLE
  2
STANDARD
  9
$DIMCLRD
 70
     0
  9
$DIMCLRE
 70
     0
  9
$DIMCLRT
 70
     0
  9
$DIMTFAC
 40
1.0
  9
$DIMGAP
 40
0.09
  9
$LUNITS
 70
     2
  9
$LUPREC
 70
     4
  9
$SKETCHINC
 40
0.1
  9
$FILLETRAD
 40
0.0
  9
$AUNITS
 70
     0
  9
$AUPREC
 70
     0
  9
$MENU
  1
.
  9
$ELEVATION
 40
0.0
  9
$PELEVATION
 40
0.0
  9
$THICKNESS
 40
0.0
  9
$LIMCHECK
 70
     0
  9
$BLIPMODE
 70
     0
  9
$CHAMFERA
 40
0.0
  9
$CHAMFERB
 40
0.0
  9
$SKPOLY
 70
     0
  9
$TDCREATE
 40
2458060.468368056230247
  9
$TDUPDATE
 40
2459086.9731712960638106
  9
$TDINDWG
 40
0.713884375
  9
$TDUSRTIMER
 40
0.713884375
  9
$USRTIMER
 70
     1
  9
$ANGBASE
 50
0.0
  9
$ANGDIR
 70
     0
  9
$PDMODE
 70
     0
  9
$PDSIZE
 40
0.3125
  9
$PLINEWID
 40
0.0
  9
$COORDS
 70
     1
  9
$SPLFRAME
 70
     0
  9
$SPLINETYPE
 70
     6
  9
$SPLINESEGS
 70
     8
  9
$ATTDIA
 70
     1
  9
$ATTREQ
 70
     1
  9
$HANDLING
 70
     1
  9
$HANDSEED
  5
FCA1
  9
$SURFTAB1
 70
     6
  9
$SURFTAB2
 70
     6
  9
$SURFTYPE
 70
     6
  9
$SURFU
 70
     6
  9
$SURFV
 70
     6
  9
$UCSNAME
  2

  9
$UCSORG
 10
0.0
 20
0.0
 30
0.0
  9
$UCSXDIR
 10
1.0
 20
0.0
 30
0.0
  9
$UCSYDIR
 10
0.0
 20
1.0
 30
0.0
  9
$PUCSNAME
  2

  9
$PUCSORG
 10
0.0
 20
0.0
 30
0.0
  9
$PUCSXDIR
 10
1.0
 20
0.0
 30
0.0
  9
$PUCSYDIR
 10
0.0
 20
1.0
 30
0.0
  9
$USERI1
 70
     0
  9
$USERI2
 70
     0
  9
$USERI3
 70
     0
  9
$USERI4
 70
     0
  9
$USERI5
 70
     0
  9
$USERR1
 40
0.0
  9
$USERR2
 40
0.0
  9
$USERR3
 40
0.0
  9
$USERR4
 40
0.0
  9
$USERR5
 40
0.0
  9
$WORLDVIEW
 70
     1
  9
$SHADEDGE
 70
     3
  9
$SHADEDIF
 70
    70
  9
$TILEMODE
 70
     1
  9
$MAXACTVP
 70
    64
  9
$PLIMCHECK
 70
     0
  9
$PEXTMIN
 10
1.0000000000000000E+20
 20
1.0000000000000000E+20
 30
1.0000000000000000E+20
  9
$PEXTMAX
 10
-1.0000000000000000E+20
 20
-1.0000000000000000E+20
 30
-1.0000000000000000E+20
  9
$PLIMMIN
 10
0.0
 20
0.0
  9
$PLIMMAX
 10
12.0
 20
9.0
  9
$UNITMODE
 70
     0
  9
$VISRETAIN
 70
     1
  9
$PLINEGEN
 70
     0
  9
$PSLTSCALE
 70
     1
  0
ENDSEC
  0
SECTION
  2
TABLES
  0
TABLE
  2
VPORT
 70
     1
  0
VPORT
  2
*ACTIVE
 70
     0
 10
0.0
 20
0.0
 11
1.0
 21
1.0
 12
0.0
 22
0.0
 13
0.0
 23
0.0
 14
1.0
 24
1.0
 15
0.0
 25
0.0
 16
0.0
 26
0.0
 36
178.9546017964410112
 17
3438.87939453125
 27
148.9999542236328125
 37
0.0
 40
43.1055148338452625
 41
3.3143418467583499
 42
50.0
 43
0.0
 44
0.0
 50
0.0
 51
0.0
 71
     0
 72
   100
 73
     1
 74
     1
 75
     0
 76
     0
 77
     0
 78
     0
  0
ENDTAB
  0
TABLE
  2
LTYPE
 70
     2
  0
LTYPE
  2
CONTINUOUS
 70
     0
  3
Solid line
 72
    65
 73
     0
 40
0.0
  0
LTYPE
  2
PHANTOM2
 70
     0
  3
___ _ _ ___ _ _ ___ _ _ ___ _ _
 72
    65
 73
     6
 40
1.25
 49
0.625
 49
-0.125
 49
0.125
 49
-0.125
 49
0.125
 49
-0.125
  0
ENDTAB
  0
TABLE
  2
LAYER
 70
     2
  0
LAYER
  2
0
 70
     0
 62
   255
  6
CONTINUOUS
  0
LAYER
  2
DEFPOINTS
 70
     0
 62
     7
  6
CONTINUOUS
  0
ENDTAB
  0
TABLE
  2
STYLE
 70
     1
  0
STYLE
  2
STANDARD
 70
     0
 40
0.0
 41
0.8
 50
0.0
 71
     0
 42
0.2
  3
txt
  4

  0
ENDTAB
  0
TABLE
  2
VIEW
 70
     0
  0
ENDTAB
  0
TABLE
  2
UCS
 70
     0
  0
ENDTAB
  0
TABLE
  2
APPID
 70
     9
  0
APPID
  2
ACAD
 70
     0
  0
APPID
  2
ACAD_MLEADERVER
 70
     0
  0
APPID
  2
ACAD_EXEMPT_FROM_CAD_STANDARDS
 70
     0
  0
APPID
  2
ACAD_NAV_VCDISPLAY
 70
     0
  0
APPID
  2
ACAECLAYERSTANDARD
 70
     0
  0
APPID
  2
ACCMTRANSPARENCY
 70
     0
  0
APPID
  2
ACAD_DSTYLE_DIMJAG
 70
     0
  0
APPID
  2
ACAD_DSTYLE_DIMTALN
 70
     0
  0
APPID
  2
ACDBATTR
 70
     0
  0
ENDTAB
  0
TABLE
  2
DIMSTYLE
 70
     1
  0
DIMSTYLE
  2
STANDARD
 70
     0
  3

  4

  5

  6

  7

 40
1.0
 41
0.1875
 42
0.0625
 43
0.38
 44
0.125
 45
0.0
 46
0.0
 47
0.01
 48
0.01
140
0.15625
141
0.09
142
0.0
143
25.3999999999999986
144
1.0
145
0.0
146
1.0
147
0.09
 71
     1
 72
     0
 73
     1
 74
     1
 75
     0
 76
     0
 77
     0
 78
     4
170
     0
171
     2
172
     0
173
     0
174
     0
175
     0
176
     0
177
     0
178
     0
  0
ENDTAB
  0
ENDSEC
  0
SECTION
  2
BLOCKS
  0
BLOCK
  8
0
  2
$MODEL_SPACE
 70
     0
 10
0.0
 20
0.0
 30
0.0
  3
$MODEL_SPACE
  1

  0
ENDBLK
  5
21
  8
0
  0
BLOCK
 67
     1
  8
0
  2
$PAPER_SPACE
 70
     0
 10
0.0
 20
0.0
 30
0.0
  3
$PAPER_SPACE
  1

  0
ENDBLK
  5
1D
 67
     1
  8
0
  0
BLOCK
  8
0
  2
_FILLED
 70
     0
 10
0.0
 20
0.0
 30
0.0
  3
_FILLED
  1

  0
SOLID
  5
AAE2
  8
0
  6
BYBLOCK
 62
     0
 10
0.0
 20
0.0
 30
0.0
 11
-1.0
 21
0.1666666667
 31
0.0
 12
-1.0
 22
-0.1666666667
 32
0.0
 13
-1.0
 23
-0.1666666667
 33
0.0
  0
ENDBLK
  5
AAE3
  8
0
  6
BYBLOCK
 62
     0
  0
ENDSEC
  0
SECTION
  2
ENTITIES
  0
ATTDEF
  5
AA11
  8
DEFPOINTS
 10
3442.4400168657130052
 20
148.4684797235618134
 30
0.0
 40
0.001
  1
K-72351T-4
  3

  2
MODELNUMBER
 70
     0
1001
ACDBATTR
1070
     0
1070
     1
  0
ATTDEF
  5
AA12
  8
DEFPOINTS
 10
3442.4400168657130052
 20
148.4668130568952051
 30
0.0
 40
0.001
  1
ALEO
  3

  2
TRADENAME
 70
     0
1001
ACDBATTR
1070
     0
1070
     1
  0
ATTDEF
  5
AA13
  8
DEFPOINTS
 10
3442.4400168657130052
 20
148.4651463902285116
 30
0.0
 40
0.001
  1
BATH AND SHOWER FAUCET
  3

  2
PRODUCT
 70
     0
1001
ACDBATTR
1070
     0
1070
     1
  0
LINE
  5
F6FF
  8
0
 10
3442.4510389724177912
 20
161.0138018254986036
 30
0.0
 11
3442.4510389724177912
 21
158.7557781852322023
 31
0.0
  0
LINE
  5
F700
  8
0
 10
3442.4510389724177912
 20
149.6604495773715087
 30
0.0
 11
3442.4510389724168817
 21
147.2785598135716043
 31
0.0
  0
LINE
  5
F701
  8
0
 10
3438.9477870259001975
 20
170.2547269519143924
 30
0.0
 11
3438.2007795874119438
 21
169.882542196815308
 31
0.0
  0
LINE
  5
F702
  8
0
 10
3440.0638541080597861
 20
160.8551502991215045
 30
0.0
 11
3441.0379561662448396
 21
160.8551502991215045
 31
0.0
  0
LINE
  5
F703
  8
0
 10
3441.0570320564520443
 20
161.456238389608103
 30
0.0
 11
3441.0570320564520443
 21
160.8842146574617118
 31
0.0
  0
ARC
  5
F704
  8
0
 10
3441.0237825757571954
 20
160.8852451356287929
 30
0.0
 40
0.0332654453107842
 50
295.2187566225123874
 51
358.2248397340974861
  0
ARC
  5
F705
  8
0
 10
3440.0641307899018102
 20
160.8748367139160962
 30
0.0
 40
0.019688359004849
 50
180.0040028745411007
 51
269.1947920264867093
  0
ARC
  5
F706
  8
0
 10
3405.0002571939421614
 20
150.5334515894058995
 30
0.0
 40
39.2813050972935969
 50
24.1439346157889396
 51
30.1116727593170488
  0
ARC
  5
F707
  8
0
 10
3440.1085182730480483
 20
166.2725843408128981
 30
0.0
 40
0.8065066983628169
 50
1.0589642025594099
 51
24.0058808812184203
  0
ARC
  5
F708
  8
0
 10
3438.213989390883853
 20
169.8561184266783926
 30
0.0
 40
0.0295417422641934
 50
116.5614401714422002
 51
206.8246199738418909
  0
ARC
  5
F709
  8
0
 10
3438.241074556040985
 20
169.770410614399907
 30
0.0
 40
0.0220965845473077
 50
169.6917008973186114
 51
189.3441997115442916
  0
ARC
  5
F70A
  8
0
 10
3431.5793819940358844
 20
167.4155655503165008
 30
0.0
 40
7.0439008712592761
 50
17.9086316568261701
 51
19.4996110387428985
  0
LINE
  5
F70B
  8
0
 10
3440.1478943392899055
 20
165.7862272732664053
 30
0.0
 11
3440.1478189165518415
 21
165.7222079474458951
 31
0.0
  0
ARC
  5
F70C
  8
0
 10
3440.1360094240799299
 20
165.722136115710299
 30
0.0
 40
0.011809710930331
 50
270.0804370765864064
 51
0.3484996956747261
  0
ARC
  5
F70D
  8
0
 10
3440.2735232592190187
 20
198.9641757399288053
 30
0.0
 40
33.2541335825496773
 50
269.2347538259825797
 51
269.7630960714200796
  0
ARC
  5
F70E
  8
0
 10
3439.8295472800600692
 20
165.7345353801360943
 30
0.0
 40
0.021527815591188
 50
180.2443572774710958
 51
269.5869440984096173
  0
LINE
  5
F70F
  8
0
 10
3439.8080196602509204
 20
165.7344435677458989
 30
0.0
 11
3439.8035855034768247
 21
166.478837352623998
 31
0.0
  0
ARC
  5
F710
  8
0
 10
3439.3819485209060076
 20
165.781371590918809
 30
0.0
 40
0.7659611861553928
 50
0.3629666533382454
 51
22.6968139450395512
  0
ARC
  5
F711
  8
0
 10
3440.1071252961869504
 20
166.0829312107057092
 30
0.0
 40
0.0194821042248662
 50
126.9207710848688038
 51
197.9677275229076088
  0
ARC
  5
F712
  8
0
 10
5955.5583076142711434
 20
161.3313380276321993
 30
0.0
 40
2514.6483044653477918
 50
179.8870749616476985
 51
179.9889362514240929
  0
ARC
  5
F713
  8
0
 10
3441.3600419939912172
 20
161.8017955662583063
 30
0.0
 40
0.4502458490909485
 50
178.075789323156414
 51
225.8350945774041065
  0
LINE
  5
F714
  8
0
 10
3440.0444206932629641
 20
165.1661283863529093
 30
0.0
 11
3440.044442430944855
 21
160.8748353384214909
 31
0.0
  0
ARC
  5
F715
  8
0
 10
3439.5702992396068112
 20
165.7951055438884111
 30
0.0
 40
0.6064703362071215
 50
0.9337109515784408
 51
30.0180883337289117
  0
ARC
  5
F716
  8
0
 10
3440.0744870367129806
 20
165.1660661070733056
 30
0.0
 40
0.0300664079529027
 50
141.4409329429217053
 51
179.8813179668476891
  0
ARC
  5
F717
  8
0
 10
3439.7015397962359202
 20
165.5072513380619057
 30
0.0
 40
0.4754745158031924
 50
317.3005634554235144
 51
0.5002295106118356
  0
LINE
  5
F718
  8
0
 10
3440.1769961908021287
 20
165.5114024878459134
 30
0.0
 11
3440.1766890473168132
 21
165.8049883474014052
 31
0.0
  0
ARC
  5
F719
  8
0
 10
3441.0273796130918527
 20
161.4560211972776074
 30
0.0
 40
0.0296532387729632
 50
0.4196612467850613
 51
50.2424093176094502
  0
ARC
  5
F71A
  8
0
 10
3438.9459107405841678
 20
170.2059537652174868
 30
0.0
 40
0.0488092633335915
 50
44.840655028133618
 51
87.7969402370233496
  0
ARC
  5
F71B
  8
0
 10
3656.4147173732358169
 20
278.6762429878164085
 30
0.0
 40
243.8601734911383971
 50
206.5061906545111015
 51
207.493547537654706
  0
ARC
  5
F71C
  8
0
 10
3439.4743388800270623
 20
168.1041373645614954
 30
0.0
 40
0.4760028772711133
 50
202.8174304105872068
 51
207.2785554223993074
  0
ARC
  5
F71D
  8
0
 10
3439.1774291824281136
 20
167.9792217204553992
 30
0.0
 40
0.1538859937173968
 50
192.7241543677953075
 51
202.8174304105893953
  0
ARC
  5
F71E
  8
0
 10
3439.042709104377991
 20
167.9488015551652893
 30
0.0
 40
0.0157741336685405
 50
165.1730301040890083
 51
192.7241543677936875
  0
ARC
  5
F71F
  8
0
 10
3439.0417476371881094
 20
167.9490560699836124
 30
0.0
 40
0.0147795498609997
 50
121.3603418572011066
 51
165.1730301040828124
  0
LINE
  5
F720
  8
0
 10
3439.0340560829299648
 20
167.9616764933994943
 30
0.0
 11
3439.0842495937199601
 21
167.9886537943712028
 31
0.0
  0
ARC
  5
F721
  8
0
 10
3438.8866871894379074
 20
167.8035347886878981
 30
0.0
 40
0.2655356843020727
 50
26.8942715706404698
 51
37.1441290410279024
  0
ARC
  5
F722
  8
0
 10
3438.8169761014491996
 20
167.820174134431511
 30
0.0
 40
0.3159438486253768
 50
27.0532288994023205
 51
32.2258663198511499
  0
ARC
  5
F723
  8
0
 10
3439.0396020897910603
 20
167.9614484695462977
 30
0.0
 40
0.0522831646512264
 50
31.3554495354262706
 51
48.3210160392787813
  0
ARC
  5
F724
  8
0
 10
3439.0696194345641743
 20
167.9949509969522126
 30
0.0
 40
0.0073018735138627
 50
49.4329442143757802
 51
77.689214029639416
  0
ARC
  5
F725
  8
0
 10
3439.071018961540176
 20
168.0001108995514869
 30
0.0
 40
0.0019803277503879
 50
85.4430498639861185
 51
139.7041574275662867
  0
ARC
  5
F726
  8
0
 10
3439.1118001618060589
 20
167.9957712481445071
 30
0.0
 40
0.0426634566966164
 50
172.4299649692142111
 51
199.0472942463416075
  0
ARC
  5
F727
  8
0
 10
3438.9356741079582207
 20
167.8277530444605929
 30
0.0
 40
0.1399908709702603
 50
26.7943874702309088
 51
34.2985899267588081
  0
ARC
  5
F728
  8
0
 10
3439.0328207644229224
 20
167.8940181985165054
 30
0.0
 40
0.0223960432619965
 50
34.2992209983352012
 51
44.4208353857412206
  0
ARC
  5
F729
  8
0
 10
3439.0448260200100776
 20
167.9057831686479005
 30
0.0
 40
0.0055870967181137
 50
44.4208353857745735
 51
57.1120041808936634
  0
ARC
  5
F72A
  8
0
 10
3439.0474701988327979
 20
167.9098723250953924
 30
0.0
 40
0.0007175092511611
 50
57.1120041807155374
 51
111.4145415186492016
  0
ARC
  5
F72B
  8
0
 10
3439.0475734047590777
 20
167.9100723697160049
 30
0.0
 40
0.0005935600035988
 50
127.9688808631324974
 51
172.1845316094137104
  0
ARC
  5
F72C
  8
0
 10
3439.0563430215897824
 20
167.9098736813240009
 30
0.0
 40
0.0093618336440673
 50
178.2897623024888105
 51
199.0765573487311997
  0
ARC
  5
F72D
  8
0
 10
3439.1642437593341128
 20
167.9461522962978108
 30
0.0
 40
0.1231978308978852
 50
198.6212289034887135
 51
208.0618676327690935
  0
ARC
  5
F72E
  8
0
 10
3438.7151364008032033
 20
167.7154593946721093
 30
0.0
 40
0.392543304724899
 50
26.9238302525416415
 51
33.6636090316524133
  0
ARC
  5
F72F
  8
0
 10
3438.9743956563838765
 20
167.8881260187104942
 30
0.0
 40
0.0810483213602212
 50
33.6636090316456418
 51
43.1243145984576586
  0
ARC
  5
F730
  8
0
 10
3439.0277318310309056
 20
167.9380795999294946
 30
0.0
 40
0.0079722801257748
 50
43.1243145985016199
 51
79.0797726830891463
  0
ARC
  5
F731
  8
0
 10
3439.0314524556169999
 20
167.9438120412982016
 30
0.0
 40
0.0030457541273204
 50
136.528077727891997
 51
185.4935643616964001
  0
ARC
  5
F732
  8
0
 10
3439.0429005868500099
 20
167.9424565314380118
 30
0.0
 40
0.0145189301584878
 50
175.7976751938026041
 51
188.4007244324969861
  0
ARC
  5
F733
  8
0
 10
3439.4722984756799633
 20
168.1080495882540049
 30
0.0
 40
0.4760028772711133
 50
207.8096643212041954
 51
212.2707893330097875
  0
ARC
  5
F734
  8
0
 10
3439.1999376509520516
 20
167.9360645080180916
 30
0.0
 40
0.1538859937173968
 50
212.2707893330077979
 51
222.3640653758176029
  0
ARC
  5
F735
  8
0
 10
3439.0978898218450013
 20
167.8429993348287894
 30
0.0
 40
0.0157741336685405
 50
222.3640653758187966
 51
249.9151896395165977
  0
ARC
  5
F736
  8
0
 10
3439.0975482711028235
 20
167.8420652363107877
 30
0.0
 40
0.0147795498609997
 50
249.9151896395171093
 51
293.7278778863990283
  0
LINE
  5
F737
  8
0
 10
3439.1034954622750774
 20
167.8285350474257882
 30
0.0
 11
3439.154344245745051
 21
167.8542559438463968
 31
0.0
  0
ARC
  5
F738
  8
0
 10
3438.8894724995061551
 20
167.7981943001447007
 30
0.0
 40
0.2655356843020727
 50
17.9440907025827592
 51
28.1939481729698187
  0
ARC
  5
F739
  8
0
 10
3438.8632206668271465
 20
167.7315058836362027
 30
0.0
 40
0.3159438486253768
 50
22.8623534237667201
 51
28.0349908441978002
  0
ARC
  5
F73A
  8
0
 10
3439.106482534989027
 20
167.8332134642068922
 30
0.0
 40
0.0522831646512264
 50
6.767203704331294
 51
23.7327702081817513
  0
ARC
  5
F73B
  8
0
 10
3439.1511351153230862
 20
167.8386547323804905
 30
0.0
 40
0.0073018735138627
 50
337.3990057139629926
 51
5.655275529231055
  0
ARC
  5
F73C
  8
0
 10
3439.1561673816058828
 20
167.836849305382799
 30
0.0
 40
0.0019803277503879
 50
275.3840623160501195
 51
329.6451698796217897
  0
ARC
  5
F73D
  8
0
 10
3439.1759483906898822
 20
167.8727749306252122
 30
0.0
 40
0.0426634566966164
 50
216.0409254972666986
 51
242.658254774385
  0
ARC
  5
F73E
  8
0
 10
3438.9373682211071355
 20
167.8245047910909022
 30
0.0
 40
0.1399908711282217
 50
20.7896298189650892
 51
28.2938322882851416
  0
ARC
  5
F73F
  8
0
 10
3439.0473063543281569
 20
167.8662438663727983
 30
0.0
 40
0.0223960432619965
 50
10.6673843578693202
 51
20.7889987452822389
  0
ARC
  5
F740
  8
0
 10
3439.0638248141722215
 20
167.8693553239515097
 30
0.0
 40
0.0055870967181137
 50
357.976215562722814
 51
10.6673843578341003
  0
ARC
  5
F741
  8
0
 10
3439.0686913642512081
 20
167.8691833575985868
 30
0.0
 40
0.0007175092511611
 50
303.6736782249710132
 51
357.9762155628832261
  0
ARC
  5
F742
  8
0
 10
3439.0689144739340009
 20
167.8691535015560135
 30
0.0
 40
0.0005935600035988
 50
242.903688134181607
 51
287.1193388804629194
  0
ARC
  5
F743
  8
0
 10
3439.0737705214201014
 20
167.8764585997242875
 30
0.0
 40
0.0093618336440673
 50
216.011662394881597
 51
236.7984574411082122
  0
ARC
  5
F744
  8
0
 10
3439.165273382741816
 20
167.9441781203948949
 30
0.0
 40
0.1231978308978852
 50
207.0263521108441012
 51
216.4669908401158978
  0
ARC
  5
F745
  8
0
 10
3438.719066660441058
 20
167.7079236065343935
 30
0.0
 40
0.392543304724899
 50
21.4246107119493985
 51
28.1643894910642985
  0
ARC
  5
F746
  8
0
 10
3439.0090370294419699
 20
167.8217054581737102
 30
0.0
 40
0.0810483213602212
 50
11.9639051451536496
 51
21.4246107119569906
  0
ARC
  5
F747
  8
0
 10
3439.0805257410861486
 20
167.8368537884400098
 30
0.0
 40
0.0079722801257748
 50
336.008447060523622
 51
11.9639051451058602
  0
ARC
  5
F748
  8
0
 10
3439.0873559065448717
 20
167.8366240686841877
 30
0.0
 40
0.0030457541273204
 50
229.5946553819082112
 51
278.5601420157007055
  0
ARC
  5
F749
  8
0
 10
3439.0927962734372159
 20
167.8467877060157036
 30
0.0
 40
0.0145189301584878
 50
226.6874953111137927
 51
239.2905445498059862
  0
ARC
  5
F74A
  8
0
 10
3439.2497149705350239
 20
168.5658310782777107
 30
0.0
 40
0.4760028772711133
 50
202.8174304105872068
 51
207.2785554223993074
  0
ARC
  5
F74B
  8
0
 10
3438.9528052729369847
 20
168.4409154341715862
 30
0.0
 40
0.1538859937173968
 50
192.7241543677953075
 51
202.8174304105893953
  0
ARC
  5
F74C
  8
0
 10
3438.8180851948868622
 20
168.4104952688815047
 30
0.0
 40
0.0157741336685405
 50
165.1730301040890083
 51
192.7241543677936875
  0
ARC
  5
F74D
  8
0
 10
3438.8171237276969805
 20
168.4107497836997993
 30
0.0
 40
0.0147795498609997
 50
121.3603418572011066
 51
165.1730301040828124
  0
LINE
  5
F74E
  8
0
 10
3438.8094321734388359
 20
168.4233702071157097
 30
0.0
 11
3438.8596256842288312
 21
168.4503475080873898
 31
0.0
  0
ARC
  5
F74F
  8
0
 10
3438.6620632799467785
 20
168.2652285024041134
 30
0.0
 40
0.2655356843020727
 50
26.8942715706404698
 51
37.1441290410279024
  0
ARC
  5
F750
  8
0
 10
3438.5923521919580708
 20
168.2818678481476979
 30
0.0
 40
0.3159438486253768
 50
27.0532288994023205
 51
32.2258663198511499
  0
ARC
  5
F751
  8
0
 10
3438.8149781802999314
 20
168.4231421832625131
 30
0.0
 40
0.0522831646512264
 50
31.3554495354262706
 51
48.3210160392787813
  0
ARC
  5
F752
  8
0
 10
3438.8449955250730454
 20
168.4566447106683995
 30
0.0
 40
0.0073018735138627
 50
49.4329442143757802
 51
77.689214029639416
  0
ARC
  5
F753
  8
0
 10
3438.8463950520499566
 20
168.4618046132675886
 30
0.0
 40
0.0019803277503879
 50
85.4430498639861185
 51
139.7041574275662867
  0
ARC
  5
F754
  8
0
 10
3438.88717625231493
 20
168.4574649618606941
 30
0.0
 40
0.0426634566966164
 50
172.4299649692142111
 51
199.0472942463416075
  0
ARC
  5
F755
  8
0
 10
3438.7110501984670918
 20
168.2894467581768083
 30
0.0
 40
0.1399908709702603
 50
26.7943874702309088
 51
34.2985899267588081
  0
ARC
  5
F756
  8
0
 10
3438.808196854930884
 20
168.3557119122326924
 30
0.0
 40
0.0223960432619965
 50
34.2992209983352012
 51
44.4208353857412206
  0
ARC
  5
F757
  8
0
 10
3438.8202021105189488
 20
168.3674768823640875
 30
0.0
 40
0.0055870967181137
 50
44.4208353857745735
 51
57.1120041808936634
  0
ARC
  5
F758
  8
0
 10
3438.8228462893421238
 20
168.3715660388116078
 30
0.0
 40
0.0007175092511611
 50
57.1120041807155374
 51
111.4145415186492016
  0
ARC
  5
F759
  8
0
 10
3438.8229494952679488
 20
168.3717660834321919
 30
0.0
 40
0.0005935600035988
 50
127.9688808631324974
 51
172.1845316094137104
  0
ARC
  5
F75A
  8
0
 10
3438.8317191120991083
 20
168.3715673950401879
 30
0.0
 40
0.0093618336440673
 50
178.2897623024888105
 51
199.0765573487311997
  0
ARC
  5
F75B
  8
0
 10
3438.9396198498420745
 20
168.4078460100139978
 30
0.0
 40
0.1231978308978852
 50
198.6212289034887135
 51
208.0618676327690935
  0
ARC
  5
F75C
  8
0
 10
3438.4905124913120744
 20
168.1771531083884099
 30
0.0
 40
0.392543304724899
 50
26.9238302525416415
 51
33.6636090316524133
  0
ARC
  5
F75D
  8
0
 10
3438.7497717468932024
 20
168.3498197324267096
 30
0.0
 40
0.0810483213602212
 50
33.6636090316456418
 51
43.1243145984576586
  0
ARC
  5
F75E
  8
0
 10
3438.8031079215397767
 20
168.39977331364571
 30
0.0
 40
0.0079722801257748
 50
43.1243145985016199
 51
79.0797726830891463
  0
ARC
  5
F75F
  8
0
 10
3438.8068285461258711
 20
168.4055057550143886
 30
0.0
 40
0.0030457541273204
 50
136.528077727891997
 51
185.4935643616964001
  0
ARC
  5
F760
  8
0
 10
3438.818276677358881
 20
168.4041502451541987
 30
0.0
 40
0.0145189301584878
 50
175.7976751938026041
 51
188.4007244324969861
  0
ARC
  5
F761
  8
0
 10
3439.2476745661888344
 20
168.5697433019701066
 30
0.0
 40
0.4760028772711133
 50
207.8096643212041954
 51
212.2707893330097875
  0
ARC
  5
F762
  8
0
 10
3438.9753137414609228
 20
168.397758221734307
 30
0.0
 40
0.1538859937173968
 50
212.2707893330077979
 51
222.3640653758176029
  0
ARC
  5
F763
  8
0
 10
3438.8732659123529629
 20
168.3046930485450048
 30
0.0
 40
0.0157741336685405
 50
222.3640653758187966
 51
249.9151896395165977
  0
ARC
  5
F764
  8
0
 10
3438.8729243616121494
 20
168.303758950027003
 30
0.0
 40
0.0147795498609997
 50
249.9151896395171093
 51
293.7278778863990283
  0
LINE
  5
F765
  8
0
 10
3438.8788715527839486
 20
168.2902287611418899
 30
0.0
 11
3438.9297203362539221
 21
168.3159496575624985
 31
0.0
  0
ARC
  5
F766
  8
0
 10
3438.6648485900141168
 20
168.2598880138610014
 30
0.0
 40
0.2655356843020727
 50
17.9440907025827592
 51
28.1939481729698187
  0
ARC
  5
F767
  8
0
 10
3438.6385967573360176
 20
168.1931995973523897
 30
0.0
 40
0.3159438486253768
 50
22.8623534237667201
 51
28.0349908441978002
  0
ARC
  5
F768
  8
0
 10
3438.8818586254978982
 20
168.2949071779231076
 30
0.0
 40
0.0522831646512264
 50
6.767203704331294
 51
23.7327702081817513
  0
ARC
  5
F769
  8
0
 10
3438.9265112058319573
 20
168.3003484460967059
 30
0.0
 40
0.0073018735138627
 50
337.3990057139629926
 51
5.655275529231055
  0
ARC
  5
F76A
  8
0
 10
3438.9315434721152087
 20
168.298543019098986
 30
0.0
 40
0.0019803277503879
 50
275.3840623160501195
 51
329.6451698796217897
  0
ARC
  5
F76B
  8
0
 10
3438.9513244811992081
 20
168.3344686443413991
 30
0.0
 40
0.0426634566966164
 50
216.0409254972666986
 51
242.658254774385
  0
ARC
  5
F76C
  8
0
 10
3438.7127443116160066
 20
168.2861985048070892
 30
0.0
 40
0.1399908711282217
 50
20.7896298189650892
 51
28.2938322882851416
  0
ARC
  5
F76D
  8
0
 10
3438.8226824448361185
 20
168.3279375800890136
 30
0.0
 40
0.0223960432619965
 50
10.6673843578693202
 51
20.7889987452822389
  0
ARC
  5
F76E
  8
0
 10
3438.8392009046810927
 20
168.3310490376676967
 30
0.0
 40
0.0055870967181137
 50
357.976215562722814
 51
10.6673843578341003
  0
ARC
  5
F76F
  8
0
 10
3438.8440674547600793
 20
168.3308770713148022
 30
0.0
 40
0.0007175092511611
 50
303.6736782249710132
 51
357.9762155628832261
  0
ARC
  5
F770
  8
0
 10
3438.844290564442872
 20
168.3308472152723141
 30
0.0
 40
0.0005935600035988
 50
242.903688134181607
 51
287.1193388804629194
  0
ARC
  5
F771
  8
0
 10
3438.8491466119289726
 20
168.3381523134405029
 30
0.0
 40
0.0093618336440673
 50
216.011662394881597
 51
236.7984574411082122
  0
ARC
  5
F772
  8
0
 10
3438.9406494732511419
 20
168.4058718341111955
 30
0.0
 40
0.1231978308978852
 50
207.0263521108441012
 51
216.4669908401158978
  0
ARC
  5
F773
  8
0
 10
3438.4944427509490197
 20
168.1696173202506088
 30
0.0
 40
0.392543304724899
 50
21.4246107119493985
 51
28.1643894910642985
  0
ARC
  5
F774
  8
0
 10
3438.7844131199508411
 20
168.2833991718898972
 30
0.0
 40
0.0810483213602212
 50
11.9639051451536496
 51
21.4246107119569906
  0
ARC
  5
F775
  8
0
 10
3438.8559018315950198
 20
168.2985475021563104
 30
0.0
 40
0.0079722801257748
 50
336.008447060523622
 51
11.9639051451058602
  0
ARC
  5
F776
  8
0
 10
3438.8627319970551071
 20
168.2983177824004883
 30
0.0
 40
0.0030457541273204
 50
229.5946553819082112
 51
278.5601420157007055
  0
ARC
  5
F777
  8
0
 10
3438.8681723639451775
 20
168.3084814197318906
 30
0.0
 40
0.0145189301584878
 50
226.6874953111137927
 51
239.2905445498059862
  0
ARC
  5
F778
  8
0
 10
3439.3108026675909059
 20
168.3082528034337031
 30
0.0
 40
0.4760028772711133
 50
202.8174304105872068
 51
207.2785554223993074
  0
ARC
  5
F779
  8
0
 10
3439.0138929699919572
 20
168.183337159327607
 30
0.0
 40
0.1538859937173968
 50
192.7241543677953075
 51
202.8174304105893953
  0
ARC
  5
F77A
  8
0
 10
3438.8791728919431989
 20
168.1529169940376107
 30
0.0
 40
0.0157741336685405
 50
165.1730301040890083
 51
192.7241543677936875
  0
ARC
  5
F77B
  8
0
 10
3438.8782114247528625
 20
168.1531715088557917
 30
0.0
 40
0.0147795498609997
 50
121.3603418572011066
 51
165.1730301040828124
  0
LINE
  5
F77C
  8
0
 10
3438.8705198704951727
 20
168.1657919322717021
 30
0.0
 11
3438.920713381285168
 21
168.1927692332434958
 31
0.0
  0
ARC
  5
F77D
  8
0
 10
3438.7231509770031153
 20
168.0076502275601058
 30
0.0
 40
0.2655356843020727
 50
26.8942715706404698
 51
37.1441290410279024
  0
ARC
  5
F77E
  8
0
 10
3438.6534398890139528
 20
168.0242895733036903
 30
0.0
 40
0.3159438486253768
 50
27.0532288994023205
 51
32.2258663198511499
  0
ARC
  5
F77F
  8
0
 10
3438.8760658773558134
 20
168.1655639084185054
 30
0.0
 40
0.0522831646512264
 50
31.3554495354262706
 51
48.3210160392787813
  0
ARC
  5
F780
  8
0
 10
3438.9060832221289274
 20
168.1990664358243919
 30
0.0
 40
0.0073018735138627
 50
49.4329442143757802
 51
77.689214029639416
  0
ARC
  5
F781
  8
0
 10
3438.9074827491058386
 20
168.2042263384236946
 30
0.0
 40
0.0019803277503879
 50
85.4430498639861185
 51
139.7041574275662867
  0
ARC
  5
F782
  8
0
 10
3438.9482639493721763
 20
168.1998866870166864
 30
0.0
 40
0.0426634566966164
 50
172.4299649692142111
 51
199.0472942463416075
  0
ARC
  5
F783
  8
0
 10
3438.7721378955229738
 20
168.0318684833328007
 30
0.0
 40
0.1399908709702603
 50
26.7943874702309088
 51
34.2985899267588081
  0
ARC
  5
F784
  8
0
 10
3438.8692845519872208
 20
168.0981336373887132
 30
0.0
 40
0.0223960432619965
 50
34.2992209983352012
 51
44.4208353857412206
  0
ARC
  5
F785
  8
0
 10
3438.8812898075739213
 20
168.1098986075201083
 30
0.0
 40
0.0055870967181137
 50
44.4208353857745735
 51
57.1120041808936634
  0
ARC
  5
F786
  8
0
 10
3438.8839339863970963
 20
168.1139877639676001
 30
0.0
 40
0.0007175092511611
 50
57.1120041807155374
 51
111.4145415186492016
  0
ARC
  5
F787
  8
0
 10
3438.8840371923238308
 20
168.1141878085882126
 30
0.0
 40
0.0005935600035988
 50
127.9688808631324974
 51
172.1845316094137104
  0
ARC
  5
F788
  8
0
 10
3438.8928068091549903
 20
168.1139891201962939
 30
0.0
 40
0.0093618336440673
 50
178.2897623024888105
 51
199.0765573487311997
  0
ARC
  5
F789
  8
0
 10
3439.000707546898866
 20
168.1502677351701038
 30
0.0
 40
0.1231978308978852
 50
198.6212289034887135
 51
208.0618676327690935
  0
ARC
  5
F78A
  8
0
 10
3438.5516001883670469
 20
167.9195748335444023
 30
0.0
 40
0.392543304724899
 50
26.9238302525416415
 51
33.6636090316524133
  0
ARC
  5
F78B
  8
0
 10
3438.8108594439490844
 20
168.092241457582702
 30
0.0
 40
0.0810483213602212
 50
33.6636090316456418
 51
43.1243145984576586
  0
ARC
  5
F78C
  8
0
 10
3438.864195618595204
 20
168.1421950388017024
 30
0.0
 40
0.0079722801257748
 50
43.1243145985016199
 51
79.0797726830891463
  0
ARC
  5
F78D
  8
0
 10
3438.8679162431822078
 20
168.1479274801704946
 30
0.0
 40
0.0030457541273204
 50
136.528077727891997
 51
185.4935643616964001
  0
ARC
  5
F78E
  8
0
 10
3438.8793643744152178
 20
168.1465719703101911
 30
0.0
 40
0.0145189301584878
 50
175.7976751938026041
 51
188.4007244324969861
  0
ARC
  5
F78F
  8
0
 10
3439.3087622632451712
 20
168.3121650271262126
 30
0.0
 40
0.4760028772711133
 50
207.8096643212041954
 51
212.2707893330097875
  0
ARC
  5
F790
  8
0
 10
3439.0364014385158953
 20
168.140179946890413
 30
0.0
 40
0.1538859937173968
 50
212.2707893330077979
 51
222.3640653758176029
  0
ARC
  5
F791
  8
0
 10
3438.9343536094102092
 20
168.0471147737009971
 30
0.0
 40
0.0157741336685405
 50
222.3640653758187966
 51
249.9151896395165977
  0
ARC
  5
F792
  8
0
 10
3438.9340120586680314
 20
168.0461806751831091
 30
0.0
 40
0.0147795498609997
 50
249.9151896395171093
 51
293.7278778863990283
  0
LINE
  5
F793
  8
0
 10
3438.9399592498389211
 20
168.0326504862979959
 30
0.0
 11
3438.9908080333098042
 21
168.0583713827186045
 31
0.0
  0
ARC
  5
F794
  8
0
 10
3438.7259362870699988
 20
168.0023097390169937
 30
0.0
 40
0.2655356843020727
 50
17.9440907025827592
 51
28.1939481729698187
  0
ARC
  5
F795
  8
0
 10
3438.6996844543909901
 20
167.9356213225084105
 30
0.0
 40
0.3159438486253768
 50
22.8623534237667201
 51
28.0349908441978002
  0
ARC
  5
F796
  8
0
 10
3438.9429463225537802
 20
168.0373289030791
 30
0.0
 40
0.0522831646512264
 50
6.767203704331294
 51
23.7327702081817513
  0
ARC
  5
F797
  8
0
 10
3438.9875989028869299
 20
168.0427701712526982
 30
0.0
 40
0.0073018735138627
 50
337.3990057139629926
 51
5.655275529231055
  0
ARC
  5
F798
  8
0
 10
3438.9926311691710907
 20
168.0409647442550067
 30
0.0
 40
0.0019803277503879
 50
275.3840623160501195
 51
329.6451698796217897
  0
ARC
  5
F799
  8
0
 10
3439.0124121782550901
 20
168.0768903694973915
 30
0.0
 40
0.0426634566966164
 50
216.0409254972666986
 51
242.658254774385
  0
ARC
  5
F79A
  8
0
 10
3438.7738320086727981
 20
168.02862022996311
 30
0.0
 40
0.1399908711282217
 50
20.7896298189650892
 51
28.2938322882851416
  0
ARC
  5
F79B
  8
0
 10
3438.8837701418920005
 20
168.070359305245006
 30
0.0
 40
0.0223960432619965
 50
10.6673843578693202
 51
20.7889987452822389
  0
ARC
  5
F79C
  8
0
 10
3438.9002886017369747
 20
168.073470762823689
 30
0.0
 40
0.0055870967181137
 50
357.976215562722814
 51
10.6673843578341003
  0
ARC
  5
F79D
  8
0
 10
3438.9051551518159613
 20
168.0732987964707945
 30
0.0
 40
0.0007175092511611
 50
303.6736782249710132
 51
357.9762155628832261
  0
ARC
  5
F79E
  8
0
 10
3438.9053782614992087
 20
168.0732689404283065
 30
0.0
 40
0.0005935600035988
 50
242.903688134181607
 51
287.1193388804629194
  0
ARC
  5
F79F
  8
0
 10
3438.9102343089839451
 20
168.0805740385964953
 30
0.0
 40
0.0093618336440673
 50
216.011662394881597
 51
236.7984574411082122
  0
ARC
  5
F7A0
  8
0
 10
3439.0017371703079334
 20
168.1482935592671879
 30
0.0
 40
0.1231978308978852
 50
207.0263521108441012
 51
216.4669908401158978
  0
ARC
  5
F7A1
  8
0
 10
3438.5555304480049017
 20
167.9120390454066012
 30
0.0
 40
0.392543304724899
 50
21.4246107119493985
 51
28.1643894910642985
  0
ARC
  5
F7A2
  8
0
 10
3438.8455008170058136
 20
168.0258208970460032
 30
0.0
 40
0.0810483213602212
 50
11.9639051451536496
 51
21.4246107119569906
  0
ARC
  5
F7A3
  8
0
 10
3438.9169895286518113
 20
168.0409692273123028
 30
0.0
 40
0.0079722801257748
 50
336.008447060523622
 51
11.9639051451058602
  0
ARC
  5
F7A4
  8
0
 10
3438.9238196941100796
 20
168.0407395075565091
 30
0.0
 40
0.0030457541273204
 50
229.5946553819082112
 51
278.5601420157007055
  0
ARC
  5
F7A5
  8
0
 10
3438.9292600610010595
 20
168.0509031448879114
 30
0.0
 40
0.0145189301584878
 50
226.6874953111137927
 51
239.2905445498059862
  0
ARC
  5
F7A6
  8
0
 10
3438.2151478534478883
 20
168.347355457464289
 30
0.0
 40
0.5754752159633983
 50
24.9671762271604898
 51
28.9577604181190402
  0
ARC
  5
F7A7
  8
0
 10
3438.5358048348662123
 20
168.5460031730063974
 30
0.0
 40
0.1995944934806548
 50
23.6218073995108817
 51
32.8879310855043627
  0
ARC
  5
F7A8
  8
0
 10
3438.6924906521157936
 20
168.6486850405391067
 30
0.0
 40
0.0123174160695262
 50
27.5519780669139003
 51
59.4410458216575321
  0
ARC
  5
F7A9
  8
0
 10
3438.6980422323990751
 20
168.6580876169331873
 30
0.0
 40
0.0013982363158355
 50
59.4410458213578181
 51
143.6244556695963865
  0
ARC
  5
F7AA
  8
0
 10
3438.708479595098197
 20
168.6569494583850997
 30
0.0
 40
0.011729328046824
 50
170.3438512585524052
 51
189.7676424752559967
  0
ARC
  5
F7AB
  8
0
 10
3438.9601706774838021
 20
168.7034308095732058
 30
0.0
 40
0.2676755994166819
 50
190.43279689571429
 51
194.8463044723544897
  0
ARC
  5
F7AC
  8
0
 10
3438.1793483955489137
 20
168.3385167888353067
 30
0.0
 40
0.6117011841006881
 50
19.042728450990051
 51
24.3022971975945303
  0
ARC
  5
F7AD
  8
0
 10
3438.6906474282532145
 20
168.5129329025733966
 30
0.0
 40
0.0715020705897464
 50
5.2699754909234127
 51
20.6069978158947507
  0
ARC
  5
F7AE
  8
0
 10
3438.7542754286978379
 20
168.5185928050113944
 30
0.0
 40
0.0076260146396362
 50
340.4514417818382981
 51
6.8342448557125861
  0
ARC
  5
F7AF
  8
0
 10
3438.7569177093619146
 20
168.5176546034498983
 30
0.0
 40
0.0048221121313219
 50
321.600131515463886
 51
340.4514417818351717
  0
ARC
  5
F7B0
  8
0
 10
3438.7591800824861821
 20
168.516398088741596
 30
0.0
 40
0.0023072718272709
 50
285.9570509857546767
 51
311.0982895372723078
  0
ARC
  5
F7B1
  8
0
 10
3438.7599037480081279
 20
168.5153023004218085
 30
0.0
 40
0.0011261306639196
 50
233.0083848334305969
 51
265.4488227181241768
  0
ARC
  5
F7B2
  8
0
 10
3438.8674564330790417
 20
168.6064395973629075
 30
0.0
 40
0.1420723707693409
 50
211.3464203125276129
 51
220.3771441283707873
  0
LINE
  5
F7B3
  8
0
 10
3438.7575485742131605
 20
168.5381737798130928
 30
0.0
 11
3438.7106107706149487
 21
168.5150013654535996
 31
0.0
  0
LINE
  5
F7B4
  8
0
 10
3438.7116883562880503
 20
168.6403579249669065
 30
0.0
 11
3438.6634647565188061
 21
168.6144377782935067
 31
0.0
  0
ARC
  5
F7B5
  8
0
 10
3438.6709020112998587
 20
168.601866705013606
 30
0.0
 40
0.0146063219902665
 50
120.6092606995484999
 51
142.6369463142818859
  0
ARC
  5
F7B6
  8
0
 10
3438.6703782899630824
 20
168.6033114574053968
 30
0.0
 40
0.0133391744862587
 50
146.2063769733468916
 51
186.2828526067559096
  0
ARC
  5
F7B7
  8
0
 10
3438.7362627961820181
 20
168.6168203294330112
 30
0.0
 40
0.080546660450082
 50
190.7100216120045957
 51
203.1942855730902124
  0
ARC
  5
F7B8
  8
0
 10
3439.116057242826173
 20
168.764684328233102
 30
0.0
 40
0.4880718031401406
 50
201.5894080523187881
 51
205.0818811718573897
  0
ARC
  5
F7B9
  8
0
 10
3439.1098566145801669
 20
168.758847196803714
 30
0.0
 40
0.4799888006447148
 50
204.7645753114578042
 51
208.2254358260829008
  0
ARC
  5
F7BA
  8
0
 10
3438.7734590281811506
 20
168.5767972689409078
 30
0.0
 40
0.0975007498520388
 50
207.4576623365674948
 51
215.9617760521092009
  0
ARC
  5
F7BB
  8
0
 10
3438.7060443898958511
 20
168.527816197518888
 30
0.0
 40
0.0141709434811737
 50
215.732198325251403
 51
251.7920785138641975
  0
ARC
  5
F7BC
  8
0
 10
3438.7052780792027988
 20
168.5263012519781114
 30
0.0
 40
0.012495000326272
 50
252.9594949980109959
 51
295.2637648812989255
  0
ARC
  5
F7BD
  8
0
 10
3438.4095570888598559
 20
168.435788932577907
 30
0.0
 40
0.2960478481578903
 50
24.8076409251159298
 51
27.001002822181519
  0
ARC
  5
F7BE
  8
0
 10
3438.5272746074938368
 20
168.4957715994553098
 30
0.0
 40
0.1639292101115726
 50
27.0010028221800695
 51
29.3066850743494385
  0
ARC
  5
F7BF
  8
0
 10
3438.6282341621908927
 20
168.5524429494381025
 30
0.0
 40
0.0481515197156614
 50
29.3066850743437612
 51
34.2805159168859532
  0
ARC
  5
F7C0
  8
0
 10
3438.662153693333039
 20
168.5755643864839897
 30
0.0
 40
0.0071011184508354
 50
34.2805159169142115
 51
46.3524332409531681
  0
ARC
  5
F7C1
  8
0
 10
3438.6668303832830134
 20
168.580467237889394
 30
0.0
 40
0.0003254722975166
 50
46.3524332404565627
 51
102.4361224878478964
  0
ARC
  5
F7C2
  8
0
 10
3438.6668530059178011
 20
168.5806213478784912
 30
0.0
 40
0.0001881538474914
 50
119.5217095183996037
 51
149.7278822905196023
  0
ARC
  5
F7C3
  8
0
 10
3438.6672833621942118
 20
168.5804718776163043
 30
0.0
 40
0.0006412236066324
 50
157.6030260936460081
 51
188.3799273381330863
  0
ARC
  5
F7C4
  8
0
 10
3438.6826502439330397
 20
168.5826657114448039
 30
0.0
 40
0.0161639093224561
 50
188.1349774472770093
 51
199.7817928488051109
  0
ARC
  5
F7C5
  8
0
 10
3438.85727316104294
 20
168.6450510645472036
 30
0.0
 40
0.2015960611527888
 50
199.6694444541672055
 51
205.6061143846067125
  0
ARC
  5
F7C6
  8
0
 10
3438.8882301232351892
 20
168.655863595826105
 30
0.0
 40
0.2342137179315194
 50
204.7184505251109101
 51
208.8522319730980996
  0
ARC
  5
F7C7
  8
0
 10
3438.7234657104031612
 20
168.5652569847264033
 30
0.0
 40
0.0461797888915376
 50
209.0359796342156926
 51
215.2184814578837972
  0
ARC
  5
F7C8
  8
0
 10
3438.6869709729080569
 20
168.5392589110560948
 30
0.0
 40
0.0013856122598902
 50
207.212051250634687
 51
255.044364329699988
  0
ARC
  5
F7C9
  8
0
 10
3438.6865017380309837
 20
168.5381255365979882
 30
0.0
 40
0.0002336965613697
 50
298.5385362958176074
 51
1.115708784278125
  0
ARC
  5
F7CA
  8
0
 10
3438.6712845298497996
 20
168.5364136272783924
 30
0.0
 40
0.0155459101473967
 50
6.3390836231702377
 51
21.1018666441903413
  0
ARC
  5
F7CB
  8
0
 10
3438.4832449505202021
 20
168.4681195281777946
 30
0.0
 40
0.2156004583445092
 50
20.0428083610150694
 51
25.22494346755051
  0
ARC
  5
F7CC
  8
0
 10
3438.3525601644300878
 20
168.4133426712658945
 30
0.0
 40
0.3702908410270351
 50
24.2592643651631299
 51
32.894806729574249
  0
ARC
  5
F7CD
  8
0
 10
3438.3556446876327755
 20
168.4005361476025087
 30
0.0
 40
0.3729652054684831
 50
17.8729464854792788
 51
26.2485660355313293
  0
ARC
  5
F7CE
  8
0
 10
3438.0781635704579458
 20
168.5654019665169869
 30
0.0
 40
0.5754752159633983
 50
24.9671762271604898
 51
28.9577604181190402
  0
ARC
  5
F7CF
  8
0
 10
3438.3988205518749055
 20
168.7640496820590101
 30
0.0
 40
0.1995944934806548
 50
23.6218073995108817
 51
32.8879310855043627
  0
ARC
  5
F7D0
  8
0
 10
3438.5555063691240321
 20
168.866731549591691
 30
0.0
 40
0.0123174160695262
 50
27.5519780669139003
 51
59.4410458216575321
  0
ARC
  5
F7D1
  8
0
 10
3438.5610579494091326
 20
168.8761341259858
 30
0.0
 40
0.0013982363158355
 50
59.4410458213578181
 51
143.6244556695963865
  0
ARC
  5
F7D2
  8
0
 10
3438.5714953121068902
 20
168.8749959674377124
 30
0.0
 40
0.011729328046824
 50
170.3438512585524052
 51
189.7676424752559967
  0
ARC
  5
F7D3
  8
0
 10
3438.8231863944929501
 20
168.9214773186257901
 30
0.0
 40
0.2676755994166819
 50
190.43279689571429
 51
194.8463044723544897
  0
ARC
  5
F7D4
  8
0
 10
3438.0423641125580616
 20
168.5565632978878909
 30
0.0
 40
0.6117011841006881
 50
19.042728450990051
 51
24.3022971975945303
  0
ARC
  5
F7D5
  8
0
 10
3438.5536631452619076
 20
168.7309794116260093
 30
0.0
 40
0.0715020705897464
 50
5.2699754909234127
 51
20.6069978158947507
  0
ARC
  5
F7D6
  8
0
 10
3438.6172911457069858
 20
168.7366393140640071
 30
0.0
 40
0.0076260146396362
 50
340.4514417818382981
 51
6.8342448557125861
  0
ARC
  5
F7D7
  8
0
 10
3438.6199334263710625
 20
168.735701112502511
 30
0.0
 40
0.0048221121313219
 50
321.600131515463886
 51
340.4514417818351717
  0
ARC
  5
F7D8
  8
0
 10
3438.6221957994948752
 20
168.7344445977942087
 30
0.0
 40
0.0023072718272709
 50
285.9570509857546767
 51
311.0982895372723078
  0
ARC
  5
F7D9
  8
0
 10
3438.6229194650168211
 20
168.7333488094745064
 30
0.0
 40
0.0011261306639196
 50
233.0083848334305969
 51
265.4488227181241768
  0
ARC
  5
F7DA
  8
0
 10
3438.7304721500868254
 20
168.8244861064154918
 30
0.0
 40
0.1420723707693409
 50
211.3464203125276129
 51
220.3771441283707873
  0
LINE
  5
F7DB
  8
0
 10
3438.6205642912218536
 20
168.7562202888657055
 30
0.0
 11
3438.5736264876240966
 21
168.7330478745062123
 31
0.0
  0
LINE
  5
F7DC
  8
0
 10
3438.5747040732971982
 20
168.8584044340196044
 30
0.0
 11
3438.526480473527954
 21
168.8324842873462046
 31
0.0
  0
ARC
  5
F7DD
  8
0
 10
3438.5339177283090066
 20
168.8199132140661902
 30
0.0
 40
0.0146063219902665
 50
120.6092606995484999
 51
142.6369463142818859
  0
ARC
  5
F7DE
  8
0
 10
3438.533394006970866
 20
168.8213579664580095
 30
0.0
 40
0.0133391744862587
 50
146.2063769733468916
 51
186.2828526067559096
  0
ARC
  5
F7DF
  8
0
 10
3438.599278513191166
 20
168.8348668384855955
 30
0.0
 40
0.080546660450082
 50
190.7100216120045957
 51
203.1942855730902124
  0
ARC
  5
F7E0
  8
0
 10
3438.9790729598348662
 20
168.9827308372856862
 30
0.0
 40
0.4880718031401406
 50
201.5894080523187881
 51
205.0818811718573897
  0
ARC
  5
F7E1
  8
0
 10
3438.9728723315879506
 20
168.9768937058562983
 30
0.0
 40
0.4799888006447148
 50
204.7645753114578042
 51
208.2254358260829008
  0
ARC
  5
F7E2
  8
0
 10
3438.6364747451898438
 20
168.7948437779936057
 30
0.0
 40
0.0975007498520388
 50
207.4576623365674948
 51
215.9617760521092009
  0
ARC
  5
F7E3
  8
0
 10
3438.5690601069040895
 20
168.7458627065715007
 30
0.0
 40
0.0141709434811737
 50
215.732198325251403
 51
251.7920785138641975
  0
ARC
  5
F7E4
  8
0
 10
3438.5682937962119468
 20
168.7443477610306957
 30
0.0
 40
0.012495000326272
 50
252.9594949980109959
 51
295.2637648812989255
  0
ARC
  5
F7E5
  8
0
 10
3438.2725728058680943
 20
168.6538354416304912
 30
0.0
 40
0.2960478481578903
 50
24.8076409251159298
 51
27.001002822181519
  0
ARC
  5
F7E6
  8
0
 10
3438.3902903245020752
 20
168.7138181085078941
 30
0.0
 40
0.1639292101115726
 50
27.0010028221800695
 51
29.3066850743494385
  0
ARC
  5
F7E7
  8
0
 10
3438.4912498791991311
 20
168.7704894584908004
 30
0.0
 40
0.0481515197156614
 50
29.3066850743437612
 51
34.2805159168859532
  0
ARC
  5
F7E8
  8
0
 10
3438.5251694103421869
 20
168.7936108955366024
 30
0.0
 40
0.0071011184508354
 50
34.2805159169142115
 51
46.3524332409531681
  0
ARC
  5
F7E9
  8
0
 10
3438.5298461002930708
 20
168.798513746942092
 30
0.0
 40
0.0003254722975166
 50
46.3524332404565627
 51
102.4361224878478964
  0
ARC
  5
F7EA
  8
0
 10
3438.529868722926949
 20
168.7986678569311039
 30
0.0
 40
0.0001881538474914
 50
119.5217095183996037
 51
149.7278822905196023
  0
ARC
  5
F7EB
  8
0
 10
3438.5302990792019955
 20
168.7985183866688885
 30
0.0
 40
0.0006412236066324
 50
157.6030260936460081
 51
188.3799273381330863
  0
ARC
  5
F7EC
  8
0
 10
3438.5456659609421877
 20
168.8007122204975019
 30
0.0
 40
0.0161639093224561
 50
188.1349774472770093
 51
199.7817928488051109
  0
ARC
  5
F7ED
  8
0
 10
3438.7202888780511785
 20
168.8630975735997879
 30
0.0
 40
0.2015960611527888
 50
199.6694444541672055
 51
205.6061143846067125
  0
ARC
  5
F7EE
  8
0
 10
3438.7512458402438824
 20
168.8739101048786893
 30
0.0
 40
0.2342137179315194
 50
204.7184505251109101
 51
208.8522319730980996
  0
ARC
  5
F7EF
  8
0
 10
3438.5864814274118544
 20
168.7833034937789876
 30
0.0
 40
0.0461797888915376
 50
209.0359796342156926
 51
215.2184814578837972
  0
ARC
  5
F7F0
  8
0
 10
3438.5499866899172048
 20
168.7573054201087928
 30
0.0
 40
0.0013856122598902
 50
207.212051250634687
 51
255.044364329699988
  0
ARC
  5
F7F1
  8
0
 10
3438.5495174550392221
 20
168.7561720456506009
 30
0.0
 40
0.0002336965613697
 50
298.5385362958176074
 51
1.115708784278125
  0
ARC
  5
F7F2
  8
0
 10
3438.5343002468589475
 20
168.7544601363310903
 30
0.0
 40
0.0155459101473967
 50
6.3390836231702377
 51
21.1018666441903413
  0
ARC
  5
F7F3
  8
0
 10
3438.3462606675288953
 20
168.6861660372304073
 30
0.0
 40
0.2156004583445092
 50
20.0428083610150694
 51
25.22494346755051
  0
ARC
  5
F7F4
  8
0
 10
3438.2155758814387809
 20
168.6313891803185925
 30
0.0
 40
0.3702908410270351
 50
24.2592643651631299
 51
32.894806729574249
  0
ARC
  5
F7F5
  8
0
 10
3438.2186604046419234
 20
168.6185826566552066
 30
0.0
 40
0.3729652054684831
 50
17.8729464854792788
 51
26.2485660355313293
  0
ARC
  5
F7F6
  8
0
 10
3438.0186923106471113
 20
168.8305026441196901
 30
0.0
 40
0.5754752159633983
 50
24.9671762271604898
 51
28.9577604181190402
  0
ARC
  5
F7F7
  8
0
 10
3438.3393492920640711
 20
169.0291503596617133
 30
0.0
 40
0.1995944934806548
 50
23.6218073995108817
 51
32.8879310855043627
  0
ARC
  5
F7F8
  8
0
 10
3438.4960351093150166
 20
169.1318322271943941
 30
0.0
 40
0.0123174160695262
 50
27.5519780669139003
 51
59.4410458216575321
  0
ARC
  5
F7F9
  8
0
 10
3438.5015866895992076
 20
169.1412348035885032
 30
0.0
 40
0.0013982363158355
 50
59.4410458213578181
 51
143.6244556695963865
  0
ARC
  5
F7FA
  8
0
 10
3438.5120240522969652
 20
169.1400966450403871
 30
0.0
 40
0.011729328046824
 50
170.3438512585524052
 51
189.7676424752559967
  0
ARC
  5
F7FB
  8
0
 10
3438.7637151346830251
 20
169.1865779962284932
 30
0.0
 40
0.2676755994166819
 50
190.43279689571429
 51
194.8463044723544897
  0
ARC
  5
F7FC
  8
0
 10
3437.7925250280559339
 20
168.7285967023942987
 30
0.0
 40
0.8235272715007491
 50
20.219891341049621
 51
24.7527376778870689
  0
ARC
  5
F7FD
  8
0
 10
3438.4983737359830229
 20
168.988061906626001
 30
0.0
 40
0.0715020705897464
 50
5.2699754909234127
 51
20.6069978158947507
  0
ARC
  5
F7FE
  8
0
 10
3438.5620017364281011
 20
168.9937218090639988
 30
0.0
 40
0.0076260146396362
 50
340.4514417818382981
 51
6.8342448557125861
  0
ARC
  5
F7FF
  8
0
 10
3438.5646440170921778
 20
168.992783607502389
 30
0.0
 40
0.0048221121313219
 50
321.600131515463886
 51
340.4514417818351717
  0
ARC
  5
F800
  8
0
 10
3438.5669063902159905
 20
168.9915270927942004
 30
0.0
 40
0.0023072718272709
 50
285.9570509857546767
 51
311.0982895372723078
  0
ARC
  5
F801
  8
0
 10
3438.5676300557388458
 20
168.9904313044744129
 30
0.0
 40
0.0011261306639196
 50
233.0083848334305969
 51
265.4488227181241768
  0
ARC
  5
F802
  8
0
 10
3438.6751827408088502
 20
169.0815686014153982
 30
0.0
 40
0.1420723707693409
 50
211.3464203125276129
 51
220.3771441283707873
  0
LINE
  5
F803
  8
0
 10
3438.5652748819429689
 20
169.0133027838656972
 30
0.0
 11
3438.5183370783452119
 21
168.9901303695060903
 31
0.0
  0
LINE
  5
F804
  8
0
 10
3438.5152328134868185
 20
169.1235051116223076
 30
0.0
 11
3438.4670092137180291
 21
169.0975849649487941
 31
0.0
  0
ARC
  5
F805
  8
0
 10
3438.4744464684990817
 20
169.0850138916688934
 30
0.0
 40
0.0146063219902665
 50
120.6092606995484999
 51
142.6369463142818859
  0
ARC
  5
F806
  8
0
 10
3438.4739227471609411
 20
169.0864586440607127
 30
0.0
 40
0.0133391744862587
 50
146.2063769733468916
 51
186.2828526067559096
  0
ARC
  5
F807
  8
0
 10
3438.5398072533798768
 20
169.0999675160882134
 30
0.0
 40
0.080546660450082
 50
190.7100216120045957
 51
203.1942855730902124
  0
ARC
  5
F808
  8
0
 10
3438.9196017000249412
 20
169.2478315148883894
 30
0.0
 40
0.4880718031401406
 50
201.5894080523187881
 51
205.0818811718573897
  0
ARC
  5
F809
  8
0
 10
3439.223589834492941
 20
169.395581004745992
 30
0.0
 40
0.8260425190477562
 50
205.4254050779715044
 51
208.0635067658253945
  0
ARC
  5
F80A
  8
0
 10
3438.5811853359109591
 20
169.0519262729935122
 30
0.0
 40
0.0975007498520388
 50
207.4576623365674948
 51
215.9617760521092009
  0
ARC
  5
F80B
  8
0
 10
3438.5137706976261143
 20
169.0029452015714071
 30
0.0
 40
0.0141709434811737
 50
215.732198325251403
 51
251.7920785138641975
  0
ARC
  5
F80C
  8
0
 10
3438.5130043869339715
 20
169.0014302560306874
 30
0.0
 40
0.012495000326272
 50
252.9594949980109959
 51
295.2637648812989255
  0
ARC
  5
F80D
  8
0
 10
3438.2131015460581693
 20
168.9189361192331944
 30
0.0
 40
0.2960478481578903
 50
24.8076409251159298
 51
27.001002822181519
  0
ARC
  5
F80E
  8
0
 10
3438.3308190646930598
 20
168.9789187861105972
 30
0.0
 40
0.1639292101115726
 50
27.0010028221800695
 51
29.3066850743494385
  0
ARC
  5
F80F
  8
0
 10
3438.4317786193892061
 20
169.0355901360935036
 30
0.0
 40
0.0481515197156614
 50
29.3066850743437612
 51
34.2805159168859532
  0
ARC
  5
F810
  8
0
 10
3438.4656981505318072
 20
169.0587115731393055
 30
0.0
 40
0.0071011184508354
 50
34.2805159169142115
 51
46.3524332409531681
  0
ARC
  5
F811
  8
0
 10
3438.4703748404831458
 20
169.0636144245447099
 30
0.0
 40
0.0003254722975166
 50
46.3524332404565627
 51
102.4361224878478964
  0
ARC
  5
F812
  8
0
 10
3438.470397463117024
 20
169.063768534533807
 30
0.0
 40
0.0001881538474914
 50
119.5217095183996037
 51
149.7278822905196023
  0
ARC
  5
F813
  8
0
 10
3438.4708278193920705
 20
169.0636190642715064
 30
0.0
 40
0.0006412236066324
 50
157.6030260936460081
 51
188.3799273381330863
  0
ARC
  5
F814
  8
0
 10
3438.486194701131808
 20
169.0658128981002051
 30
0.0
 40
0.0161639093224561
 50
188.1349774472770093
 51
199.7817928488051109
  0
ARC
  5
F815
  8
0
 10
3438.6608176182407988
 20
169.1281982512024911
 30
0.0
 40
0.2015960611527888
 50
199.6694444541672055
 51
205.6061143846067125
  0
ARC
  5
F816
  8
0
 10
3438.9763411596959486
 20
169.2804535903441092
 30
0.0
 40
0.5519337154265748
 50
205.7035087000573128
 51
208.3962625615868092
  0
ARC
  5
F817
  8
0
 10
3438.5311920181338792
 20
169.0403859887790077
 30
0.0
 40
0.0461797888915376
 50
209.0359796342156926
 51
215.2184814578837972
  0
ARC
  5
F818
  8
0
 10
3438.4946972806378653
 20
169.0143879151086992
 30
0.0
 40
0.0013856122598902
 50
207.212051250634687
 51
255.044364329699988
  0
ARC
  5
F819
  8
0
 10
3438.4942280457607922
 20
169.0132545406505074
 30
0.0
 40
0.0002336965613697
 50
298.5385362958176074
 51
1.115708784278125
  0
ARC
  5
F81A
  8
0
 10
3438.4790108375809723
 20
169.0115426313309968
 30
0.0
 40
0.0155459101473967
 50
6.3390836231702377
 51
21.1018666441903413
  0
ARC
  5
F81B
  8
0
 10
3438.067188107821039
 20
168.8412647054927902
 30
0.0
 40
0.461178887418722
 50
22.4179087848083007
 51
25.9609740667838302
  0
ARC
  5
F81C
  8
0
 10
3438.0437400055711805
 20
168.8315663067043886
 30
0.0
 40
0.4999422060251446
 50
24.7171570374969214
 51
32.1486238224735317
  0
ARC
  5
F81D
  8
0
 10
3438.1633709953639482
 20
168.875665151655113
 30
0.0
 40
0.3729652054684831
 50
17.8729464854792788
 51
26.2485660355313293
  0
ARC
  5
F81E
  8
0
 10
3437.8884339680680569
 20
169.0552828374775061
 30
0.0
 40
0.5754752159633983
 50
24.9671762271604898
 51
28.9577604181190402
  0
ARC
  5
F81F
  8
0
 10
3438.2090909494841071
 20
169.2539305530195008
 30
0.0
 40
0.1995944934806548
 50
23.6218073995108817
 51
32.8879310855043627
  0
ARC
  5
F820
  8
0
 10
3438.3657767667350527
 20
169.3566124205522101
 30
0.0
 40
0.0123174160695262
 50
27.5519780669139003
 51
59.4410458216575321
  0
ARC
  5
F821
  8
0
 10
3438.3713283470178794
 20
169.3660149969462907
 30
0.0
 40
0.0013982363158355
 50
59.4410458213578181
 51
143.6244556695963865
  0
ARC
  5
F822
  8
0
 10
3438.3817657097170013
 20
169.3648768383982031
 30
0.0
 40
0.011729328046824
 50
170.3438512585524052
 51
189.7676424752559967
  0
ARC
  5
F823
  8
0
 10
3438.6334567921030612
 20
169.4113581895863945
 30
0.0
 40
0.2676755994166819
 50
190.43279689571429
 51
194.8463044723544897
  0
ARC
  5
F824
  8
0
 10
3437.2236778721858173
 20
168.7364598289798892
 30
0.0
 40
1.3127116629978619
 50
21.74521795503437
 51
25.3353859009885909
  0
ARC
  5
F825
  8
0
 10
3438.3760504778479117
 20
169.1976275542785118
 30
0.0
 40
0.0715020705897464
 50
5.2699754909234127
 51
20.6069978158947507
  0
ARC
  5
F826
  8
0
 10
3438.4396784782929899
 20
169.2032874567163958
 30
0.0
 40
0.0076260146396362
 50
340.4514417818382981
 51
6.8342448557125861
  0
ARC
  5
F827
  8
0
 10
3438.4423207589570666
 20
169.2023492551548998
 30
0.0
 40
0.0048221121313219
 50
321.600131515463886
 51
340.4514417818351717
  0
ARC
  5
F828
  8
0
 10
3438.4445831320799698
 20
169.2010927404467111
 30
0.0
 40
0.0023072718272709
 50
285.9570509857546767
 51
311.0982895372723078
  0
ARC
  5
F829
  8
0
 10
3438.4453067976028251
 20
169.1999969521268952
 30
0.0
 40
0.0011261306639196
 50
233.0083848334305969
 51
265.4488227181241768
  0
ARC
  5
F82A
  8
0
 10
3438.5528594826741937
 20
169.291134249067909
 30
0.0
 40
0.1420723707693409
 50
211.3464203125276129
 51
220.3771441283707873
  0
LINE
  5
F82B
  8
0
 10
3438.4429516238092219
 20
169.2228684315182079
 30
0.0
 11
3438.3960138202091912
 21
169.1996960171586011
 31
0.0
  0
LINE
  5
F82C
  8
0
 10
3438.3849744709068545
 20
169.3482853049800951
 30
0.0
 11
3438.3367508711380651
 21
169.3223651583066101
 31
0.0
  0
ARC
  5
F82D
  8
0
 10
3438.3441881259182082
 20
169.3097940850267094
 30
0.0
 40
0.0146063219902665
 50
120.6092606995484999
 51
142.6369463142818859
  0
ARC
  5
F82E
  8
0
 10
3438.3436644045809771
 20
169.3112388374185002
 30
0.0
 40
0.0133391744862587
 50
146.2063769733468916
 51
186.2828526067559096
  0
ARC
  5
F82F
  8
0
 10
3438.4095489107999128
 20
169.3247477094460862
 30
0.0
 40
0.080546660450082
 50
190.7100216120045957
 51
203.1942855730902124
  0
ARC
  5
F830
  8
0
 10
3438.7893433574440678
 20
169.4726117082462054
 30
0.0
 40
0.4880718031401406
 50
201.5894080523187881
 51
205.0818811718573897
  0
ARC
  5
F831
  8
0
 10
3439.9095746242928726
 20
170.0305270188673035
 30
0.0
 40
1.7394421837757781
 50
206.0841026425256928
 51
207.9020558372496055
  0
ARC
  5
F832
  8
0
 10
3438.4588620777758479
 20
169.2614919206459945
 30
0.0
 40
0.0975007498520388
 50
207.4576623365674948
 51
215.9617760521092009
  0
ARC
  5
F833
  8
0
 10
3438.3914474394900935
 20
169.2125108492238894
 30
0.0
 40
0.0141709434811737
 50
215.732198325251403
 51
251.7920785138641975
  0
ARC
  5
F834
  8
0
 10
3438.3906811287988603
 20
169.2109959036831981
 30
0.0
 40
0.012495000326272
 50
252.9594949980109959
 51
295.2637648812989255
  0
ARC
  5
F835
  8
0
 10
3438.0828432034782054
 20
169.1437163125910104
 30
0.0
 40
0.2960478481578903
 50
24.8076409251159298
 51
27.001002822181519
  0
ARC
  5
F836
  8
0
 10
3438.2005607221121863
 20
169.2036989794684132
 30
0.0
 40
0.1639292101115726
 50
27.0010028221800695
 51
29.3066850743494385
  0
ARC
  5
F837
  8
0
 10
3438.3015202768087875
 20
169.2603703294512911
 30
0.0
 40
0.0481515197156614
 50
29.3066850743437612
 51
34.2805159168859532
  0
ARC
  5
F838
  8
0
 10
3438.3354398079518432
 20
169.2834917664970931
 30
0.0
 40
0.0071011184508354
 50
34.2805159169142115
 51
46.3524332409531681
  0
ARC
  5
F839
  8
0
 10
3438.3401164979018176
 20
169.2883946179024974
 30
0.0
 40
0.0003254722975166
 50
46.3524332404565627
 51
102.4361224878478964
  0
ARC
  5
F83A
  8
0
 10
3438.3401391205370601
 20
169.2885487278915946
 30
0.0
 40
0.0001881538474914
 50
119.5217095183996037
 51
149.7278822905196023
  0
ARC
  5
F83B
  8
0
 10
3438.3405694768121066
 20
169.288399257629294
 30
0.0
 40
0.0006412236066324
 50
157.6030260936460081
 51
188.3799273381330863
  0
ARC
  5
F83C
  8
0
 10
3438.3559363585509345
 20
169.2905930914579073
 30
0.0
 40
0.0161639093224561
 50
188.1349774472770093
 51
199.7817928488051109
  0
ARC
  5
F83D
  8
0
 10
3438.5305592756608348
 20
169.352978444560307
 30
0.0
 40
0.2015960611527888
 50
199.6694444541672055
 51
205.6061143846067125
  0
ARC
  5
F83E
  8
0
 10
3439.7130807752541841
 20
169.9441844730982893
 30
0.0
 40
1.5236464283916309
 50
206.4363380376356929
 51
208.0569970466908956
  0
ARC
  5
F83F
  8
0
 10
3438.4088687599978584
 20
169.24995163643149
 30
0.0
 40
0.0461797888915376
 50
209.0359796342156926
 51
215.2184814578837972
  0
ARC
  5
F840
  8
0
 10
3438.3723740225018446
 20
169.2239535627612099
 30
0.0
 40
0.0013856122598902
 50
207.212051250634687
 51
255.044364329699988
  0
ARC
  5
F841
  8
0
 10
3438.3719047876261357
 20
169.2228201883031034
 30
0.0
 40
0.0002336965613697
 50
298.5385362958176074
 51
1.115708784278125
  0
ARC
  5
F842
  8
0
 10
3438.3566875794449516
 20
169.2211082789835075
 30
0.0
 40
0.0155459101473967
 50
6.3390836231702377
 51
21.1018666441903413
  0
ARC
  5
F843
  8
0
 10
3437.2941493360867753
 20
168.7394240515417891
 30
0.0
 40
1.182142847318191
 50
24.3432113629136815
 51
26.5561447072272685
  0
ARC
  5
F844
  8
0
 10
3438.0258462790479825
 20
169.1212700512789979
 30
0.0
 40
0.3702908410270351
 50
24.2592643651631299
 51
32.894806729574249
  0
ARC
  5
F845
  8
0
 10
3437.6344085063728926
 20
168.907192764727597
 30
0.0
 40
0.8158434335522613
 50
21.0099020758248685
 51
26.6722323476938108
  0
ARC
  5
F846
  8
0
 10
3437.7976194660632245
 20
169.2951024618259908
 30
0.0
 40
0.5754752159633983
 50
24.9671762271604898
 51
28.9577604181190402
  0
ARC
  5
F847
  8
0
 10
3438.11827644747882
 20
169.4937501773680992
 30
0.0
 40
0.1995944934806548
 50
23.6218073995108817
 51
32.8879310855043627
  0
ARC
  5
F848
  8
0
 10
3438.2749622647302203
 20
169.5964320449006948
 30
0.0
 40
0.0123174160695262
 50
27.5519780669139003
 51
59.4410458216575321
  0
ARC
  5
F849
  8
0
 10
3438.2805138450130471
 20
169.6058346212948891
 30
0.0
 40
0.0013982363158355
 50
59.4410458213578181
 51
143.6244556695963865
  0
ARC
  5
F84A
  8
0
 10
3438.290951207712169
 20
169.6046964627468014
 30
0.0
 40
0.011729328046824
 50
170.3438512585524052
 51
189.7676424752559967
  0
ARC
  5
F84B
  8
0
 10
3438.5426422900977741
 20
169.6511778139349076
 30
0.0
 40
0.2676755994166819
 50
190.43279689571429
 51
194.8463044723544897
  0
ARC
  5
F84C
  8
0
 10
3437.7618200081619761
 20
169.2862637931970085
 30
0.0
 40
0.6117011841006881
 50
19.042728450990051
 51
24.3022971975945303
  0
ARC
  5
F84D
  8
0
 10
3438.2731190408671864
 20
169.4606799069350984
 30
0.0
 40
0.0715020705897464
 50
5.2699754909234127
 51
20.6069978158947507
  0
ARC
  5
F84E
  8
0
 10
3438.3367470413118099
 20
169.4663398093730962
 30
0.0
 40
0.0076260146396362
 50
340.4514417818382981
 51
6.8342448557125861
  0
ARC
  5
F84F
  8
0
 10
3438.3393893219758866
 20
169.4654016078116001
 30
0.0
 40
0.0048221121313219
 50
321.600131515463886
 51
340.4514417818351717
  0
ARC
  5
F850
  8
0
 10
3438.3416516950987898
 20
169.4641450931032978
 30
0.0
 40
0.0023072718272709
 50
285.9570509857546767
 51
311.0982895372723078
  0
ARC
  5
F851
  8
0
 10
3438.3423753606230093
 20
169.4630493047835103
 30
0.0
 40
0.0011261306639196
 50
233.0083848334305969
 51
265.4488227181241768
  0
ARC
  5
F852
  8
0
 10
3438.4499280456930137
 20
169.5541866017246093
 30
0.0
 40
0.1420723707693409
 50
211.3464203125276129
 51
220.3771441283707873
  0
LINE
  5
F853
  8
0
 10
3438.3400201868271324
 20
169.4859207841747946
 30
0.0
 11
3438.2930823832280112
 21
169.4627483698153014
 31
0.0
  0
LINE
  5
F854
  8
0
 10
3438.2941599689020222
 20
169.5881049293286083
 30
0.0
 11
3438.2459363691341423
 21
169.5621847826552084
 31
0.0
  0
ARC
  5
F855
  8
0
 10
3438.2533736239138307
 20
169.5496137093753077
 30
0.0
 40
0.0146063219902665
 50
120.6092606995484999
 51
142.6369463142818859
  0
ARC
  5
F856
  8
0
 10
3438.2528499025761448
 20
169.5510584617670986
 30
0.0
 40
0.0133391744862587
 50
146.2063769733468916
 51
186.2828526067559096
  0
ARC
  5
F857
  8
0
 10
3438.3187344087950805
 20
169.564567333794713
 30
0.0
 40
0.080546660450082
 50
190.7100216120045957
 51
203.1942855730902124
  0
ARC
  5
F858
  8
0
 10
3438.6985288554387807
 20
169.71243133259469
 30
0.0
 40
0.4880718031401406
 50
201.5894080523187881
 51
205.0818811718573897
  0
ARC
  5
F859
  8
0
 10
3438.6923282271927746
 20
169.7065942011653874
 30
0.0
 40
0.4799888006447148
 50
204.7645753114578042
 51
208.2254358260829008
  0
ARC
  5
F85A
  8
0
 10
3438.3559306407951226
 20
169.5245442733026096
 30
0.0
 40
0.0975007498520388
 50
207.4576623365674948
 51
215.9617760521092009
  0
ARC
  5
F85B
  8
0
 10
3438.2885160025089135
 20
169.4755632018805898
 30
0.0
 40
0.0141709434811737
 50
215.732198325251403
 51
251.7920785138641975
  0
ARC
  5
F85C
  8
0
 10
3438.287749691818135
 20
169.4740482563398132
 30
0.0
 40
0.012495000326272
 50
252.9594949980109959
 51
295.2637648812989255
  0
ARC
  5
F85D
  8
0
 10
3437.9920287014729183
 20
169.3835359369396087
 30
0.0
 40
0.2960478481578903
 50
24.8076409251159298
 51
27.001002822181519
  0
ARC
  5
F85E
  8
0
 10
3438.1097462201078088
 20
169.4435186038170116
 30
0.0
 40
0.1639292101115726
 50
27.0010028221800695
 51
29.3066850743494385
  0
ARC
  5
F85F
  8
0
 10
3438.2107057748039551
 20
169.5001899537998895
 30
0.0
 40
0.0481515197156614
 50
29.3066850743437612
 51
34.2805159168859532
  0
ARC
  5
F860
  8
0
 10
3438.2446253059470109
 20
169.5233113908456914
 30
0.0
 40
0.0071011184508354
 50
34.2805159169142115
 51
46.3524332409531681
  0
ARC
  5
F861
  8
0
 10
3438.2493019958969853
 20
169.5282142422510958
 30
0.0
 40
0.0003254722975166
 50
46.3524332404565627
 51
102.4361224878478964
  0
ARC
  5
F862
  8
0
 10
3438.2493246185308635
 20
169.528368352240193
 30
0.0
 40
0.0001881538474914
 50
119.5217095183996037
 51
149.7278822905196023
  0
ARC
  5
F863
  8
0
 10
3438.2497549748068195
 20
169.5282188819778924
 30
0.0
 40
0.0006412236066324
 50
157.6030260936460081
 51
188.3799273381330863
  0
ARC
  5
F864
  8
0
 10
3438.2651218565461022
 20
169.5304127158065057
 30
0.0
 40
0.0161639093224561
 50
188.1349774472770093
 51
199.7817928488051109
  0
ARC
  5
F865
  8
0
 10
3438.4397447736560025
 20
169.5927980689089054
 30
0.0
 40
0.2015960611527888
 50
199.6694444541672055
 51
205.6061143846067125
  0
ARC
  5
F866
  8
0
 10
3438.470701735847797
 20
169.6036106001878068
 30
0.0
 40
0.2342137179315194
 50
204.7184505251109101
 51
208.8522319730980996
  0
ARC
  5
F867
  8
0
 10
3438.3059373230171332
 20
169.5130039890881051
 30
0.0
 40
0.0461797888915376
 50
209.0359796342156926
 51
215.2184814578837972
  0
ARC
  5
F868
  8
0
 10
3438.2694425855220288
 20
169.4870059154177966
 30
0.0
 40
0.0013856122598902
 50
207.212051250634687
 51
255.044364329699988
  0
ARC
  5
F869
  8
0
 10
3438.2689733506449556
 20
169.48587254095969
 30
0.0
 40
0.0002336965613697
 50
298.5385362958176074
 51
1.115708784278125
  0
ARC
  5
F86A
  8
0
 10
3438.2537561424642263
 20
169.4841606316400942
 30
0.0
 40
0.0155459101473967
 50
6.3390836231702377
 51
21.1018666441903413
  0
ARC
  5
F86B
  8
0
 10
3438.0657165631341741
 20
169.4158665325394963
 30
0.0
 40
0.2156004583445092
 50
20.0428083610150694
 51
25.22494346755051
  0
ARC
  5
F86C
  8
0
 10
3437.9350317770431502
 20
169.36108967562771
 30
0.0
 40
0.3702908410270351
 50
24.2592643651631299
 51
32.894806729574249
  0
ARC
  5
F86D
  8
0
 10
3437.9381163002472022
 20
169.3482831519642104
 30
0.0
 40
0.3729652054684831
 50
17.8729464854792788
 51
26.2485660355313293
  0
ARC
  5
F86E
  8
0
 10
3438.2857561047298987
 20
168.0900262185724046
 30
0.0
 40
0.5754752159633983
 50
24.9671762271604898
 51
28.9577604181190402
  0
ARC
  5
F86F
  8
0
 10
3438.6064130861468584
 20
168.2886739341143993
 30
0.0
 40
0.1995944934806548
 50
23.6218073995108817
 51
32.8879310855043627
  0
ARC
  5
F870
  8
0
 10
3438.7630989033968945
 20
168.3913558016469949
 30
0.0
 40
0.0123174160695262
 50
27.5519780669139003
 51
59.4410458216575321
  0
ARC
  5
F871
  8
0
 10
3438.7686504836810855
 20
168.4007583780411892
 30
0.0
 40
0.0013982363158355
 50
59.4410458213578181
 51
143.6244556695963865
  0
ARC
  5
F872
  8
0
 10
3438.7790878463802073
 20
168.3996202194931016
 30
0.0
 40
0.011729328046824
 50
170.3438512585524052
 51
189.7676424752559967
  0
ARC
  5
F873
  8
0
 10
3439.0307789287658125
 20
168.4461015706812077
 30
0.0
 40
0.2676755994166819
 50
190.43279689571429
 51
194.8463044723544897
  0
ARC
  5
F874
  8
0
 10
3438.2499566468300145
 20
168.0811875499433086
 30
0.0
 40
0.6117011841006881
 50
19.042728450990051
 51
24.3022971975945303
  0
ARC
  5
F875
  8
0
 10
3438.7612556795338605
 20
168.2556036636813985
 30
0.0
 40
0.0715020705897464
 50
5.2699754909234127
 51
20.6069978158947507
  0
ARC
  5
F876
  8
0
 10
3438.8248836799798482
 20
168.2612635661193963
 30
0.0
 40
0.0076260146396362
 50
340.4514417818382981
 51
6.8342448557125861
  0
ARC
  5
F877
  8
0
 10
3438.8275259606430154
 20
168.2603253645579002
 30
0.0
 40
0.0048221121313219
 50
321.600131515463886
 51
340.4514417818351717
  0
ARC
  5
F878
  8
0
 10
3438.8297883337668281
 20
168.2590688498495979
 30
0.0
 40
0.0023072718272709
 50
285.9570509857546767
 51
311.0982895372723078
  0
ARC
  5
F879
  8
0
 10
3438.8305119992901382
 20
168.2579730615298104
 30
0.0
 40
0.0011261306639196
 50
233.0083848334305969
 51
265.4488227181241768
  0
ARC
  5
F87A
  8
0
 10
3438.9380646843610521
 20
168.3491103584709094
 30
0.0
 40
0.1420723707693409
 50
211.3464203125276129
 51
220.3771441283707873
  0
LINE
  5
F87B
  8
0
 10
3438.8281568254951708
 20
168.2808445409210947
 30
0.0
 11
3438.7812190218960495
 21
168.2576721265616015
 31
0.0
  0
LINE
  5
F87C
  8
0
 10
3438.7822966075700606
 20
168.3830286860749084
 30
0.0
 11
3438.7340730077999069
 21
168.3571085394015086
 31
0.0
  0
ARC
  5
F87D
  8
0
 10
3438.7415102625809595
 20
168.3445374661216078
 30
0.0
 40
0.0146063219902665
 50
120.6092606995484999
 51
142.6369463142818859
  0
ARC
  5
F87E
  8
0
 10
3438.7409865412441832
 20
168.3459822185133987
 30
0.0
 40
0.0133391744862587
 50
146.2063769733468916
 51
186.2828526067559096
  0
ARC
  5
F87F
  8
0
 10
3438.8068710474631189
 20
168.3594910905410131
 30
0.0
 40
0.080546660450082
 50
190.7100216120045957
 51
203.1942855730902124
  0
ARC
  5
F880
  8
0
 10
3439.1866654941068191
 20
168.5073550893409902
 30
0.0
 40
0.4880718031401406
 50
201.5894080523187881
 51
205.0818811718573897
  0
ARC
  5
F881
  8
0
 10
3439.180464865860813
 20
168.5015179579116875
 30
0.0
 40
0.4799888006447148
 50
204.7645753114578042
 51
208.2254358260829008
  0
ARC
  5
F882
  8
0
 10
3438.8440672794617967
 20
168.3194680300489949
 30
0.0
 40
0.0975007498520388
 50
207.4576623365674948
 51
215.9617760521092009
  0
ARC
  5
F883
  8
0
 10
3438.7766526411769519
 20
168.2704869586268899
 30
0.0
 40
0.0141709434811737
 50
215.732198325251403
 51
251.7920785138641975
  0
ARC
  5
F884
  8
0
 10
3438.7758863304848092
 20
168.2689720130861133
 30
0.0
 40
0.012495000326272
 50
252.9594949980109959
 51
295.2637648812989255
  0
ARC
  5
F885
  8
0
 10
3438.4801653401400472
 20
168.1784596936859089
 30
0.0
 40
0.2960478481578903
 50
24.8076409251159298
 51
27.001002822181519
  0
ARC
  5
F886
  8
0
 10
3438.5978828587749376
 20
168.2384423605633117
 30
0.0
 40
0.1639292101115726
 50
27.0010028221800695
 51
29.3066850743494385
  0
ARC
  5
F887
  8
0
 10
3438.698842413471084
 20
168.2951137105461896
 30
0.0
 40
0.0481515197156614
 50
29.3066850743437612
 51
34.2805159168859532
  0
ARC
  5
F888
  8
0
 10
3438.7327619446141398
 20
168.3182351475919916
 30
0.0
 40
0.0071011184508354
 50
34.2805159169142115
 51
46.3524332409531681
  0
ARC
  5
F889
  8
0
 10
3438.7374386345650237
 20
168.3231379989973959
 30
0.0
 40
0.0003254722975166
 50
46.3524332404565627
 51
102.4361224878478964
  0
ARC
  5
F88A
  8
0
 10
3438.7374612571989019
 20
168.3232921089864931
 30
0.0
 40
0.0001881538474914
 50
119.5217095183996037
 51
149.7278822905196023
  0
ARC
  5
F88B
  8
0
 10
3438.7378916134739484
 20
168.3231426387241925
 30
0.0
 40
0.0006412236066324
 50
157.6030260936460081
 51
188.3799273381330863
  0
ARC
  5
F88C
  8
0
 10
3438.7532584952141406
 20
168.3253364725528058
 30
0.0
 40
0.0161639093224561
 50
188.1349774472770093
 51
199.7817928488051109
  0
ARC
  5
F88D
  8
0
 10
3438.9278814123240409
 20
168.3877218256552055
 30
0.0
 40
0.2015960611527888
 50
199.6694444541672055
 51
205.6061143846067125
  0
ARC
  5
F88E
  8
0
 10
3438.9588383745158353
 20
168.3985343569341069
 30
0.0
 40
0.2342137179315194
 50
204.7184505251109101
 51
208.8522319730980996
  0
ARC
  5
F88F
  8
0
 10
3438.7940739616838073
 20
168.3079277458344052
 30
0.0
 40
0.0461797888915376
 50
209.0359796342156926
 51
215.2184814578837972
  0
ARC
  5
F890
  8
0
 10
3438.7575792241891577
 20
168.2819296721640967
 30
0.0
 40
0.0013856122598902
 50
207.212051250634687
 51
255.044364329699988
  0
ARC
  5
F891
  8
0
 10
3438.757109989312994
 20
168.2807962977059901
 30
0.0
 40
0.0002336965613697
 50
298.5385362958176074
 51
1.115708784278125
  0
ARC
  5
F892
  8
0
 10
3438.7418927811309004
 20
168.2790843883863943
 30
0.0
 40
0.0155459101473967
 50
6.3390836231702377
 51
21.1018666441903413
  0
ARC
  5
F893
  8
0
 10
3438.5538532018022124
 20
168.2107902892857965
 30
0.0
 40
0.2156004583445092
 50
20.0428083610150694
 51
25.22494346755051
  0
ARC
  5
F894
  8
0
 10
3438.4231684157111886
 20
168.1560134323740101
 30
0.0
 40
0.3702908410270351
 50
24.2592643651631299
 51
32.894806729574249
  0
ARC
  5
F895
  8
0
 10
3438.4262529389147858
 20
168.1432069087105106
 30
0.0
 40
0.3729652054684831
 50
17.8729464854792788
 51
26.2485660355313293
  0
ARC
  5
F896
  8
0
 10
3438.1494734998950662
 20
168.314549134448896
 30
0.0
 40
0.5754752159633983
 50
24.9671762271604898
 51
28.9577604181190402
  0
ARC
  5
F897
  8
0
 10
3438.4701304813120259
 20
168.5131968499908908
 30
0.0
 40
0.1995944934806548
 50
23.6218073995108817
 51
32.8879310855043627
  0
ARC
  5
F898
  8
0
 10
3438.626816298562062
 20
168.6158787175236
 30
0.0
 40
0.0123174160695262
 50
27.5519780669139003
 51
59.4410458216575321
  0
ARC
  5
F899
  8
0
 10
3438.6323678788457983
 20
168.625281293917709
 30
0.0
 40
0.0013982363158355
 50
59.4410458213578181
 51
143.6244556695963865
  0
ARC
  5
F89A
  8
0
 10
3438.6428052415449201
 20
168.624143135369593
 30
0.0
 40
0.011729328046824
 50
170.3438512585524052
 51
189.7676424752559967
  0
ARC
  5
F89B
  8
0
 10
3438.89449632393098
 20
168.6706244865576991
 30
0.0
 40
0.2676755994166819
 50
190.43279689571429
 51
194.8463044723544897
  0
ARC
  5
F89C
  8
0
 10
3438.1136740419951821
 20
168.3057104658198
 30
0.0
 40
0.6117011841006881
 50
19.042728450990051
 51
24.3022971975945303
  0
ARC
  5
F89D
  8
0
 10
3438.6249730746990281
 20
168.48012657955789
 30
0.0
 40
0.0715020705897464
 50
5.2699754909234127
 51
20.6069978158947507
  0
ARC
  5
F89E
  8
0
 10
3438.6886010751450158
 20
168.4857864819958877
 30
0.0
 40
0.0076260146396362
 50
340.4514417818382981
 51
6.8342448557125861
  0
ARC
  5
F89F
  8
0
 10
3438.691243355808183
 20
168.4848482804343917
 30
0.0
 40
0.0048221121313219
 50
321.600131515463886
 51
340.4514417818351717
  0
ARC
  5
F8A0
  8
0
 10
3438.6935057289329052
 20
168.4835917657260893
 30
0.0
 40
0.0023072718272709
 50
285.9570509857546767
 51
311.0982895372723078
  0
ARC
  5
F8A1
  8
0
 10
3438.694229394454851
 20
168.4824959774063018
 30
0.0
 40
0.0011261306639196
 50
233.0083848334305969
 51
265.4488227181241768
  0
ARC
  5
F8A2
  8
0
 10
3438.8017820795262196
 20
168.5736332743474009
 30
0.0
 40
0.1420723707693409
 50
211.3464203125276129
 51
220.3771441283707873
  0
LINE
  5
F8A3
  8
0
 10
3438.6918742206598836
 20
168.5053674567975861
 30
0.0
 11
3438.6449364170621266
 21
168.482195042438093
 31
0.0
  0
LINE
  5
F8A4
  8
0
 10
3438.6460140027347734
 20
168.6075516019515135
 30
0.0
 11
3438.597790402965984
 21
168.581631455278
 31
0.0
  0
ARC
  5
F8A5
  8
0
 10
3438.6052276577461271
 20
168.5690603819980993
 30
0.0
 40
0.0146063219902665
 50
120.6092606995484999
 51
142.6369463142818859
  0
ARC
  5
F8A6
  8
0
 10
3438.604703936408896
 20
168.5705051343898901
 30
0.0
 40
0.0133391744862587
 50
146.2063769733468916
 51
186.2828526067559096
  0
ARC
  5
F8A7
  8
0
 10
3438.6705884426278317
 20
168.5840140064173909
 30
0.0
 40
0.080546660450082
 50
190.7100216120045957
 51
203.1942855730902124
  0
ARC
  5
F8A8
  8
0
 10
3439.0503828892719866
 20
168.73187800521751
 30
0.0
 40
0.4880718031401406
 50
201.5894080523187881
 51
205.0818811718573897
  0
ARC
  5
F8A9
  8
0
 10
3439.04418226102689
 20
168.7260408737882074
 30
0.0
 40
0.4799888006447148
 50
204.7645753114578042
 51
208.2254358260829008
  0
ARC
  5
F8AA
  8
0
 10
3438.7077846746269643
 20
168.5439909459254011
 30
0.0
 40
0.0975007498520388
 50
207.4576623365674948
 51
215.9617760521092009
  0
ARC
  5
F8AB
  8
0
 10
3438.6403700363421194
 20
168.4950098745034097
 30
0.0
 40
0.0141709434811737
 50
215.732198325251403
 51
251.7920785138641975
  0
ARC
  5
F8AC
  8
0
 10
3438.6396037256508862
 20
168.4934949289626047
 30
0.0
 40
0.012495000326272
 50
252.9594949980109959
 51
295.2637648812989255
  0
ARC
  5
F8AD
  8
0
 10
3438.3438827353061242
 20
168.4029826095624003
 30
0.0
 40
0.2960478481578903
 50
24.8076409251159298
 51
27.001002822181519
  0
ARC
  5
F8AE
  8
0
 10
3438.4616002539401052
 20
168.4629652764398031
 30
0.0
 40
0.1639292101115726
 50
27.0010028221800695
 51
29.3066850743494385
  0
ARC
  5
F8AF
  8
0
 10
3438.562559808637161
 20
168.5196366264225958
 30
0.0
 40
0.0481515197156614
 50
29.3066850743437612
 51
34.2805159168859532
  0
ARC
  5
F8B0
  8
0
 10
3438.5964793397802168
 20
168.5427580634685114
 30
0.0
 40
0.0071011184508354
 50
34.2805159169142115
 51
46.3524332409531681
  0
ARC
  5
F8B1
  8
0
 10
3438.6011560297301912
 20
168.547660914874001
 30
0.0
 40
0.0003254722975166
 50
46.3524332404565627
 51
102.4361224878478964
  0
ARC
  5
F8B2
  8
0
 10
3438.6011786523649789
 20
168.5478150248630129
 30
0.0
 40
0.0001881538474914
 50
119.5217095183996037
 51
149.7278822905196023
  0
ARC
  5
F8B3
  8
0
 10
3438.6016090086391159
 20
168.5476655546007123
 30
0.0
 40
0.0006412236066324
 50
157.6030260936460081
 51
188.3799273381330863
  0
ARC
  5
F8B4
  8
0
 10
3438.6169758903802176
 20
168.5498593884292973
 30
0.0
 40
0.0161639093224561
 50
188.1349774472770093
 51
199.7817928488051109
  0
ARC
  5
F8B5
  8
0
 10
3438.7915988074892084
 20
168.6122447415316969
 30
0.0
 40
0.2015960611527888
 50
199.6694444541672055
 51
205.6061143846067125
  0
ARC
  5
F8B6
  8
0
 10
3438.8225557696810029
 20
168.6230572728105983
 30
0.0
 40
0.2342137179315194
 50
204.7184505251109101
 51
208.8522319730980996
  0
ARC
  5
F8B7
  8
0
 10
3438.6577913568489748
 20
168.5324506617108966
 30
0.0
 40
0.0461797888915376
 50
209.0359796342156926
 51
215.2184814578837972
  0
ARC
  5
F8B8
  8
0
 10
3438.62129661935478
 20
168.5064525880405881
 30
0.0
 40
0.0013856122598902
 50
207.212051250634687
 51
255.044364329699988
  0
ARC
  5
F8B9
  8
0
 10
3438.6208273844781615
 20
168.50531921358251
 30
0.0
 40
0.0002336965613697
 50
298.5385362958176074
 51
1.115708784278125
  0
ARC
  5
F8BA
  8
0
 10
3438.6056101762960679
 20
168.5036073042629141
 30
0.0
 40
0.0155459101473967
 50
6.3390836231702377
 51
21.1018666441903413
  0
ARC
  5
F8BB
  8
0
 10
3438.4175705969669252
 20
168.4353132051622879
 30
0.0
 40
0.2156004583445092
 50
20.0428083610150694
 51
25.22494346755051
  0
ARC
  5
F8BC
  8
0
 10
3438.2868858108759014
 20
168.3805363482503878
 30
0.0
 40
0.3702908410270351
 50
24.2592643651631299
 51
32.894806729574249
  0
ARC
  5
F8BD
  8
0
 10
3438.2899703340799533
 20
168.367729824587002
 30
0.0
 40
0.3729652054684831
 50
17.8729464854792788
 51
26.2485660355313293
  0
ARC
  5
F8BE
  8
0
 10
3438.5094283561238626
 20
167.6335053736196983
 30
0.0
 40
0.5754752159633983
 50
24.9671762271604898
 51
28.9577604181190402
  0
ARC
  5
F8BF
  8
0
 10
3438.8300853375408224
 20
167.8321530891618067
 30
0.0
 40
0.1995944934806548
 50
23.6218073995108817
 51
32.8879310855043627
  0
ARC
  5
F8C0
  8
0
 10
3438.9867711547908584
 20
167.9348349566944023
 30
0.0
 40
0.0123174160695262
 50
27.5519780669139003
 51
59.4410458216575321
  0
ARC
  5
F8C1
  8
0
 10
3438.9923227350741399
 20
167.9442375330885966
 30
0.0
 40
0.0013982363158355
 50
59.4410458213578181
 51
143.6244556695963865
  0
ARC
  5
F8C2
  8
0
 10
3439.0027600977728071
 20
167.943099374540509
 30
0.0
 40
0.011729328046824
 50
170.3438512585524052
 51
189.7676424752559967
  0
ARC
  5
F8C3
  8
0
 10
3439.2544511801588669
 20
167.9895807257285867
 30
0.0
 40
0.2676755994166819
 50
190.43279689571429
 51
194.8463044723544897
  0
ARC
  5
F8C4
  8
0
 10
3438.473628898223069
 20
167.6246667049906875
 30
0.0
 40
0.6117011841006881
 50
19.042728450990051
 51
24.3022971975945303
  0
ARC
  5
F8C5
  8
0
 10
3438.9849279309278245
 20
167.7990828187286922
 30
0.0
 40
0.0715020705897464
 50
5.2699754909234127
 51
20.6069978158947507
  0
ARC
  5
F8C6
  8
0
 10
3439.0485559313729027
 20
167.8047427211668037
 30
0.0
 40
0.0076260146396362
 50
340.4514417818382981
 51
6.8342448557125861
  0
ARC
  5
F8C7
  8
0
 10
3439.0511982120369794
 20
167.8038045196053076
 30
0.0
 40
0.0048221121313219
 50
321.600131515463886
 51
340.4514417818351717
  0
ARC
  5
F8C8
  8
0
 10
3439.0534605851607921
 20
167.8025480048970053
 30
0.0
 40
0.0023072718272709
 50
285.9570509857546767
 51
311.0982895372723078
  0
ARC
  5
F8C9
  8
0
 10
3439.0541842506841022
 20
167.8014522165771893
 30
0.0
 40
0.0011261306639196
 50
233.0083848334305969
 51
265.4488227181241768
  0
ARC
  5
F8CA
  8
0
 10
3439.1617369357541065
 20
167.8925895135182031
 30
0.0
 40
0.1420723707693409
 50
211.3464203125276129
 51
220.3771441283707873
  0
LINE
  5
F8CB
  8
0
 10
3439.0518290768882252
 20
167.8243236959683884
 30
0.0
 11
3439.0048912732900135
 21
167.8011512816088953
 31
0.0
  0
LINE
  5
F8CC
  8
0
 10
3439.0059688589631151
 20
167.926507841122401
 30
0.0
 11
3438.9577452591938709
 21
167.9005876944488875
 31
0.0
  0
ARC
  5
F8CD
  8
0
 10
3438.9651825139749235
 20
167.8880166211689016
 30
0.0
 40
0.0146063219902665
 50
120.6092606995484999
 51
142.6369463142818859
  0
ARC
  5
F8CE
  8
0
 10
3438.9646587926367829
 20
167.8894613735608061
 30
0.0
 40
0.0133391744862587
 50
146.2063769733468916
 51
186.2828526067559096
  0
ARC
  5
F8CF
  8
0
 10
3439.0305432988561734
 20
167.9029702455883069
 30
0.0
 40
0.080546660450082
 50
190.7100216120045957
 51
203.1942855730902124
  0
ARC
  5
F8D0
  8
0
 10
3439.4103377455007831
 20
168.0508342443883976
 30
0.0
 40
0.4880718031401406
 50
201.5894080523187881
 51
205.0818811718573897
  0
ARC
  5
F8D1
  8
0
 10
3439.404137117254777
 20
168.0449971129590949
 30
0.0
 40
0.4799888006447148
 50
204.7645753114578042
 51
208.2254358260829008
  0
ARC
  5
F8D2
  8
0
 10
3439.0677395308562154
 20
167.8629471850962886
 30
0.0
 40
0.0975007498520388
 50
207.4576623365674948
 51
215.9617760521092009
  0
ARC
  5
F8D3
  8
0
 10
3439.0003248925700063
 20
167.813966113674212
 30
0.0
 40
0.0141709434811737
 50
215.732198325251403
 51
251.7920785138641975
  0
ARC
  5
F8D4
  8
0
 10
3438.9995585818778636
 20
167.8124511681334923
 30
0.0
 40
0.012495000326272
 50
252.9594949980109959
 51
295.2637648812989255
  0
ARC
  5
F8D5
  8
0
 10
3438.7038375915340112
 20
167.7219388487332878
 30
0.0
 40
0.2960478481578903
 50
24.8076409251159298
 51
27.001002822181519
  0
ARC
  5
F8D6
  8
0
 10
3438.8215551101689016
 20
167.7819215156106907
 30
0.0
 40
0.1639292101115726
 50
27.0010028221800695
 51
29.3066850743494385
  0
ARC
  5
F8D7
  8
0
 10
3438.9225146648659575
 20
167.8385928655935118
 30
0.0
 40
0.0481515197156614
 50
29.3066850743437612
 51
34.2805159168859532
  0
ARC
  5
F8D8
  8
0
 10
3438.9564341960081038
 20
167.861714302639399
 30
0.0
 40
0.0071011184508354
 50
34.2805159169142115
 51
46.3524332409531681
  0
ARC
  5
F8D9
  8
0
 10
3438.9611108859589876
 20
167.8666171540448033
 30
0.0
 40
0.0003254722975166
 50
46.3524332404565627
 51
102.4361224878478964
  0
ARC
  5
F8DA
  8
0
 10
3438.9611335085928658
 20
167.8667712640339005
 30
0.0
 40
0.0001881538474914
 50
119.5217095183996037
 51
149.7278822905196023
  0
ARC
  5
F8DB
  8
0
 10
3438.9615638648679123
 20
167.8666217937715999
 30
0.0
 40
0.0006412236066324
 50
157.6030260936460081
 51
188.3799273381330863
  0
ARC
  5
F8DC
  8
0
 10
3438.9769307466081045
 20
167.8688156276002132
 30
0.0
 40
0.0161639093224561
 50
188.1349774472770093
 51
199.7817928488051109
  0
ARC
  5
F8DD
  8
0
 10
3439.1515536637170953
 20
167.9312009807026129
 30
0.0
 40
0.2015960611527888
 50
199.6694444541672055
 51
205.6061143846067125
  0
ARC
  5
F8DE
  8
0
 10
3439.1825106259088898
 20
167.9420135119814859
 30
0.0
 40
0.2342137179315194
 50
204.7184505251109101
 51
208.8522319730980996
  0
ARC
  5
F8DF
  8
0
 10
3439.017746213078226
 20
167.8514069008818126
 30
0.0
 40
0.0461797888915376
 50
209.0359796342156926
 51
215.2184814578837972
  0
ARC
  5
F8E0
  8
0
 10
3438.9812514755831216
 20
167.8254088272115041
 30
0.0
 40
0.0013856122598902
 50
207.212051250634687
 51
255.044364329699988
  0
ARC
  5
F8E1
  8
0
 10
3438.9807822407060485
 20
167.8242754527533975
 30
0.0
 40
0.0002336965613697
 50
298.5385362958176074
 51
1.115708784278125
  0
ARC
  5
F8E2
  8
0
 10
3438.9655650325248644
 20
167.8225635434338017
 30
0.0
 40
0.0155459101473967
 50
6.3390836231702377
 51
21.1018666441903413
  0
ARC
  5
F8E3
  8
0
 10
3438.7775254531961764
 20
167.7542694443332039
 30
0.0
 40
0.2156004583445092
 50
20.0428083610150694
 51
25.22494346755051
  0
ARC
  5
F8E4
  8
0
 10
3438.6468406671037883
 20
167.6994925874213038
 30
0.0
 40
0.3702908410270351
 50
24.2592643651631299
 51
32.894806729574249
  0
ARC
  5
F8E5
  8
0
 10
3438.6499251903078402
 20
167.6866860637578895
 30
0.0
 40
0.3729652054684831
 50
17.8729464854792788
 51
26.2485660355313293
  0
LINE
  5
F8E6
  8
0
 10
3438.3635541813241616
 20
169.3367719162980904
 30
0.0
 11
3438.3146417118450699
 21
169.4733918524179899
 31
0.0
  0
LINE
  5
F8E7
  8
0
 10
3438.4194827220089792
 20
169.2112822243383903
 30
0.0
 11
3438.4647445449109
 21
169.0959325601216108
 31
0.0
  0
LINE
  5
F8E8
  8
0
 10
3438.3304438031941572
 20
169.3095771306753079
 30
0.0
 11
3438.3123955208570806
 21
169.2998773461906978
 31
0.0
  0
ARC
  5
F8E9
  8
0
 10
3438.3179866317300366
 20
169.2894740276657046
 30
0.0
 40
0.0118105697207404
 50
118.2551545407543045
 51
202.4588133953459987
  0
LINE
  5
F8EA
  8
0
 10
3438.3070718419598961
 20
169.284962163148208
 30
0.0
 11
3438.3401862449118198
 21
169.204854095820906
 31
0.0
  0
ARC
  5
F8EB
  8
0
 10
3438.351095571256792
 20
169.2093637019137873
 30
0.0
 40
0.0118046579116614
 50
202.4588133953324132
 51
296.2640971849066887
  0
LINE
  5
F8EC
  8
0
 10
3438.3563192427031936
 20
169.1987777109333138
 30
0.0
 11
3438.3767811138959587
 21
169.2088695718740041
 31
0.0
  0
LINE
  5
F8ED
  8
0
 10
3438.4606636910639281
 20
169.0849988470228027
 30
0.0
 11
3438.4108008593570958
 21
169.0623092543627877
 31
0.0
  0
ARC
  5
F8EE
  8
0
 10
3438.4166783622508774
 20
169.0515361127563096
 30
0.0
 40
0.0122721481555543
 50
118.6155577651593944
 51
201.4937269216626987
  0
ARC
  5
F8EF
  8
0
 10
3439.2770820062751227
 20
169.3662784078929064
 30
0.0
 40
0.9284328936067113
 50
200.1114241176958899
 51
205.6030965624044029
  0
ARC
  5
F8F0
  8
0
 10
3438.4500481511668113
 20
168.9710451320985953
 30
0.0
 40
0.0118486716704183
 50
210.4765442091463967
 51
298.7783137919951741
  0
LINE
  5
F8F1
  8
0
 10
3438.455752361920986
 20
168.9606599022008879
 30
0.0
 11
3438.5086684167799831
 21
168.9897246732417102
 31
0.0
  0
LINE
  5
F8F2
  8
0
 10
3438.5223085343109233
 20
168.8287772569811125
 30
0.0
 11
3438.4991274289641296
 21
168.8167269625805886
 31
0.0
  0
ARC
  5
F8F3
  8
0
 10
3438.506702272181883
 20
168.8051320285566987
 30
0.0
 40
0.0138499366354074
 50
123.1561448815064068
 51
187.6357015255615863
  0
LINE
  5
F8F4
  8
0
 10
3438.4929751437980485
 20
168.8032917320757065
 30
0.0
 11
3438.5296619752471088
 21
168.7237321479607033
 31
0.0
  0
ARC
  5
F8F5
  8
0
 10
3438.5403879011118988
 20
168.7286785087420924
 30
0.0
 40
0.0118113220729689
 50
204.757268361666803
 51
296.7530228655598989
  0
LINE
  5
F8F6
  8
0
 10
3438.5457047152190171
 20
168.718131527331991
 30
0.0
 11
3438.581871962087007
 21
168.736363713477914
 31
0.0
  0
LINE
  5
F8F7
  8
0
 10
3438.695461921839069
 20
168.4825123724625087
 30
0.0
 11
3438.7451360482450582
 21
168.3630549148766136
 31
0.0
  0
LINE
  5
F8F8
  8
0
 10
3438.7248754694142008
 20
168.4117780110140075
 30
0.0
 11
3438.683330879443929
 21
168.3896564641941893
 31
0.0
  0
ARC
  5
F8F9
  8
0
 10
3438.6898813845527911
 20
168.3788467761526988
 30
0.0
 40
0.0126395598315314
 50
121.2152201217539016
 51
210.7961365968178029
  0
LINE
  5
F8FA
  8
0
 10
3438.679024073166147
 20
168.3723755118099916
 30
0.0
 11
3438.8134827269209381
 21
168.0977936703590103
 31
0.0
  0
ARC
  5
F8FB
  8
0
 10
3438.8269753168001444
 20
168.1038845579876977
 30
0.0
 40
0.0148178885612017
 50
203.808847017986011
 51
246.2840282343931051
  0
LINE
  5
F8FC
  8
0
 10
3438.8056998036449841
 20
168.250824162332691
 30
0.0
 11
3438.7628668000511425
 21
168.228758232227193
 31
0.0
  0
ARC
  5
F8FD
  8
0
 10
3438.7689020756120044
 20
168.2170429327337899
 30
0.0
 40
0.0131784973846382
 50
117.2557971043380007
 51
186.3795114849719141
  0
LINE
  5
F8FE
  8
0
 10
3438.7538188676339814
 20
168.2816033359760866
 30
0.0
 11
3438.7394550550779968
 21
168.27420364748059
 31
0.0
  0
ARC
  5
F8FF
  8
0
 10
3438.744643713484038
 20
168.2641317482637078
 30
0.0
 40
0.0113298424477255
 50
117.2557971043095932
 51
205.3535922678302086
  0
LINE
  5
F900
  8
0
 10
3438.7299010685828762
 20
168.3534015090365017
 30
0.0
 11
3438.7062781093350168
 21
168.3410810507004101
 31
0.0
  0
ARC
  5
F901
  8
0
 10
3438.713542087200949
 20
168.3296004302422944
 30
0.0
 40
0.0135856549543153
 50
122.3222117805283062
 51
179.8799952930330051
  0
LINE
  5
F902
  8
0
 10
3438.7985935644987876
 20
168.2662496497864026
 30
0.0
 11
3438.8369862234039829
 21
168.1803132927871047
 31
0.0
  0
ARC
  5
F903
  8
0
 10
3438.5594282147658305
 20
168.0118226569738908
 30
0.0
 40
0.3291166933781725
 50
23.9325741431287717
 51
33.1414077802432985
  0
ARC
  5
F904
  8
0
 10
3438.566559987707933
 20
168.0164791491972949
 30
0.0
 40
0.3205993519425521
 50
33.1414077802432985
 51
34.2504153787497216
  0
ARC
  5
F905
  8
0
 10
3438.8274387298138208
 20
168.1941079303790048
 30
0.0
 40
0.0049893045948908
 50
34.2504153787054477
 51
59.240649295716878
  0
ARC
  5
F906
  8
0
 10
3438.8296812592429887
 20
168.1978758838708075
 30
0.0
 40
0.0006045113547757
 50
59.2406492954180308
 51
168.9054154615101027
  0
LINE
  5
F907
  8
0
 10
3438.8409042525249788
 20
168.1823805497930095
 30
0.0
 11
3438.8001463137220526
 21
168.1608679253535001
 31
0.0
  0
ARC
  5
F908
  8
0
 10
3438.80704158249182
 20
168.1499816982627067
 30
0.0
 40
0.0128862202249832
 50
122.3499161979090957
 51
209.1958570521196066
  0
LINE
  5
F909
  8
0
 10
3438.7957924618190191
 20
168.1436958446421102
 30
0.0
 11
3438.8210155174037936
 21
168.0903180325458095
 31
0.0
  0
LINE
  5
F90A
  8
0
 10
3438.8210155174037936
 20
168.0903180325458095
 30
0.0
 11
3438.8755507163941729
 21
167.9847993960187864
 31
0.0
  0
ARC
  5
F90B
  8
0
 10
3438.8879616926878953
 20
167.991213761140898
 30
0.0
 40
0.0139705551965719
 50
207.3312782178051066
 51
287.7761744159499244
  0
LINE
  5
F90C
  8
0
 10
3438.8922268941078073
 20
167.9779102101356045
 30
0.0
 11
3438.9335934665828063
 21
167.9911725912531892
 31
0.0
  0
ARC
  5
F90D
  8
0
 10
3451.4271176254460443
 20
173.6804152646813861
 30
0.0
 40
13.7274920872870307
 50
204.1063459639404982
 51
204.4450600071481006
  0
ARC
  5
F90E
  8
0
 10
3438.7300271126578082
 20
167.9167231833505127
 30
0.0
 40
0.2166687779883391
 50
17.1419767016650511
 51
22.516837200804531
  0
ARC
  5
F90F
  8
0
 10
3438.9350458907169923
 20
167.9798134035567045
 30
0.0
 40
0.0021667494745095
 50
331.1825923273207763
 51
20.8399989504555592
  0
ARC
  5
F910
  8
0
 10
3438.9711707951100834
 20
167.9993346469593121
 30
0.0
 40
0.0399299212107109
 50
203.7098877731775985
 51
211.000385022581213
  0
LINE
  5
F911
  8
0
 10
3438.9346112302177971
 20
167.9832785944300042
 30
0.0
 11
3438.9309767343079329
 21
167.9903336505664129
 31
0.0
  0
LINE
  5
F912
  8
0
 10
3438.5034533580637799
 20
168.9868602403593059
 30
0.0
 11
3438.5553333779798777
 21
168.8479927006324033
 31
0.0
  0
LINE
  5
F913
  8
0
 10
3438.5970953894220656
 20
168.7446340816860015
 30
0.0
 11
3438.6357515526487987
 21
168.6243569232906054
 31
0.0
  0
LINE
  5
F914
  8
0
 10
3438.9369443105269966
 20
167.9787689872082126
 30
0.0
 11
3438.9698391528900174
 21
167.9070881527300116
 31
0.0
  0
ARC
  5
F915
  8
0
 10
3439.7223476047302029
 20
167.6596162969495936
 30
0.0
 40
0.4760028772711133
 50
207.8096645920018943
 51
212.2707896038170077
  0
ARC
  5
F916
  8
0
 10
3439.4499867808149247
 20
167.4876312154266031
 30
0.0
 40
0.1538859937173968
 50
212.2707896038010915
 51
222.3640656466075995
  0
ARC
  5
F917
  8
0
 10
3439.3479389521480698
 20
167.3945660417548993
 30
0.0
 40
0.0157741336685405
 50
222.3640656466081964
 51
249.9151899103090102
  0
ARC
  5
F918
  8
0
 10
3439.3475974014099847
 20
167.3936319432353912
 30
0.0
 40
0.0147795498609997
 50
249.9151899103094934
 51
293.7278781572038042
  0
LINE
  5
F919
  8
0
 10
3439.3535445926449938
 20
167.3801017543783871
 30
0.0
 11
3439.4043933759949141
 21
167.4058226510393013
 31
0.0
  0
ARC
  5
F91A
  8
0
 10
3439.1395216300202264
 20
167.3497610060859131
 30
0.0
 40
0.2655356843020727
 50
17.9440909733778291
 51
28.1939484437610091
  0
ARC
  5
F91B
  8
0
 10
3439.1132697976549935
 20
167.2830725894532122
 30
0.0
 40
0.3159438486253768
 50
22.8623536945608485
 51
28.0349911149951687
  0
ARC
  5
F91C
  8
0
 10
3439.3565316653380251
 20
167.3847801711735883
 30
0.0
 40
0.0522831646512264
 50
6.7672039751231958
 51
23.7327704789774607
  0
ARC
  5
F91D
  8
0
 10
3439.4011842456461636
 20
167.390221439558303
 30
0.0
 40
0.0073018735138627
 50
337.3990059847557177
 51
5.6552758000259766
  0
ARC
  5
F91E
  8
0
 10
3439.4062165119380552
 20
167.3884160125844005
 30
0.0
 40
0.0019803277503879
 50
275.3840625868369898
 51
329.6451701504266225
  0
ARC
  5
F91F
  8
0
 10
3439.4259975208519791
 20
167.4243416379202927
 30
0.0
 40
0.0426634566966164
 50
216.0409257680628912
 51
242.6582550451786062
  0
ARC
  5
F920
  8
0
 10
3439.1874173516430346
 20
167.3760714973192876
 30
0.0
 40
0.1399908709702603
 50
20.789630087637601
 51
28.29383254416733
  0
ARC
  5
F921
  8
0
 10
3439.2973554845198123
 20
167.41781057305991
 30
0.0
 40
0.0223960432619965
 50
10.6673846286604501
 51
20.7889990160679901
  0
ARC
  5
F922
  8
0
 10
3439.3138739443497798
 20
167.4209220307166959
 30
0.0
 40
0.0055870967181137
 50
357.9762158335179265
 51
10.66738462863084
  0
ARC
  5
F923
  8
0
 10
3439.3187404944301306
 20
167.4207500643867093
 30
0.0
 40
0.0007175092511611
 50
303.6736784957599866
 51
357.9762158336782818
  0
ARC
  5
F924
  8
0
 10
3439.3189636041120139
 20
167.4207202083453012
 30
0.0
 40
0.0005935600035988
 50
242.9036884049895093
 51
287.1193391512658195
  0
ARC
  5
F925
  8
0
 10
3439.3238196515640084
 20
167.4280253065363979
 30
0.0
 40
0.0093618336440673
 50
216.0116626656663925
 51
236.7984577119142955
  0
ARC
  5
F926
  8
0
 10
3439.4153225125660356
 20
167.4957448276396121
 30
0.0
 40
0.1231978308978852
 50
207.0263523816433917
 51
216.4669911109060934
  0
ARC
  5
F927
  8
0
 10
3438.9691157913807729
 20
167.2594903116701062
 30
0.0
 40
0.392543304724899
 50
21.4246109827410898
 51
28.1643897618651309
  0
ARC
  5
F928
  8
0
 10
3439.2590861598450829
 20
167.373272164680003
 30
0.0
 40
0.0810483213602212
 50
11.9639054159515208
 51
21.4246109827471507
  0
ARC
  5
F929
  8
0
 10
3439.3305748714178662
 20
167.3884204952840946
 30
0.0
 40
0.0079722801257748
 50
336.0084473313206104
 51
11.9639054158975302
  0
ARC
  5
F92A
  8
0
 10
3439.3374050368779535
 20
167.388190775560588
 30
0.0
 40
0.0030457541273204
 50
229.5946556527003963
 51
278.5601422865116206
  0
ARC
  5
F92B
  8
0
 10
3439.342845403721185
 20
167.3983544129177972
 30
0.0
 40
0.0145189301584878
 50
226.6874955819027946
 51
239.2905448206074084
  0
ARC
  5
F92C
  8
0
 10
3439.7243880090941275
 20
167.6557040732668042
 30
0.0
 40
0.4760028772711133
 50
202.8174306813878047
 51
207.2785556931902136
  0
ARC
  5
F92D
  8
0
 10
3439.4274783120868051
 20
167.5307884277574999
 30
0.0
 40
0.1538859937173968
 50
192.7241546385895106
 51
202.817430681390789
  0
ARC
  5
F92E
  8
0
 10
3439.292758234179928
 20
167.5003682618306868
 30
0.0
 40
0.0157741336685405
 50
165.1730303748871052
 51
192.7241546385878905
  0
ARC
  5
F92F
  8
0
 10
3439.2917967669891368
 20
167.5006227766444056
 30
0.0
 40
0.0147795498609997
 50
121.3603421279998997
 51
165.1730303748807955
  0
LINE
  5
F930
  8
0
 10
3439.2841052126709656
 20
167.513243200023993
 30
0.0
 11
3439.3342987233340864
 21
167.5402205012329091
 31
0.0
  0
ARC
  5
F931
  8
0
 10
3439.1367363199269676
 20
167.3551014946158091
 30
0.0
 40
0.2655356843020727
 50
26.8942718414317596
 51
37.1441293118295519
  0
ARC
  5
F932
  8
0
 10
3439.0670252318591338
 20
167.371740840029986
 30
0.0
 40
0.3159438486253768
 50
27.0532291701989998
 51
32.2258665906428234
  0
ARC
  5
F933
  8
0
 10
3439.2896512195329706
 20
167.5130151761968875
 30
0.0
 40
0.0522831646512264
 50
31.3554498062209603
 51
48.3210163100646071
  0
ARC
  5
F934
  8
0
 10
3439.3196685641491968
 20
167.546517703744712
 30
0.0
 40
0.0073018735138627
 50
49.432944485168349
 51
77.6892143004296543
  0
ARC
  5
F935
  8
0
 10
3439.3210680911001873
 20
167.5516776063506086
 30
0.0
 40
0.0019803277503879
 50
85.443050134773074
 51
139.704157698367311
  0
ARC
  5
F936
  8
0
 10
3439.3618492913869886
 20
167.5473379551364133
 30
0.0
 40
0.0426634566966164
 50
172.4299652400096932
 51
199.0472945171389085
  0
ARC
  5
F937
  8
0
 10
3439.1857232381998983
 20
167.3793197505353874
 30
0.0
 40
0.1399908711282217
 50
26.7943877261108199
 51
34.2985901954343504
  0
ARC
  5
F938
  8
0
 10
3439.2828698944831558
 20
167.4455849051350924
 30
0.0
 40
0.0223960432619965
 50
34.2992212691203093
 51
44.4208356565276929
  0
ARC
  5
F939
  8
0
 10
3439.2948751500161961
 20
167.4573498753231888
 30
0.0
 40
0.0055870967181137
 50
44.4208356565621969
 51
57.1120044516783167
  0
ARC
  5
F93A
  8
0
 10
3439.2975193288189075
 20
167.4614390317832999
 30
0.0
 40
0.0007175092511611
 50
57.1120044515220471
 51
111.4145417894525991
  0
ARC
  5
F93B
  8
0
 10
3439.2976225347451873
 20
167.4616390764043103
 30
0.0
 40
0.0005935600035988
 50
127.9688811339196945
 51
172.1845318802110967
  0
ARC
  5
F93C
  8
0
 10
3439.3063921515758921
 20
167.4614403880538021
 30
0.0
 40
0.0093618336440673
 50
178.2897625732834967
 51
199.076557619528586
  0
ARC
  5
F93D
  8
0
 10
3439.4142928891487827
 20
167.4977190035376111
 30
0.0
 40
0.1231978308978852
 50
198.6212291742785112
 51
208.061867903561506
  0
ARC
  5
F93E
  8
0
 10
3438.9651855317079026
 20
167.267026099789291
 30
0.0
 40
0.392543304724899
 50
26.9238305233367115
 51
33.6636093024607916
  0
ARC
  5
F93F
  8
0
 10
3439.2244447864741232
 20
167.4396927250529927
 30
0.0
 40
0.0810483213602212
 50
33.6636093024395606
 51
43.1243148692421201
  0
ARC
  5
F940
  8
0
 10
3439.2777809608837742
 20
167.4896463065240937
 30
0.0
 40
0.0079722801257748
 50
43.1243148693038805
 51
79.079772953885211
  0
ARC
  5
F941
  8
0
 10
3439.2815015854430385
 20
167.4953787479103937
 30
0.0
 40
0.0030457541273204
 50
136.528077998697313
 51
185.4935646324917116
  0
ARC
  5
F942
  8
0
 10
3439.2929497166828696
 20
167.4940232381042904
 30
0.0
 40
0.0145189301584878
 50
175.7976754645954998
 51
188.4007247032951966
  0
ARC
  5
F943
  8
0
 10
3439.5460859774138953
 20
167.857126076806793
 30
0.0
 40
0.4760028772711133
 50
207.8096645920018943
 51
212.2707896038170077
  0
ARC
  5
F944
  8
0
 10
3439.2737251534981624
 20
167.6851409952836889
 30
0.0
 40
0.1538859937173968
 50
212.2707896038010915
 51
222.3640656466075995
  0
ARC
  5
F945
  8
0
 10
3439.1716773248308527
 20
167.5920758216120987
 30
0.0
 40
0.0157741336685405
 50
222.3640656466081964
 51
249.9151899103090102
  0
ARC
  5
F946
  8
0
 10
3439.1713357740941319
 20
167.5911417230925053
 30
0.0
 40
0.0147795498609997
 50
249.9151899103094934
 51
293.7278781572038042
  0
LINE
  5
F947
  8
0
 10
3439.1772829653300505
 20
167.5776115342355865
 30
0.0
 11
3439.2281317486790613
 21
167.6033324308965007
 31
0.0
  0
ARC
  5
F948
  8
0
 10
3438.9632600027039189
 20
167.5472707859429988
 30
0.0
 40
0.2655356843020727
 50
17.9440909733778291
 51
28.1939484437610091
  0
ARC
  5
F949
  8
0
 10
3438.9370081703400501
 20
167.4805823693104117
 30
0.0
 40
0.3159438486253768
 50
22.8623536945608485
 51
28.0349911149951687
  0
ARC
  5
F94A
  8
0
 10
3439.180270038020808
 20
167.5822899510307877
 30
0.0
 40
0.0522831646512264
 50
6.7672039751231958
 51
23.7327704789774607
  0
ARC
  5
F94B
  8
0
 10
3439.224922618329856
 20
167.5877312194153888
 30
0.0
 40
0.0073018735138627
 50
337.3990059847557177
 51
5.6552758000259766
  0
ARC
  5
F94C
  8
0
 10
3439.2299548846222024
 20
167.5859257924414862
 30
0.0
 40
0.0019803277503879
 50
275.3840625868369898
 51
329.6451701504266225
  0
ARC
  5
F94D
  8
0
 10
3439.2497358935361262
 20
167.6218514177774068
 30
0.0
 40
0.0426634566966164
 50
216.0409257680628912
 51
242.6582550451786062
  0
ARC
  5
F94E
  8
0
 10
3439.0111557243271818
 20
167.5735812771764017
 30
0.0
 40
0.1399908709702603
 50
20.789630087637601
 51
28.29383254416733
  0
ARC
  5
F94F
  8
0
 10
3439.1210938572039595
 20
167.6153203529169957
 30
0.0
 40
0.0223960432619965
 50
10.6673846286604501
 51
20.7889990160679901
  0
ARC
  5
F950
  8
0
 10
3439.1376123170348365
 20
167.61843181057381
 30
0.0
 40
0.0055870967181137
 50
357.9762158335179265
 51
10.66738462863084
  0
ARC
  5
F951
  8
0
 10
3439.1424788671151873
 20
167.6182598442439087
 30
0.0
 40
0.0007175092511611
 50
303.6736784957599866
 51
357.9762158336782818
  0
ARC
  5
F952
  8
0
 10
3439.1427019767970705
 20
167.6182299882023869
 30
0.0
 40
0.0005935600035988
 50
242.9036884049895093
 51
287.1193391512658195
  0
ARC
  5
F953
  8
0
 10
3439.1475580242481556
 20
167.6255350863935973
 30
0.0
 40
0.0093618336440673
 50
216.0116626656663925
 51
236.7984577119142955
  0
ARC
  5
F954
  8
0
 10
3439.2390608852510923
 20
167.6932546074966979
 30
0.0
 40
0.1231978308978852
 50
207.0263523816433917
 51
216.4669911109060934
  0
ARC
  5
F955
  8
0
 10
3438.79285416406492
 20
167.4570000915273056
 30
0.0
 40
0.392543304724899
 50
21.4246109827410898
 51
28.1643897618651309
  0
ARC
  5
F956
  8
0
 10
3439.0828245325287753
 20
167.5707819445370887
 30
0.0
 40
0.0810483213602212
 50
11.9639054159515208
 51
21.4246109827471507
  0
ARC
  5
F957
  8
0
 10
3439.1543132441020134
 20
167.585930275141294
 30
0.0
 40
0.0079722801257748
 50
336.0084473313206104
 51
11.9639054158975302
  0
ARC
  5
F958
  8
0
 10
3439.1611434095621007
 20
167.5857005554177874
 30
0.0
 40
0.0030457541273204
 50
229.5946556527003963
 51
278.5601422865116206
  0
ARC
  5
F959
  8
0
 10
3439.1665837764048774
 20
167.5958641927749113
 30
0.0
 40
0.0145189301584878
 50
226.6874955819027946
 51
239.2905448206074084
  0
ARC
  5
F95A
  8
0
 10
3439.5481263817791842
 20
167.85321385312389
 30
0.0
 40
0.4760028772711133
 50
202.8174306813878047
 51
207.2785556931902136
  0
ARC
  5
F95B
  8
0
 10
3439.2512166847709523
 20
167.7282982076146141
 30
0.0
 40
0.1538859937173968
 50
192.7241546385895106
 51
202.817430681390789
  0
ARC
  5
F95C
  8
0
 10
3439.1164966068640751
 20
167.697878041687801
 30
0.0
 40
0.0157741336685405
 50
165.1730303748871052
 51
192.7241546385878905
  0
ARC
  5
F95D
  8
0
 10
3439.1155351396728292
 20
167.698132556501605
 30
0.0
 40
0.0147795498609997
 50
121.3603421279998997
 51
165.1730303748807955
  0
LINE
  5
F95E
  8
0
 10
3439.1078435853560222
 20
167.7107529798811072
 30
0.0
 11
3439.1580370960191431
 21
167.7377302810901085
 31
0.0
  0
ARC
  5
F95F
  8
0
 10
3438.9604746926111147
 20
167.5526112744730085
 30
0.0
 40
0.2655356843020727
 50
26.8942718414317596
 51
37.1441293118295519
  0
ARC
  5
F960
  8
0
 10
3438.8907636045428262
 20
167.5692506198871001
 30
0.0
 40
0.3159438486253768
 50
27.0532291701989998
 51
32.2258665906428234
  0
ARC
  5
F961
  8
0
 10
3439.1133895922171178
 20
167.7105249560540869
 30
0.0
 40
0.0522831646512264
 50
31.3554498062209603
 51
48.3210163100646071
  0
ARC
  5
F962
  8
0
 10
3439.1434069368319797
 20
167.7440274836019114
 30
0.0
 40
0.0073018735138627
 50
49.432944485168349
 51
77.6892143004296543
  0
ARC
  5
F963
  8
0
 10
3439.1448064637847892
 20
167.749187386207808
 30
0.0
 40
0.0019803277503879
 50
85.443050134773074
 51
139.704157698367311
  0
ARC
  5
F964
  8
0
 10
3439.1855876640711358
 20
167.7448477349936127
 30
0.0
 40
0.0426634566966164
 50
172.4299652400096932
 51
199.0472945171389085
  0
ARC
  5
F965
  8
0
 10
3439.0094616108840455
 20
167.5768295303925015
 30
0.0
 40
0.1399908711282217
 50
26.7943877261108199
 51
34.2985901954343504
  0
ARC
  5
F966
  8
0
 10
3439.1066082671668482
 20
167.6430946849922918
 30
0.0
 40
0.0223960432619965
 50
34.2992212691203093
 51
44.4208356565276929
  0
ARC
  5
F967
  8
0
 10
3439.1186135226998886
 20
167.654859655180303
 30
0.0
 40
0.0055870967181137
 50
44.4208356565621969
 51
57.1120044516783167
  0
ARC
  5
F968
  8
0
 10
3439.1212577015030547
 20
167.6589488116404141
 30
0.0
 40
0.0007175092511611
 50
57.1120044515220471
 51
111.4145417894525991
  0
ARC
  5
F969
  8
0
 10
3439.1213609074288797
 20
167.6591488562613961
 30
0.0
 40
0.0005935600035988
 50
127.9688811339196945
 51
172.1845318802110967
  0
ARC
  5
F96A
  8
0
 10
3439.1301305242600392
 20
167.6589501679108878
 30
0.0
 40
0.0093618336440673
 50
178.2897625732834967
 51
199.076557619528586
  0
ARC
  5
F96B
  8
0
 10
3439.2380312618329299
 20
167.6952287833946968
 30
0.0
 40
0.1231978308978852
 50
198.6212291742785112
 51
208.061867903561506
  0
ARC
  5
F96C
  8
0
 10
3438.7889239043920497
 20
167.4645358796464052
 30
0.0
 40
0.392543304724899
 50
26.9238305233367115
 51
33.6636093024607916
  0
ARC
  5
F96D
  8
0
 10
3439.0481831591569062
 20
167.6372025049101069
 30
0.0
 40
0.0810483213602212
 50
33.6636093024395606
 51
43.1243148692421201
  0
ARC
  5
F96E
  8
0
 10
3439.1015193335679214
 20
167.6871560863812078
 30
0.0
 40
0.0079722801257748
 50
43.1243148693038805
 51
79.079772953885211
  0
ARC
  5
F96F
  8
0
 10
3439.1052399581271857
 20
167.6928885277675931
 30
0.0
 40
0.0030457541273204
 50
136.528077998697313
 51
185.4935646324917116
  0
ARC
  5
F970
  8
0
 10
3439.1166880893670168
 20
167.6915330179614045
 30
0.0
 40
0.0145189301584878
 50
175.7976754645954998
 51
188.4007247032951966
  0
ARC
  5
F971
  8
0
 10
3438.9510923722191365
 20
166.936272614478014
 30
0.0
 40
0.5754752159633983
 50
26.1304595962911392
 51
30.1210437872433303
  0
ARC
  5
F972
  8
0
 10
3439.297506932727174
 20
167.0855333490652015
 30
0.0
 40
0.1995944934806548
 50
22.2002889288897194
 51
31.4664126148994789
  0
ARC
  5
F973
  8
0
 10
3439.4713831411340834
 20
167.1552547618256881
 30
0.0
 40
0.0123174160695262
 50
355.647174192755017
 51
27.5362419474848608
  0
ARC
  5
F974
  8
0
 10
3439.4822708253927885
 20
167.1544260170053917
 30
0.0
 40
0.0013982363158355
 50
271.4637643447886717
 51
355.6471741930483859
  0
ARC
  5
F975
  8
0
 10
3439.4873109502791522
 20
167.1636363962657867
 30
0.0
 40
0.011729328046824
 50
225.3205775391427039
 51
244.7443687558553052
  0
ARC
  5
F976
  8
0
 10
3439.6694737010980134
 20
167.3434297475745041
 30
0.0
 40
0.2676755994166819
 50
220.241915542042392
 51
224.6554231186892991
  0
ARC
  5
F977
  8
0
 10
3438.9233558131518294
 20
166.9119743318188114
 30
0.0
 40
0.6117011841006881
 50
30.7859228168072008
 51
36.0454915634110407
  0
ARC
  5
F978
  8
0
 10
3439.3590068380872253
 20
167.231436169990701
 30
0.0
 40
0.0715020705897464
 50
34.4812221985043266
 51
49.8182445234861788
  0
ARC
  5
F979
  8
0
 10
3439.4000633780551652
 20
167.280374063918913
 30
0.0
 40
0.0076260146396362
 50
48.2539751586841206
 51
74.6367782325603883
  0
ARC
  5
F97A
  8
0
 10
3439.4008062361599514
 20
167.2830777708396113
 30
0.0
 40
0.0048221121313219
 50
74.6367782325603883
 51
93.4880884989368468
  0
ARC
  5
F97B
  8
0
 10
3439.4010706400022173
 20
167.2856521157997065
 30
0.0
 40
0.0023072718272709
 50
103.9899304771360988
 51
129.1311690286511862
  0
ARC
  5
F97C
  8
0
 10
3439.4005862203348443
 20
167.286872681823013
 30
0.0
 40
0.0011261306639196
 50
149.6393972962918895
 51
182.0798351809683879
  0
ARC
  5
F97D
  8
0
 10
3439.5368758825370605
 20
167.3229103695479978
 30
0.0
 40
0.1420723707693409
 50
194.7110758860341946
 51
203.7417997018735889
  0
LINE
  5
F97E
  8
0
 10
3439.4179937161511589
 20
167.2718516797733059
 30
0.0
 11
3439.3721283584300181
 21
167.2466229827188045
 31
0.0
  0
LINE
  5
F97F
  8
0
 10
3439.4755417455248789
 20
167.1757632651537051
 30
0.0
 11
3439.4266872734920071
 21
167.151052738234398
 31
0.0
  0
ARC
  5
F980
  8
0
 10
3439.4206350117838156
 20
167.1643461490191953
 30
0.0
 40
0.0146063219902665
 50
272.4512737001174969
 51
294.4789593148519202
  0
ARC
  5
F981
  8
0
 10
3439.4215200248859219
 20
167.1630898268778935
 30
0.0
 40
0.0133391744862587
 50
228.805367407653705
 51
268.8818430410532869
  0
ARC
  5
F982
  8
0
 10
3439.4703044194898212
 20
167.2093860537887053
 30
0.0
 40
0.080546660450082
 50
211.8939344413072092
 51
224.3781984023935934
  0
ARC
  5
F983
  8
0
 10
3439.8089198220750404
 20
167.4362057905312042
 30
0.0
 40
0.4880718031401406
 50
210.0063388425461142
 51
213.4988119620848863
  0
ARC
  5
F984
  8
0
 10
3439.8005844651670486
 20
167.4344617380122884
 30
0.0
 40
0.4799888006447148
 50
206.8627841883217968
 51
210.3236447029489113
  0
ARC
  5
F985
  8
0
 10
3439.4587720824038115
 20
167.2627940143136129
 30
0.0
 40
0.0975007498520388
 50
199.1264439622975999
 51
207.6305576778385955
  0
ARC
  5
F986
  8
0
 10
3439.3800235534931744
 20
167.2355442802382868
 30
0.0
 40
0.0141709434811737
 50
163.2961415005387096
 51
199.3560216891470134
  0
ARC
  5
F987
  8
0
 10
3439.3783426755921937
 20
167.2357829045193967
 30
0.0
 40
0.012495000326272
 50
119.8244551330869001
 51
162.1287250163790929
  0
ARC
  5
F988
  8
0
 10
3439.1348740697899302
 20
167.045083082595113
 30
0.0
 40
0.2960478481578903
 50
28.0872171922178993
 51
30.2805790892808702
  0
ARC
  5
F989
  8
0
 10
3439.2514333505309878
 20
167.1072865277753863
 30
0.0
 40
0.1639292101115726
 50
25.7815349400567904
 51
28.0872171922193417
  0
ARC
  5
F98A
  8
0
 10
3439.3556864125989705
 20
167.1576429835953093
 30
0.0
 40
0.0481515197156614
 50
20.8077040975214196
 51
25.7815349400611886
  0
ARC
  5
F98B
  8
0
 10
3439.3940594212917858
 20
167.1722254267324104
 30
0.0
 40
0.0071011184508354
 50
8.7357867734499521
 51
20.8077040974848799
  0
ARC
  5
F98C
  8
0
 10
3439.4007564646449282
 20
167.1732544996810077
 30
0.0
 40
0.0003254722975166
 50
312.6520975265564743
 51
8.7357867739414701
  0
ARC
  5
F98D
  8
0
 10
3439.4008957873711552
 20
167.1731848516365915
 30
0.0
 40
0.0001881538474914
 50
265.3603377238998746
 51
295.5665104960118015
  0
ARC
  5
F98E
  8
0
 10
3439.4010195157698035
 20
167.173623302507707
 30
0.0
 40
0.0006412236066324
 50
226.7082926762768977
 51
257.4851939207496798
  0
ARC
  5
F98F
  8
0
 10
3439.4116132235922123
 20
167.1849691085992049
 30
0.0
 40
0.0161639093224561
 50
215.3064271656022868
 51
226.9532425671322926
  0
ARC
  5
F990
  8
0
 10
3439.5627105730459334
 20
167.2924618360233922
 30
0.0
 40
0.2015960611527888
 50
209.4821056297963082
 51
215.4187755602370942
  0
ARC
  5
F991
  8
0
 10
3439.5892943366097825
 20
167.3116594362801095
 30
0.0
 40
0.2342137179315194
 50
206.2359880412996063
 51
210.3697694892950096
  0
ARC
  5
F992
  8
0
 10
3439.4206967544978397
 20
167.2284024544914871
 30
0.0
 40
0.0461797888915376
 50
199.8697385565241973
 51
206.05224038017559
  0
ARC
  5
F993
  8
0
 10
3439.3784909774230982
 20
167.2133545948132962
 30
0.0
 40
0.0013856122598902
 50
160.0438556847093992
 51
207.8761687637694138
  0
ARC
  5
F994
  8
0
 10
3439.3772930216600798
 20
167.2136184527724936
 30
0.0
 40
0.0002336965613697
 50
53.9725112301269476
 51
116.5496837185809937
  0
ARC
  5
F995
  8
0
 10
3439.3671801687760308
 20
167.2021195717449871
 30
0.0
 40
0.0155459101473967
 50
33.9863533702145872
 51
48.7491363912314668
  0
ARC
  5
F996
  8
0
 10
3439.2035588952539911
 20
167.0870063830253116
 30
0.0
 40
0.2156004583445092
 50
29.8632765468501589
 51
35.0454116533785509
  0
ARC
  5
F997
  8
0
 10
3439.0838472018708671
 20
167.0111899742728099
 30
0.0
 40
0.3702908410270351
 50
22.1934132848202701
 51
30.82895564923367
  0
ARC
  5
F998
  8
0
 10
3439.0751107314617911
 20
167.0210487478545929
 30
0.0
 40
0.3729652054684831
 50
28.8396539788681885
 51
37.2152735289227792
  0
ARC
  5
F999
  8
0
 10
3439.0514998831549747
 20
166.6991496386947915
 30
0.0
 40
0.5754752159633983
 50
26.1304595962911392
 51
30.1210437872433303
  0
ARC
  5
F99A
  8
0
 10
3439.3979144436630122
 20
166.8484103732820074
 30
0.0
 40
0.1995944934806548
 50
22.2002889288897194
 51
31.4664126148994789
  0
ARC
  5
F99B
  8
0
 10
3439.5717906520699216
 20
166.918131786042494
 30
0.0
 40
0.0123174160695262
 50
355.647174192755017
 51
27.5362419474848608
  0
ARC
  5
F99C
  8
0
 10
3439.5826783363290815
 20
166.9173030412221124
 30
0.0
 40
0.0013982363158355
 50
271.4637643447886717
 51
355.6471741930483859
  0
ARC
  5
F99D
  8
0
 10
3439.5877184612140809
 20
166.9265134204825074
 30
0.0
 40
0.011729328046824
 50
225.3205775391427039
 51
244.7443687558553052
  0
ARC
  5
F99E
  8
0
 10
3439.7698812120338516
 20
167.10630677179131
 30
0.0
 40
0.2676755994166819
 50
220.241915542042392
 51
224.6554231186892991
  0
ARC
  5
F99F
  8
0
 10
3439.0237633240881223
 20
166.6748513560355889
 30
0.0
 40
0.6117011841006881
 50
30.7859228168072008
 51
36.0454915634110407
  0
ARC
  5
F9A0
  8
0
 10
3439.459414349023973
 20
166.994313194207507
 30
0.0
 40
0.0715020705897464
 50
34.4812221985043266
 51
49.8182445234861788
  0
ARC
  5
F9A1
  8
0
 10
3439.5004708889919129
 20
167.0432510881356905
 30
0.0
 40
0.0076260146396362
 50
48.2539751586841206
 51
74.6367782325603883
  0
ARC
  5
F9A2
  8
0
 10
3439.5012137470957896
 20
167.0459547950563888
 30
0.0
 40
0.0048221121313219
 50
74.6367782325603883
 51
93.4880884989368468
  0
ARC
  5
F9A3
  8
0
 10
3439.501478150937146
 20
167.0485291400165124
 30
0.0
 40
0.0023072718272709
 50
103.9899304771360988
 51
129.1311690286511862
  0
ARC
  5
F9A4
  8
0
 10
3439.5009937312720467
 20
167.0497497060397052
 30
0.0
 40
0.0011261306639196
 50
149.6393972962918895
 51
182.0798351809683879
  0
ARC
  5
F9A5
  8
0
 10
3439.6372833934728988
 20
167.0857873937648037
 30
0.0
 40
0.1420723707693409
 50
194.7110758860341946
 51
203.7417997018735889
  0
LINE
  5
F9A6
  8
0
 10
3439.5184012270869971
 20
167.0347287039899982
 30
0.0
 11
3439.4725358693658563
 21
167.0095000069356104
 31
0.0
  0
LINE
  5
F9A7
  8
0
 10
3439.5759492564611719
 20
166.9386402893703973
 30
0.0
 11
3439.5270947844278453
 21
166.9139297624512039
 31
0.0
  0
ARC
  5
F9A8
  8
0
 10
3439.5210425227201085
 20
166.9272231732360012
 30
0.0
 40
0.0146063219902665
 50
272.4512737001174969
 51
294.4789593148519202
  0
ARC
  5
F9A9
  8
0
 10
3439.5219275358208506
 20
166.9259668510946142
 30
0.0
 40
0.0133391744862587
 50
228.805367407653705
 51
268.8818430410532869
  0
ARC
  5
F9AA
  8
0
 10
3439.5707119304270236
 20
166.9722630780055113
 30
0.0
 40
0.080546660450082
 50
211.8939344413072092
 51
224.3781984023935934
  0
ARC
  5
F9AB
  8
0
 10
3439.9093273330108786
 20
167.1990828147480102
 30
0.0
 40
0.4880718031401406
 50
210.0063388425461142
 51
213.4988119620848863
  0
ARC
  5
F9AC
  8
0
 10
3439.9009919761028868
 20
167.1973387622290943
 30
0.0
 40
0.4799888006447148
 50
206.8627841883217968
 51
210.3236447029489113
  0
ARC
  5
F9AD
  8
0
 10
3439.5591795933401045
 20
167.0256710385303904
 30
0.0
 40
0.0975007498520388
 50
199.1264439622975999
 51
207.6305576778385955
  0
ARC
  5
F9AE
  8
0
 10
3439.4804310644290126
 20
166.9984213044550927
 30
0.0
 40
0.0141709434811737
 50
163.2961415005387096
 51
199.3560216891470134
  0
ARC
  5
F9AF
  8
0
 10
3439.4787501865271224
 20
166.9986599287360889
 30
0.0
 40
0.012495000326272
 50
119.8244551330869001
 51
162.1287250163790929
  0
ARC
  5
F9B0
  8
0
 10
3439.2352815807248589
 20
166.8079601068118905
 30
0.0
 40
0.2960478481578903
 50
28.0872171922178993
 51
30.2805790892808702
  0
ARC
  5
F9B1
  8
0
 10
3439.351840861466826
 20
166.8701635519921922
 30
0.0
 40
0.1639292101115726
 50
25.7815349400567904
 51
28.0872171922193417
  0
ARC
  5
F9B2
  8
0
 10
3439.4560939235348087
 20
166.9205200078120868
 30
0.0
 40
0.0481515197156614
 50
20.8077040975214196
 51
25.7815349400611886
  0
ARC
  5
F9B3
  8
0
 10
3439.4944669322280788
 20
166.9351024509491026
 30
0.0
 40
0.0071011184508354
 50
8.7357867734499521
 51
20.8077040974848799
  0
ARC
  5
F9B4
  8
0
 10
3439.5011639755798569
 20
166.9361315238978136
 30
0.0
 40
0.0003254722975166
 50
312.6520975265564743
 51
8.7357867739414701
  0
ARC
  5
F9B5
  8
0
 10
3439.5013032983069934
 20
166.9360618758533974
 30
0.0
 40
0.0001881538474914
 50
265.3603377238998746
 51
295.5665104960118015
  0
ARC
  5
F9B6
  8
0
 10
3439.5014270267060965
 20
166.9365003267245129
 30
0.0
 40
0.0006412236066324
 50
226.7082926762768977
 51
257.4851939207496798
  0
ARC
  5
F9B7
  8
0
 10
3439.512020734527141
 20
166.9478461328160108
 30
0.0
 40
0.0161639093224561
 50
215.3064271656022868
 51
226.9532425671322926
  0
ARC
  5
F9B8
  8
0
 10
3439.6631180839831359
 20
167.0553388602401128
 30
0.0
 40
0.2015960611527888
 50
209.4821056297963082
 51
215.4187755602370942
  0
ARC
  5
F9B9
  8
0
 10
3439.6897018475460754
 20
167.074536460496887
 30
0.0
 40
0.2342137179315194
 50
206.2359880412996063
 51
210.3697694892950096
  0
ARC
  5
F9BA
  8
0
 10
3439.5211042654341327
 20
166.991279478708293
 30
0.0
 40
0.0461797888915376
 50
199.8697385565241973
 51
206.05224038017559
  0
ARC
  5
F9BB
  8
0
 10
3439.4788984883589364
 20
166.9762316190299885
 30
0.0
 40
0.0013856122598902
 50
160.0438556847093992
 51
207.8761687637694138
  0
ARC
  5
F9BC
  8
0
 10
3439.477700532595918
 20
166.9764954769892995
 30
0.0
 40
0.0002336965613697
 50
53.9725112301269476
 51
116.5496837185809937
  0
ARC
  5
F9BD
  8
0
 10
3439.467587679711869
 20
166.964996595961793
 30
0.0
 40
0.0155459101473967
 50
33.9863533702145872
 51
48.7491363912314668
  0
ARC
  5
F9BE
  8
0
 10
3439.3039664061889198
 20
166.8498834072420038
 30
0.0
 40
0.2156004583445092
 50
29.8632765468501589
 51
35.0454116533785509
  0
ARC
  5
F9BF
  8
0
 10
3439.1842547128057959
 20
166.7740669984895874
 30
0.0
 40
0.3702908410270351
 50
22.1934132848202701
 51
30.82895564923367
  0
ARC
  5
F9C0
  8
0
 10
3439.1755182423980841
 20
166.7839257720713135
 30
0.0
 40
0.3729652054684831
 50
28.8396539788681885
 51
37.2152735289227792
  0
ARC
  5
F9C1
  8
0
 10
3439.2348552486409972
 20
166.4986602126479909
 30
0.0
 40
0.5754752159633983
 50
26.1304595962911392
 51
30.1210437872433303
  0
ARC
  5
F9C2
  8
0
 10
3439.5812698091481252
 20
166.6479209472352068
 30
0.0
 40
0.1995944934806548
 50
22.2002889288897194
 51
31.4664126148994789
  0
ARC
  5
F9C3
  8
0
 10
3439.7551460175559441
 20
166.7176423599956934
 30
0.0
 40
0.0123174160695262
 50
355.647174192755017
 51
27.5362419474848608
  0
ARC
  5
F9C4
  8
0
 10
3439.766033701815104
 20
166.716813615175397
 30
0.0
 40
0.0013982363158355
 50
271.4637643447886717
 51
355.6471741930483859
  0
ARC
  5
F9C5
  8
0
 10
3439.7710738267001034
 20
166.726023994435792
 30
0.0
 40
0.011729328046824
 50
225.3205775391427039
 51
244.7443687558553052
  0
ARC
  5
F9C6
  8
0
 10
3439.9532365775189646
 20
166.9058173457445093
 30
0.0
 40
0.2676755994166819
 50
220.241915542042392
 51
224.6554231186892991
  0
ARC
  5
F9C7
  8
0
 10
3439.0218500769537968
 20
166.3715175466836911
 30
0.0
 40
0.8235272715007491
 50
30.3354823365238815
 51
34.8683286733590734
  0
ARC
  5
F9C8
  8
0
 10
3439.6385878639771363
 20
166.8018419507635031
 30
0.0
 40
0.0715020705897464
 50
34.4812221985043266
 51
49.8182445234861788
  0
ARC
  5
F9C9
  8
0
 10
3439.6796444039450762
 20
166.8507798446916865
 30
0.0
 40
0.0076260146396362
 50
48.2539751586841206
 51
74.6367782325603883
  0
ARC
  5
F9CA
  8
0
 10
3439.6803872620498623
 20
166.8534835516124133
 30
0.0
 40
0.0048221121313219
 50
74.6367782325603883
 51
93.4880884989368468
  0
ARC
  5
F9CB
  8
0
 10
3439.6806516658912187
 20
166.8560578965725085
 30
0.0
 40
0.0023072718272709
 50
103.9899304771360988
 51
129.1311690286511862
  0
ARC
  5
F9CC
  8
0
 10
3439.68016724622521
 20
166.8572784625957013
 30
0.0
 40
0.0011261306639196
 50
149.6393972962918895
 51
182.0798351809683879
  0
ARC
  5
F9CD
  8
0
 10
3439.8164569084269715
 20
166.8933161503207998
 30
0.0
 40
0.1420723707693409
 50
194.7110758860341946
 51
203.7417997018735889
  0
LINE
  5
F9CE
  8
0
 10
3439.6975747420410698
 20
166.8422574605461079
 30
0.0
 11
3439.6517093843199291
 21
166.8170287634916065
 31
0.0
  0
LINE
  5
F9CF
  8
0
 10
3439.7593046219471944
 20
166.7381508633237104
 30
0.0
 11
3439.7104501499138678
 21
166.7134403364044033
 31
0.0
  0
ARC
  5
F9D0
  8
0
 10
3439.7043978882052215
 20
166.7267337471892859
 30
0.0
 40
0.0146063219902665
 50
272.4512737001174969
 51
294.4789593148519202
  0
ARC
  5
F9D1
  8
0
 10
3439.7052829013068731
 20
166.7254774250478988
 30
0.0
 40
0.0133391744862587
 50
228.805367407653705
 51
268.8818430410532869
  0
ARC
  5
F9D2
  8
0
 10
3439.7540672959130461
 20
166.7717736519587106
 30
0.0
 40
0.080546660450082
 50
211.8939344413072092
 51
224.3781984023935934
  0
ARC
  5
F9D3
  8
0
 10
3440.0926826984969011
 20
166.9985933887012095
 30
0.0
 40
0.4880718031401406
 50
210.0063388425461142
 51
213.4988119620848863
  0
ARC
  5
F9D4
  8
0
 10
3440.3878191493768099
 20
167.1633148900679942
 30
0.0
 40
0.8260425190477562
 50
207.0247132485777115
 51
209.6628149364237004
  0
ARC
  5
F9D5
  8
0
 10
3439.7383531082941772
 20
166.8331997950863865
 30
0.0
 40
0.0975007498520388
 50
199.1264439622975999
 51
207.6305576778385955
  0
ARC
  5
F9D6
  8
0
 10
3439.6596045793839949
 20
166.8059500610110888
 30
0.0
 40
0.0141709434811737
 50
163.2961415005387096
 51
199.3560216891470134
  0
ARC
  5
F9D7
  8
0
 10
3439.6579237014811952
 20
166.8061886852921134
 30
0.0
 40
0.012495000326272
 50
119.8244551330869001
 51
162.1287250163790929
  0
ARC
  5
F9D8
  8
0
 10
3439.4186369462099719
 20
166.6074706807652035
 30
0.0
 40
0.2960478481578903
 50
28.0872171922178993
 51
30.2805790892808702
  0
ARC
  5
F9D9
  8
0
 10
3439.535196226951939
 20
166.6696741259453916
 30
0.0
 40
0.1639292101115726
 50
25.7815349400567904
 51
28.0872171922193417
  0
ARC
  5
F9DA
  8
0
 10
3439.6394492890199217
 20
166.7200305817653998
 30
0.0
 40
0.0481515197156614
 50
20.8077040975214196
 51
25.7815349400611886
  0
ARC
  5
F9DB
  8
0
 10
3439.6778222977141013
 20
166.7346130249023872
 30
0.0
 40
0.0071011184508354
 50
8.7357867734499521
 51
20.8077040974848799
  0
ARC
  5
F9DC
  8
0
 10
3439.6845193410658794
 20
166.7356420978510982
 30
0.0
 40
0.0003254722975166
 50
312.6520975265564743
 51
8.7357867739414701
  0
ARC
  5
F9DD
  8
0
 10
3439.6846586637921064
 20
166.7355724498067104
 30
0.0
 40
0.0001881538474914
 50
265.3603377238998746
 51
295.5665104960118015
  0
ARC
  5
F9DE
  8
0
 10
3439.6847823921912095
 20
166.7360109006777122
 30
0.0
 40
0.0006412236066324
 50
226.7082926762768977
 51
257.4851939207496798
  0
ARC
  5
F9DF
  8
0
 10
3439.6953761000131635
 20
166.7473567067692954
 30
0.0
 40
0.0161639093224561
 50
215.3064271656022868
 51
226.9532425671322926
  0
ARC
  5
F9E0
  8
0
 10
3439.8464734494677941
 20
166.8548494341933974
 30
0.0
 40
0.2015960611527888
 50
209.4821056297963082
 51
215.4187755602370942
  0
ARC
  5
F9E1
  8
0
 10
3440.1519067314761742
 20
167.0264516012867944
 30
0.0
 40
0.5519337154265748
 50
206.6919574528268981
 51
209.384711314342411
  0
ARC
  5
F9E2
  8
0
 10
3439.7002777803882054
 20
166.7988082352642891
 30
0.0
 40
0.0461797888915376
 50
199.8697385565241973
 51
206.05224038017559
  0
ARC
  5
F9E3
  8
0
 10
3439.6580720033130092
 20
166.783760375586013
 30
0.0
 40
0.0013856122598902
 50
160.0438556847093992
 51
207.8761687637694138
  0
ARC
  5
F9E4
  8
0
 10
3439.6568740475499908
 20
166.7840242335452956
 30
0.0
 40
0.0002336965613697
 50
53.9725112301269476
 51
116.5496837185809937
  0
ARC
  5
F9E5
  8
0
 10
3439.6467611946659417
 20
166.7725253525177891
 30
0.0
 40
0.0155459101473967
 50
33.9863533702145872
 51
48.7491363912314668
  0
ARC
  5
F9E6
  8
0
 10
3439.2714353544488404
 20
166.5322691425253936
 30
0.0
 40
0.461178887418722
 50
29.1272459476206613
 51
32.6703112295864599
  0
ARC
  5
F9E7
  8
0
 10
3439.2500626469650342
 20
166.5185914302549861
 30
0.0
 40
0.4999422060251446
 50
22.9395961919223694
 51
30.3710629769073002
  0
ARC
  5
F9E8
  8
0
 10
3439.3546917573521569
 20
166.5914545286273096
 30
0.0
 40
0.3729652054684831
 50
28.8396539788681885
 51
37.2152735289227792
  0
ARC
  5
F9E9
  8
0
 10
3439.3446339642878229
 20
166.2631989531415115
 30
0.0
 40
0.5754752159633983
 50
26.1304595962911392
 51
30.1210437872433303
  0
ARC
  5
F9EA
  8
0
 10
3439.6910485247958604
 20
166.412459687728699
 30
0.0
 40
0.1995944934806548
 50
22.2002889288897194
 51
31.4664126148994789
  0
ARC
  5
F9EB
  8
0
 10
3439.8649247332032246
 20
166.482181100489214
 30
0.0
 40
0.0123174160695262
 50
355.647174192755017
 51
27.5362419474848608
  0
ARC
  5
F9EC
  8
0
 10
3439.8758124174619297
 20
166.4813523556688892
 30
0.0
 40
0.0013982363158355
 50
271.4637643447886717
 51
355.6471741930483859
  0
ARC
  5
F9ED
  8
0
 10
3439.8808525423478386
 20
166.490562734929199
 30
0.0
 40
0.011729328046824
 50
225.3205775391427039
 51
244.7443687558553052
  0
ARC
  5
F9EE
  8
0
 10
3440.0630152931671546
 20
166.6703560862380016
 30
0.0
 40
0.2676755994166819
 50
220.241915542042392
 51
224.6554231186892991
  0
ARC
  5
F9EF
  8
0
 10
3438.7027386432760068
 20
165.9005432284907045
 30
0.0
 40
1.3127116629978619
 50
29.7528341134118399
 51
33.3430020593645295
  0
ARC
  5
F9F0
  8
0
 10
3439.7404314951809283
 20
166.5815952369623005
 30
0.0
 40
0.0715020705897464
 50
34.4812221985043266
 51
49.8182445234861788
  0
ARC
  5
F9F1
  8
0
 10
3439.7814880351479587
 20
166.6305331308905124
 30
0.0
 40
0.0076260146396362
 50
48.2539751586841206
 51
74.6367782325603883
  0
ARC
  5
F9F2
  8
0
 10
3439.7822308932531996
 20
166.6332368378112108
 30
0.0
 40
0.0048221121313219
 50
74.6367782325603883
 51
93.4880884989368468
  0
ARC
  5
F9F3
  8
0
 10
3439.7824952970950108
 20
166.6358111827711923
 30
0.0
 40
0.0023072718272709
 50
103.9899304771360988
 51
129.1311690286511862
  0
ARC
  5
F9F4
  8
0
 10
3439.7820108774280925
 20
166.6370317487944988
 30
0.0
 40
0.0011261306639196
 50
149.6393972962918895
 51
182.0798351809683879
  0
ARC
  5
F9F5
  8
0
 10
3439.918300539629854
 20
166.673069436519512
 30
0.0
 40
0.1420723707693409
 50
194.7110758860341946
 51
203.7417997018735889
  0
LINE
  5
F9F6
  8
0
 10
3439.7994183732439524
 20
166.6220107467449054
 30
0.0
 11
3439.7535530155228116
 21
166.5967820496904039
 31
0.0
  0
LINE
  5
F9F7
  8
0
 10
3439.8690833375940201
 20
166.5026896038170889
 30
0.0
 11
3439.8202288655620578
 21
166.4779790768978955
 31
0.0
  0
ARC
  5
F9F8
  8
0
 10
3439.8141766038529568
 20
166.4912724876826928
 30
0.0
 40
0.0146063219902665
 50
272.4512737001174969
 51
294.4789593148519202
  0
ARC
  5
F9F9
  8
0
 10
3439.8150616169541536
 20
166.4900161655413058
 30
0.0
 40
0.0133391744862587
 50
228.805367407653705
 51
268.8818430410532869
  0
ARC
  5
F9FA
  8
0
 10
3439.8638460115598718
 20
166.5363123924522029
 30
0.0
 40
0.080546660450082
 50
211.8939344413072092
 51
224.3781984023935934
  0
ARC
  5
F9FB
  8
0
 10
3440.2024614141441816
 20
166.7631321291947017
 30
0.0
 40
0.4880718031401406
 50
210.0063388425461142
 51
213.4988119620848863
  0
ARC
  5
F9FC
  8
0
 10
3441.3010956435150547
 20
167.3624570953915907
 30
0.0
 40
1.7394421837757781
 50
207.186164177158588
 51
209.0041173718823018
  0
ARC
  5
F9FD
  8
0
 10
3439.8401967394979692
 20
166.6129530812850987
 30
0.0
 40
0.0975007498520388
 50
199.1264439622975999
 51
207.6305576778385955
  0
ARC
  5
F9FE
  8
0
 10
3439.7614482105859679
 20
166.5857033472098863
 30
0.0
 40
0.0141709434811737
 50
163.2961415005387096
 51
199.3560216891470134
  0
ARC
  5
F9FF
  8
0
 10
3439.7597673326849872
 20
166.5859419714909109
 30
0.0
 40
0.012495000326272
 50
119.8244551330869001
 51
162.1287250163790929
  0
ARC
  5
FA00
  8
0
 10
3439.5284156618581619
 20
166.3720094212586105
 30
0.0
 40
0.2960478481578903
 50
28.0872171922178993
 51
30.2805790892808702
  0
ARC
  5
FA01
  8
0
 10
3439.6449749425992195
 20
166.4342128664389122
 30
0.0
 40
0.1639292101115726
 50
25.7815349400567904
 51
28.0872171922193417
  0
ARC
  5
FA02
  8
0
 10
3439.7492280046681117
 20
166.4845693222588068
 30
0.0
 40
0.0481515197156614
 50
20.8077040975214196
 51
25.7815349400611886
  0
ARC
  5
FA03
  8
0
 10
3439.787601013360927
 20
166.4991517653959079
 30
0.0
 40
0.0071011184508354
 50
8.7357867734499521
 51
20.8077040974848799
  0
ARC
  5
FA04
  8
0
 10
3439.7942980567131599
 20
166.5001808383445052
 30
0.0
 40
0.0003254722975166
 50
312.6520975265564743
 51
8.7357867739414701
  0
ARC
  5
FA05
  8
0
 10
3439.7944373794398416
 20
166.500111190300089
 30
0.0
 40
0.0001881538474914
 50
265.3603377238998746
 51
295.5665104960118015
  0
ARC
  5
FA06
  8
0
 10
3439.7945611078389447
 20
166.5005496411712045
 30
0.0
 40
0.0006412236066324
 50
226.7082926762768977
 51
257.4851939207496798
  0
ARC
  5
FA07
  8
0
 10
3439.8051548156608987
 20
166.5118954472627024
 30
0.0
 40
0.0161639093224561
 50
215.3064271656022868
 51
226.9532425671322926
  0
ARC
  5
FA08
  8
0
 10
3439.9562521651159841
 20
166.6193881746868044
 30
0.0
 40
0.2015960611527888
 50
209.4821056297963082
 51
215.4187755602370942
  0
ARC
  5
FA09
  8
0
 10
3441.1178355249971901
 20
167.250740503602799
 30
0.0
 40
1.5236464283916309
 50
207.0312229677084872
 51
208.6518819767667878
  0
ARC
  5
FA0A
  8
0
 10
3439.802121411591088
 20
166.5785615214630013
 30
0.0
 40
0.0461797888915376
 50
199.8697385565241973
 51
206.05224038017559
  0
ARC
  5
FA0B
  8
0
 10
3439.7599156345158917
 20
166.5635136617848104
 30
0.0
 40
0.0013856122598902
 50
160.0438556847093992
 51
207.8761687637694138
  0
ARC
  5
FA0C
  8
0
 10
3439.7587176787528733
 20
166.5637775197440078
 30
0.0
 40
0.0002336965613697
 50
53.9725112301269476
 51
116.5496837185809937
  0
ARC
  5
FA0D
  8
0
 10
3439.7486048258688243
 20
166.5522786387165866
 30
0.0
 40
0.0155459101473967
 50
33.9863533702145872
 51
48.7491363912314668
  0
ARC
  5
FA0E
  8
0
 10
3438.7455012467421511
 20
165.9566357733120014
 30
0.0
 40
1.182142847318191
 50
28.5320753071842006
 51
30.7450086514859713
  0
ARC
  5
FA0F
  8
0
 10
3439.4773887939390988
 20
166.3381163129363074
 30
0.0
 40
0.3702908410270351
 50
22.1934132848202701
 51
30.82895564923367
  0
ARC
  5
FA10
  8
0
 10
3439.0778125850779361
 20
166.1396434739750134
 30
0.0
 40
0.8158434335522613
 50
28.4159876667090714
 51
34.0783179385771717
  0
ARC
  5
FA11
  8
0
 10
3439.4681007110289102
 20
166.0480365074841131
 30
0.0
 40
0.5754752159633983
 50
26.1304595962911392
 51
30.1210437872433303
  0
ARC
  5
FA12
  8
0
 10
3439.8145152715378572
 20
166.1972972420713006
 30
0.0
 40
0.1995944934806548
 50
22.2002889288897194
 51
31.4664126148994789
  0
ARC
  5
FA13
  8
0
 10
3439.9883914799452214
 20
166.2670186548317872
 30
0.0
 40
0.0123174160695262
 50
355.647174192755017
 51
27.5362419474848608
  0
ARC
  5
FA14
  8
0
 10
3439.999279164203017
 20
166.2661899100114908
 30
0.0
 40
0.0013982363158355
 50
271.4637643447886717
 51
355.6471741930483859
  0
ARC
  5
FA15
  8
0
 10
3440.0043192890889259
 20
166.2754002892718006
 30
0.0
 40
0.011729328046824
 50
225.3205775391427039
 51
244.7443687558553052
  0
ARC
  5
FA16
  8
0
 10
3440.1864820399091514
 20
166.4551936405804895
 30
0.0
 40
0.2676755994166819
 50
220.241915542042392
 51
224.6554231186892991
  0
ARC
  5
FA17
  8
0
 10
3439.4403641519629673
 20
166.0237382248249105
 30
0.0
 40
0.6117011841006881
 50
30.7859228168072008
 51
36.0454915634110407
  0
ARC
  5
FA18
  8
0
 10
3439.8760151768979085
 20
166.3432000629968002
 30
0.0
 40
0.0715020705897464
 50
34.4812221985043266
 51
49.8182445234861788
  0
ARC
  5
FA19
  8
0
 10
3439.9170717168658484
 20
166.3921379569250121
 30
0.0
 40
0.0076260146396362
 50
48.2539751586841206
 51
74.6367782325603883
  0
ARC
  5
FA1A
  8
0
 10
3439.9178145749701798
 20
166.3948416638457104
 30
0.0
 40
0.0048221121313219
 50
74.6367782325603883
 51
93.4880884989368468
  0
ARC
  5
FA1B
  8
0
 10
3439.918078978811991
 20
166.3974160088058056
 30
0.0
 40
0.0023072718272709
 50
103.9899304771360988
 51
129.1311690286511862
  0
ARC
  5
FA1C
  8
0
 10
3439.9175945591459822
 20
166.3986365748289984
 30
0.0
 40
0.0011261306639196
 50
149.6393972962918895
 51
182.0798351809683879
  0
ARC
  5
FA1D
  8
0
 10
3440.0538842213481985
 20
166.4346742625540969
 30
0.0
 40
0.1420723707693409
 50
194.7110758860341946
 51
203.7417997018735889
  0
LINE
  5
FA1E
  8
0
 10
3439.9350020549609326
 20
166.3836155727794051
 30
0.0
 11
3439.8891366972411561
 21
166.3583868757249036
 31
0.0
  0
LINE
  5
FA1F
  8
0
 10
3439.9925500843360169
 20
166.2875271581596905
 30
0.0
 11
3439.943695612303145
 21
166.2628166312404971
 31
0.0
  0
ARC
  5
FA20
  8
0
 10
3439.9376433505949535
 20
166.2761100420252944
 30
0.0
 40
0.0146063219902665
 50
272.4512737001174969
 51
294.4789593148519202
  0
ARC
  5
FA21
  8
0
 10
3439.9385283636961503
 20
166.2748537198839074
 30
0.0
 40
0.0133391744862587
 50
228.805367407653705
 51
268.8818430410532869
  0
ARC
  5
FA22
  8
0
 10
3439.9873127583009591
 20
166.3211499467948045
 30
0.0
 40
0.080546660450082
 50
211.8939344413072092
 51
224.3781984023935934
  0
ARC
  5
FA23
  8
0
 10
3440.3259281608861784
 20
166.5479696835373034
 30
0.0
 40
0.4880718031401406
 50
210.0063388425461142
 51
213.4988119620848863
  0
ARC
  5
FA24
  8
0
 10
3440.3175928039768223
 20
166.5462256310183875
 30
0.0
 40
0.4799888006447148
 50
206.8627841883217968
 51
210.3236447029489113
  0
ARC
  5
FA25
  8
0
 10
3439.97578042121404
 20
166.3745579073197121
 30
0.0
 40
0.0975007498520388
 50
199.1264439622975999
 51
207.6305576778385955
  0
ARC
  5
FA26
  8
0
 10
3439.8970318923038576
 20
166.3473081732443859
 30
0.0
 40
0.0141709434811737
 50
163.2961415005387096
 51
199.3560216891470134
  0
ARC
  5
FA27
  8
0
 10
3439.8953510144019674
 20
166.3475467975254105
 30
0.0
 40
0.012495000326272
 50
119.8244551330869001
 51
162.1287250163790929
  0
ARC
  5
FA28
  8
0
 10
3439.6518824085987944
 20
166.1568469756012121
 30
0.0
 40
0.2960478481578903
 50
28.0872171922178993
 51
30.2805790892808702
  0
ARC
  5
FA29
  8
0
 10
3439.7684416893412163
 20
166.2190504207815138
 30
0.0
 40
0.1639292101115726
 50
25.7815349400567904
 51
28.0872171922193417
  0
ARC
  5
FA2A
  8
0
 10
3439.8726947514091989
 20
166.2694068766014084
 30
0.0
 40
0.0481515197156614
 50
20.8077040975214196
 51
25.7815349400611886
  0
ARC
  5
FA2B
  8
0
 10
3439.9110677601020143
 20
166.2839893197383958
 30
0.0
 40
0.0071011184508354
 50
8.7357867734499521
 51
20.8077040974848799
  0
ARC
  5
FA2C
  8
0
 10
3439.9177648034551567
 20
166.2850183926871068
 30
0.0
 40
0.0003254722975166
 50
312.6520975265564743
 51
8.7357867739414701
  0
ARC
  5
FA2D
  8
0
 10
3439.9179041261818384
 20
166.2849487446426906
 30
0.0
 40
0.0001881538474914
 50
265.3603377238998746
 51
295.5665104960118015
  0
ARC
  5
FA2E
  8
0
 10
3439.9180278545809415
 20
166.2853871955138061
 30
0.0
 40
0.0006412236066324
 50
226.7082926762768977
 51
257.4851939207496798
  0
ARC
  5
FA2F
  8
0
 10
3439.928621562401986
 20
166.2967330016051903
 30
0.0
 40
0.0161639093224561
 50
215.3064271656022868
 51
226.9532425671322926
  0
ARC
  5
FA30
  8
0
 10
3440.0797189118570714
 20
166.404225729029406
 30
0.0
 40
0.2015960611527888
 50
209.4821056297963082
 51
215.4187755602370942
  0
ARC
  5
FA31
  8
0
 10
3440.1063026754200109
 20
166.4234233292862086
 30
0.0
 40
0.2342137179315194
 50
206.2359880412996063
 51
210.3697694892950096
  0
ARC
  5
FA32
  8
0
 10
3439.9377050933089777
 20
166.3401663474975862
 30
0.0
 40
0.0461797888915376
 50
199.8697385565241973
 51
206.05224038017559
  0
ARC
  5
FA33
  8
0
 10
3439.8954993162328719
 20
166.3251184878193101
 30
0.0
 40
0.0013856122598902
 50
160.0438556847093992
 51
207.8761687637694138
  0
ARC
  5
FA34
  8
0
 10
3439.8943013604698535
 20
166.3253823457785927
 30
0.0
 40
0.0002336965613697
 50
53.9725112301269476
 51
116.5496837185809937
  0
ARC
  5
FA35
  8
0
 10
3439.8841885075858045
 20
166.3138834647510862
 30
0.0
 40
0.0155459101473967
 50
33.9863533702145872
 51
48.7491363912314668
  0
ARC
  5
FA36
  8
0
 10
3439.7205672340642195
 20
166.198770276031297
 30
0.0
 40
0.2156004583445092
 50
29.8632765468501589
 51
35.0454116533785509
  0
ARC
  5
FA37
  8
0
 10
3439.6008555406810956
 20
166.122953867278909
 30
0.0
 40
0.3702908410270351
 50
22.1934132848202701
 51
30.82895564923367
  0
ARC
  5
FA38
  8
0
 10
3439.5921190702720196
 20
166.1328126408606067
 30
0.0
 40
0.3729652054684831
 50
28.8396539788681885
 51
37.2152735289227792
  0
ARC
  5
FA39
  8
0
 10
3438.7804837139879055
 20
167.1414470477643874
 30
0.0
 40
0.5754752159633983
 50
26.1304595962911392
 51
30.1210437872433303
  0
ARC
  5
FA3A
  8
0
 10
3439.126898274495943
 20
167.2907077823516033
 30
0.0
 40
0.1995944934806548
 50
22.2002889288897194
 51
31.4664126148994789
  0
ARC
  5
FA3B
  8
0
 10
3439.3007744829042167
 20
167.3604291951120899
 30
0.0
 40
0.0123174160695262
 50
355.647174192755017
 51
27.5362419474848608
  0
ARC
  5
FA3C
  8
0
 10
3439.3116621671620123
 20
167.3596004502917935
 30
0.0
 40
0.0013982363158355
 50
271.4637643447886717
 51
355.6471741930483859
  0
ARC
  5
FA3D
  8
0
 10
3439.3167022920470117
 20
167.3688108295521886
 30
0.0
 40
0.011729328046824
 50
225.3205775391427039
 51
244.7443687558553052
  0
ARC
  5
FA3E
  8
0
 10
3439.4988650428667825
 20
167.5486041808609059
 30
0.0
 40
0.2676755994166819
 50
220.241915542042392
 51
224.6554231186892991
  0
ARC
  5
FA3F
  8
0
 10
3438.7527471549210532
 20
167.1171487651052132
 30
0.0
 40
0.6117011841006881
 50
30.7859228168072008
 51
36.0454915634110407
  0
ARC
  5
FA40
  8
0
 10
3439.1883981798569039
 20
167.4366106032771029
 30
0.0
 40
0.0715020705897464
 50
34.4812221985043266
 51
49.8182445234861788
  0
ARC
  5
FA41
  8
0
 10
3439.2294547198248438
 20
167.4855484972052864
 30
0.0
 40
0.0076260146396362
 50
48.2539751586841206
 51
74.6367782325603883
  0
ARC
  5
FA42
  8
0
 10
3439.2301975779291752
 20
167.4882522041260131
 30
0.0
 40
0.0048221121313219
 50
74.6367782325603883
 51
93.4880884989368468
  0
ARC
  5
FA43
  8
0
 10
3439.2304619817709863
 20
167.4908265490861083
 30
0.0
 40
0.0023072718272709
 50
103.9899304771360988
 51
129.1311690286511862
  0
ARC
  5
FA44
  8
0
 10
3439.2299775621049776
 20
167.4920471151093011
 30
0.0
 40
0.0011261306639196
 50
149.6393972962918895
 51
182.0798351809683879
  0
ARC
  5
FA45
  8
0
 10
3439.3662672243058296
 20
167.5280848028343996
 30
0.0
 40
0.1420723707693409
 50
194.7110758860341946
 51
203.7417997018735889
  0
LINE
  5
FA46
  8
0
 10
3439.2473850579199279
 20
167.4770261130597078
 30
0.0
 11
3439.2015197002001514
 21
167.4517974160052063
 31
0.0
  0
LINE
  5
FA47
  8
0
 10
3439.3049330872950122
 20
167.3809376984401069
 30
0.0
 11
3439.2560786152621404
 21
167.3562271715207999
 31
0.0
  0
ARC
  5
FA48
  8
0
 10
3439.2500263535530394
 20
167.3695205823055971
 30
0.0
 40
0.0146063219902665
 50
272.4512737001174969
 51
294.4789593148519202
  0
ARC
  5
FA49
  8
0
 10
3439.2509113666551457
 20
167.3682642601642954
 30
0.0
 40
0.0133391744862587
 50
228.805367407653705
 51
268.8818430410532869
  0
ARC
  5
FA4A
  8
0
 10
3439.2996957612599545
 20
167.4145604870751072
 30
0.0
 40
0.080546660450082
 50
211.8939344413072092
 51
224.3781984023935934
  0
ARC
  5
FA4B
  8
0
 10
3439.6383111638429
 20
167.6413802238176061
 30
0.0
 40
0.4880718031401406
 50
210.0063388425461142
 51
213.4988119620848863
  0
ARC
  5
FA4C
  8
0
 10
3439.6299758069358177
 20
167.6396361712988039
 30
0.0
 40
0.4799888006447148
 50
206.8627841883217968
 51
210.3236447029489113
  0
ARC
  5
FA4D
  8
0
 10
3439.2881634241739448
 20
167.4679684475999863
 30
0.0
 40
0.0975007498520388
 50
199.1264439622975999
 51
207.6305576778385955
  0
ARC
  5
FA4E
  8
0
 10
3439.2094148952619435
 20
167.4407187135246886
 30
0.0
 40
0.0141709434811737
 50
163.2961415005387096
 51
199.3560216891470134
  0
ARC
  5
FA4F
  8
0
 10
3439.2077340173609628
 20
167.4409573378057985
 30
0.0
 40
0.012495000326272
 50
119.8244551330869001
 51
162.1287250163790929
  0
ARC
  5
FA50
  8
0
 10
3438.9642654115577898
 20
167.2502575158816001
 30
0.0
 40
0.2960478481578903
 50
28.0872171922178993
 51
30.2805790892808702
  0
ARC
  5
FA51
  8
0
 10
3439.0808246922988474
 20
167.3124609610617881
 30
0.0
 40
0.1639292101115726
 50
25.7815349400567904
 51
28.0872171922193417
  0
ARC
  5
FA52
  8
0
 10
3439.1850777543681943
 20
167.3628174168817111
 30
0.0
 40
0.0481515197156614
 50
20.8077040975214196
 51
25.7815349400611886
  0
ARC
  5
FA53
  8
0
 10
3439.2234507630610096
 20
167.3773998600188122
 30
0.0
 40
0.0071011184508354
 50
8.7357867734499521
 51
20.8077040974848799
  0
ARC
  5
FA54
  8
0
 10
3439.230147806414152
 20
167.3784289329674095
 30
0.0
 40
0.0003254722975166
 50
312.6520975265564743
 51
8.7357867739414701
  0
ARC
  5
FA55
  8
0
 10
3439.2302871291399242
 20
167.378359284923107
 30
0.0
 40
0.0001881538474914
 50
265.3603377238998746
 51
295.5665104960118015
  0
ARC
  5
FA56
  8
0
 10
3439.2304108575390273
 20
167.3787977357941088
 30
0.0
 40
0.0006412236066324
 50
226.7082926762768977
 51
257.4851939207496798
  0
ARC
  5
FA57
  8
0
 10
3439.2410045653600719
 20
167.3901435418856067
 30
0.0
 40
0.0161639093224561
 50
215.3064271656022868
 51
226.9532425671322926
  0
ARC
  5
FA58
  8
0
 10
3439.3921019148160667
 20
167.497636269309794
 30
0.0
 40
0.2015960611527888
 50
209.4821056297963082
 51
215.4187755602370942
  0
ARC
  5
FA59
  8
0
 10
3439.4186856783790063
 20
167.5168338695665113
 30
0.0
 40
0.2342137179315194
 50
206.2359880412996063
 51
210.3697694892950096
  0
ARC
  5
FA5A
  8
0
 10
3439.2500880962670635
 20
167.4335768877778889
 30
0.0
 40
0.0461797888915376
 50
199.8697385565241973
 51
206.05224038017559
  0
ARC
  5
FA5B
  8
0
 10
3439.2078823191918673
 20
167.4185290280996981
 30
0.0
 40
0.0013856122598902
 50
160.0438556847093992
 51
207.8761687637694138
  0
ARC
  5
FA5C
  8
0
 10
3439.2066843634288489
 20
167.4187928860588954
 30
0.0
 40
0.0002336965613697
 50
53.9725112301269476
 51
116.5496837185809937
  0
ARC
  5
FA5D
  8
0
 10
3439.1965715105447998
 20
167.4072940050313889
 30
0.0
 40
0.0155459101473967
 50
33.9863533702145872
 51
48.7491363912314668
  0
ARC
  5
FA5E
  8
0
 10
3439.0329502370232149
 20
167.2921808163117134
 30
0.0
 40
0.2156004583445092
 50
29.8632765468501589
 51
35.0454116533785509
  0
ARC
  5
FA5F
  8
0
 10
3438.9132385436391814
 20
167.2163644075592117
 30
0.0
 40
0.3702908410270351
 50
22.1934132848202701
 51
30.82895564923367
  0
ARC
  5
FA60
  8
0
 10
3438.9045020732301055
 20
167.2262231811409947
 30
0.0
 40
0.3729652054684831
 50
28.8396539788681885
 51
37.2152735289227792
  0
ARC
  5
FA61
  8
0
 10
3438.8866036807507953
 20
166.9011929306539059
 30
0.0
 40
0.5754752159633983
 50
26.1304595962911392
 51
30.1210437872433303
  0
ARC
  5
FA62
  8
0
 10
3439.2330182412588329
 20
167.0504536652412071
 30
0.0
 40
0.1995944934806548
 50
22.2002889288897194
 51
31.4664126148994789
  0
ARC
  5
FA63
  8
0
 10
3439.406894449666197
 20
167.1201750780016937
 30
0.0
 40
0.0123174160695262
 50
355.647174192755017
 51
27.5362419474848608
  0
ARC
  5
FA64
  8
0
 10
3439.4177821339249022
 20
167.1193463331813973
 30
0.0
 40
0.0013982363158355
 50
271.4637643447886717
 51
355.6471741930483859
  0
ARC
  5
FA65
  8
0
 10
3439.4228222588099015
 20
167.1285567124417071
 30
0.0
 40
0.011729328046824
 50
225.3205775391427039
 51
244.7443687558553052
  0
ARC
  5
FA66
  8
0
 10
3439.604985009630127
 20
167.3083500637505097
 30
0.0
 40
0.2676755994166819
 50
220.241915542042392
 51
224.6554231186892991
  0
ARC
  5
FA67
  8
0
 10
3438.858867121683943
 20
166.8768946479947886
 30
0.0
 40
0.6117011841006881
 50
30.7859228168072008
 51
36.0454915634110407
  0
ARC
  5
FA68
  8
0
 10
3439.2945181466197937
 20
167.1963564861667066
 30
0.0
 40
0.0715020705897464
 50
34.4812221985043266
 51
49.8182445234861788
  0
ARC
  5
FA69
  8
0
 10
3439.3355746865868241
 20
167.2452943800948901
 30
0.0
 40
0.0076260146396362
 50
48.2539751586841206
 51
74.6367782325603883
  0
ARC
  5
FA6A
  8
0
 10
3439.336317544692065
 20
167.2479980870155885
 30
0.0
 40
0.0048221121313219
 50
74.6367782325603883
 51
93.4880884989368468
  0
ARC
  5
FA6B
  8
0
 10
3439.3365819485329666
 20
167.2505724319757121
 30
0.0
 40
0.0023072718272709
 50
103.9899304771360988
 51
129.1311690286511862
  0
ARC
  5
FA6C
  8
0
 10
3439.3360975288678674
 20
167.2517929979989049
 30
0.0
 40
0.0011261306639196
 50
149.6393972962918895
 51
182.0798351809683879
  0
ARC
  5
FA6D
  8
0
 10
3439.4723871910691742
 20
167.2878306857238897
 30
0.0
 40
0.1420723707693409
 50
194.7110758860341946
 51
203.7417997018735889
  0
LINE
  5
FA6E
  8
0
 10
3439.3535050246828177
 20
167.2367719959493115
 30
0.0
 11
3439.3076396669621317
 21
167.2115432988948101
 31
0.0
  0
LINE
  5
FA6F
  8
0
 10
3439.4110530540569926
 20
167.140683581329597
 30
0.0
 11
3439.3621985820241207
 21
167.1159730544104036
 31
0.0
  0
ARC
  5
FA70
  8
0
 10
3439.3561463203159292
 20
167.1292664651952009
 30
0.0
 40
0.0146063219902665
 50
272.4512737001174969
 51
294.4789593148519202
  0
ARC
  5
FA71
  8
0
 10
3439.357031333417126
 20
167.1280101430538139
 30
0.0
 40
0.0133391744862587
 50
228.805367407653705
 51
268.8818430410532869
  0
ARC
  5
FA72
  8
0
 10
3439.4058157280228443
 20
167.1743063699647109
 30
0.0
 40
0.080546660450082
 50
211.8939344413072092
 51
224.3781984023935934
  0
ARC
  5
FA73
  8
0
 10
3439.744431130607154
 20
167.4011261067072098
 30
0.0
 40
0.4880718031401406
 50
210.0063388425461142
 51
213.4988119620848863
  0
ARC
  5
FA74
  8
0
 10
3439.7360957736991622
 20
167.399382054188294
 30
0.0
 40
0.4799888006447148
 50
206.8627841883217968
 51
210.3236447029489113
  0
ARC
  5
FA75
  8
0
 10
3439.3942833909359251
 20
167.2277143304895901
 30
0.0
 40
0.0975007498520388
 50
199.1264439622975999
 51
207.6305576778385955
  0
ARC
  5
FA76
  8
0
 10
3439.3155348620248333
 20
167.2004645964142924
 30
0.0
 40
0.0141709434811737
 50
163.2961415005387096
 51
199.3560216891470134
  0
ARC
  5
FA77
  8
0
 10
3439.3138539841229431
 20
167.2007032206952886
 30
0.0
 40
0.012495000326272
 50
119.8244551330869001
 51
162.1287250163790929
  0
ARC
  5
FA78
  8
0
 10
3439.0703853783211343
 20
167.0100033987710901
 30
0.0
 40
0.2960478481578903
 50
28.0872171922178993
 51
30.2805790892808702
  0
ARC
  5
FA79
  8
0
 10
3439.1869446590631014
 20
167.0722068439513919
 30
0.0
 40
0.1639292101115726
 50
25.7815349400567904
 51
28.0872171922193417
  0
ARC
  5
FA7A
  8
0
 10
3439.2911977211310841
 20
167.1225632997712864
 30
0.0
 40
0.0481515197156614
 50
20.8077040975214196
 51
25.7815349400611886
  0
ARC
  5
FA7B
  8
0
 10
3439.3295707298238995
 20
167.1371457429083023
 30
0.0
 40
0.0071011184508354
 50
8.7357867734499521
 51
20.8077040974848799
  0
ARC
  5
FA7C
  8
0
 10
3439.3362677731761323
 20
167.1381748158570133
 30
0.0
 40
0.0003254722975166
 50
312.6520975265564743
 51
8.7357867739414701
  0
ARC
  5
FA7D
  8
0
 10
3439.336407095902814
 20
167.1381051678125971
 30
0.0
 40
0.0001881538474914
 50
265.3603377238998746
 51
295.5665104960118015
  0
ARC
  5
FA7E
  8
0
 10
3439.3365308243019172
 20
167.1385436186835989
 30
0.0
 40
0.0006412236066324
 50
226.7082926762768977
 51
257.4851939207496798
  0
ARC
  5
FA7F
  8
0
 10
3439.3471245321229617
 20
167.1498894247752105
 30
0.0
 40
0.0161639093224561
 50
215.3064271656022868
 51
226.9532425671322926
  0
ARC
  5
FA80
  8
0
 10
3439.498221881578047
 20
167.2573821521993125
 30
0.0
 40
0.2015960611527888
 50
209.4821056297963082
 51
215.4187755602370942
  0
ARC
  5
FA81
  8
0
 10
3439.5248056451418961
 20
167.2765797524560867
 30
0.0
 40
0.2342137179315194
 50
206.2359880412996063
 51
210.3697694892950096
  0
ARC
  5
FA82
  8
0
 10
3439.3562080630299533
 20
167.1933227706674927
 30
0.0
 40
0.0461797888915376
 50
199.8697385565241973
 51
206.05224038017559
  0
ARC
  5
FA83
  8
0
 10
3439.3140022859538476
 20
167.1782749109891881
 30
0.0
 40
0.0013856122598902
 50
160.0438556847093992
 51
207.8761687637694138
  0
ARC
  5
FA84
  8
0
 10
3439.3128043301921934
 20
167.1785387689484992
 30
0.0
 40
0.0002336965613697
 50
53.9725112301269476
 51
116.5496837185809937
  0
ARC
  5
FA85
  8
0
 10
3439.3026914773081444
 20
167.1670398879209927
 30
0.0
 40
0.0155459101473967
 50
33.9863533702145872
 51
48.7491363912314668
  0
ARC
  5
FA86
  8
0
 10
3439.1390702037851952
 20
167.0519266992012035
 30
0.0
 40
0.2156004583445092
 50
29.8632765468501589
 51
35.0454116533785509
  0
ARC
  5
FA87
  8
0
 10
3439.0193585104020713
 20
166.9761102904487871
 30
0.0
 40
0.3702908410270351
 50
22.1934132848202701
 51
30.82895564923367
  0
ARC
  5
FA88
  8
0
 10
3439.0106220399939048
 20
166.9859690640305132
 30
0.0
 40
0.3729652054684831
 50
28.8396539788681885
 51
37.2152735289227792
  0
LINE
  5
FA89
  8
0
 10
3440.0393285716768332
 20
166.207387486150111
 30
0.0
 11
3439.9993148817698057
 21
166.2647921299677876
 31
0.0
  0
LINE
  5
FA8A
  8
0
 10
3439.8473828228388811
 20
166.4917135123411924
 30
0.0
 11
3439.918495485960193
 21
166.3916109502542895
 31
0.0
  0
LINE
  5
FA8B
  8
0
 10
3439.7764856943840641
 20
166.6093963982175978
 30
0.0
 11
3439.7077990186398893
 21
166.7125289256894121
 31
0.0
  0
LINE
  5
FA8C
  8
0
 10
3439.8061326188890234
 20
166.4801258387581129
 30
0.0
 11
3439.7878491702340398
 21
166.4708769566823037
 31
0.0
  0
ARC
  5
FA8D
  8
0
 10
3439.7825179667188422
 20
166.481415828833093
 30
0.0
 40
0.0118105697207404
 50
212.6294066190529009
 51
296.8330654736370775
  0
LINE
  5
FA8E
  8
0
 10
3439.7725713911158891
 20
166.475047533071205
 30
0.0
 11
3439.7258318866051923
 21
166.5480494840844017
 31
0.0
  0
ARC
  5
FA8F
  8
0
 10
3439.7357734834249641
 20
166.5544145921805068
 30
0.0
 40
0.0118046579116614
 50
118.8241228294846934
 51
212.6294066190644969
  0
LINE
  5
FA90
  8
0
 10
3439.7300821913381697
 20
166.5647566975171969
 30
0.0
 11
3439.7500684879669279
 21
166.5757604140268029
 31
0.0
  0
LINE
  5
FA91
  8
0
 10
3439.6964974679221996
 20
166.7154400082378061
 30
0.0
 11
3439.649354004567158
 21
166.6875363621714996
 31
0.0
  0
ARC
  5
FA92
  8
0
 10
3439.6438834397699793
 20
166.6985217406881077
 30
0.0
 40
0.0122721481555543
 50
213.5944930927398957
 51
296.4726622492503907
  0
ARC
  5
FA93
  8
0
 10
3440.3944043617598254
 20
167.2239506023354068
 30
0.0
 40
0.9284328936067113
 50
209.4851234519996979
 51
214.9767958967109109
  0
ARC
  5
FA94
  8
0
 10
3439.5969760943071378
 20
166.7719522637777914
 30
0.0
 40
0.0118486716704183
 50
116.309906222400798
 51
204.6116758052581019
  0
LINE
  5
FA95
  8
0
 10
3439.5917244527859111
 20
166.7825735293183129
 30
0.0
 11
3439.6458431844421284
 21
166.8093323159407078
 31
0.0
  0
LINE
  5
FA96
  8
0
 10
3439.5216672314118114
 20
166.9126302166770017
 30
0.0
 11
3439.4985186952258118
 21
166.900517474928904
 31
0.0
  0
ARC
  5
FA97
  8
0
 10
3439.4933456449712139
 20
166.9133650543068939
 30
0.0
 40
0.0138499366354074
 50
227.4525184888379954
 51
291.9320751329058226
  0
LINE
  5
FA98
  8
0
 10
3439.4839803044710607
 20
166.9031615675440037
 30
0.0
 11
3439.4397351275388246
 21
166.9787791273074902
 31
0.0
  0
ARC
  5
FA99
  8
0
 10
3439.449929915400844
 20
166.9847438796992094
 30
0.0
 40
0.0118113220729689
 50
118.3351971488430934
 51
210.3309516527442895
  0
LINE
  5
FA9A
  8
0
 10
3439.4443239193910813
 20
166.9951400394635925
 30
0.0
 11
3439.4799739752738788
 21
167.0143638755311031
 31
0.0
  0
LINE
  5
FA9B
  8
0
 10
3439.3368163666477813
 20
167.2527943295096975
 30
0.0
 11
3439.2672863849561509
 21
167.3618960465121859
 31
0.0
  0
LINE
  5
FA9C
  8
0
 10
3439.2956455686421577
 20
167.317396744805194
 30
0.0
 11
3439.253728572547061
 21
167.295989240798292
 31
0.0
  0
ARC
  5
FA9D
  8
0
 10
3439.2486132073358931
 20
167.3075474202184125
 30
0.0
 40
0.0126395598315314
 50
204.2920834175830862
 51
293.8729998926426106
  0
LINE
  5
FA9E
  8
0
 10
3439.2370927525271327
 20
167.3023476515978132
 30
0.0
 11
3439.0888788798752103
 21
167.5697555145667934
 31
0.0
  0
ARC
  5
FA9F
  8
0
 10
3439.101595620812077
 20
167.5773339968484095
 30
0.0
 40
0.0148178885612017
 50
168.804191780018698
 51
211.2793729964137981
  0
LINE
  5
FAA0
  8
0
 10
3439.2099148411361966
 20
167.4757916840243865
 30
0.0
 11
3439.1673060748698845
 21
167.4532958064982893
 31
0.0
  0
ARC
  5
FAA1
  8
0
 10
3439.1611532039419217
 20
167.4649497746059978
 30
0.0
 40
0.0131784973846382
 50
228.7087085294351994
 51
297.8324229100596199
  0
LINE
  5
FAA2
  8
0
 10
3439.205462605826142
 20
167.4156321739507973
 30
0.0
 11
3439.1911739900269822
 21
167.4080883049487056
 31
0.0
  0
ARC
  5
FAA3
  8
0
 10
3439.1858842323108547
 20
167.4181074762317962
 30
0.0
 40
0.0113298424477255
 50
209.7346277465655078
 51
297.8324229100883258
  0
LINE
  5
FAA4
  8
0
 10
3439.250651062245197
 20
167.3549276257465976
 30
0.0
 11
3439.2270281029968828
 21
167.3426071674105913
 31
0.0
  0
ARC
  5
FAA5
  8
0
 10
3439.221770881035809
 20
167.3551344032503891
 30
0.0
 40
0.0135856549543153
 50
235.2082247213679977
 51
292.766008233876903
  0
LINE
  5
FAA6
  8
0
 10
3439.218497265203041
 20
167.461136094813611
 30
0.0
 11
3439.1699991860168666
 21
167.5418020109580937
 31
0.0
  0
ARC
  5
FAA7
  8
0
 10
3438.8729806294059017
 20
167.4106245756082103
 30
0.0
 40
0.3291166933781725
 50
21.9468122341664902
 51
31.1556458712677404
  0
ARC
  5
FAA8
  8
0
 10
3438.8808807293539758
 20
167.4138078955654123
 30
0.0
 40
0.3205993519425521
 50
20.8378046356468403
 51
21.9468122341664902
  0
ARC
  5
FAA9
  8
0
 10
3439.1758470921031403
 20
167.5260778685473042
 30
0.0
 40
0.0049893045948908
 50
355.8475707186941008
 51
20.8378046356956794
  0
ARC
  5
FAAA
  8
0
 10
3439.1802203749998625
 20
167.5257603650723865
 30
0.0
 40
0.0006045113547757
 50
246.1828045528949929
 51
355.8475707189803074
  0
LINE
  5
FAAB
  8
0
 10
3439.1739367523300643
 20
167.5438318078072939
 30
0.0
 11
3439.1329693052839502
 21
167.5227208895832121
 31
0.0
  0
ARC
  5
FAAC
  8
0
 10
3439.1279884886721447
 20
167.5346055914120029
 30
0.0
 40
0.0128862202249832
 50
205.8923629622757971
 51
292.7383038165014
  0
LINE
  5
FAAD
  8
0
 10
3439.1163958388688116
 20
167.5289784125235997
 30
0.0
 11
3439.0870597261091461
 21
167.580211076375889
 31
0.0
  0
LINE
  5
FAAE
  8
0
 10
3439.0870597261091461
 20
167.580211076375889
 30
0.0
 11
3439.0317421169970658
 21
167.6853216500848021
 31
0.0
  0
ARC
  5
FAAF
  8
0
 10
3439.0441050974291102
 20
167.6918280413532898
 30
0.0
 40
0.0139705551965719
 50
127.3120455984511068
 51
207.7569417966030016
  0
LINE
  5
FAB0
  8
0
 10
3439.0356367668327948
 20
167.7029394674281093
 30
0.0
 11
3439.0701870618518114
 21
167.729271219846396
 31
0.0
  0
ARC
  5
FAB1
  8
0
 10
3450.8857856066570093
 20
174.7183526425536968
 30
0.0
 40
13.7274920872870307
 50
210.6431600072477863
 51
210.9818740504690027
  0
ARC
  5
FAB2
  8
0
 10
3438.8926320264490641
 20
167.6049483169263112
 30
0.0
 40
0.2166687779883391
 50
32.5713828136020567
 51
37.946243312732669
  0
ARC
  5
FAB3
  8
0
 10
3439.0617033825351427
 20
167.7369632849930099
 30
0.0
 40
0.0021667494745095
 50
34.2482210639400932
 51
83.9056276870928457
  0
ARC
  5
FAB4
  8
0
 10
3439.0983862762750505
 20
167.7554146526435943
 30
0.0
 40
0.0399299212107109
 50
204.0878349918197046
 51
211.3783322412249106
  0
LINE
  5
FAB5
  8
0
 10
3439.0642961951489269
 20
167.7346236695804009
 30
0.0
 11
3439.0680015079929035
 21
167.7276055477275065
 31
0.0
  0
LINE
  5
FAB6
  8
0
 10
3439.6405095978020654
 20
166.8066951457325899
 30
0.0
 11
3439.5563251492371819
 21
166.9287144420601123
 31
0.0
  0
LINE
  5
FAB7
  8
0
 10
3439.4954685482271088
 20
167.0221143554628043
 30
0.0
 11
3439.4189606439008458
 21
167.1226500922072944
 31
0.0
  0
LINE
  5
FAB8
  8
0
 10
3439.0619334185380467
 20
167.739117788815804
 30
0.0
 11
3439.0219788756849084
 21
167.8071166652113106
 31
0.0
  0
LINE
  5
FABA
  8
0
 10
3440.3904413207560538
 20
159.4378846045173077
 30
0.0
 11
3440.17544842121697
 21
159.4378846045173077
 31
0.0
  0
LINE
  5
FABB
  8
0
 10
3440.283716137716965
 20
134.0029139854214861
 30
0.0
 11
3440.283716137716965
 21
159.4378846045173077
 31
0.0
  0
LINE
  5
FABC
  8
0
 10
3440.8545822795181266
 20
159.3340445412341069
 30
0.0
 11
3440.8545822795181266
 21
134.002913985423703
 31
0.0
  0
LINE
  5
FABD
  8
0
 10
3442.4510389724177912
 20
149.6604495773715087
 30
0.0
 11
3441.8791421767941756
 21
149.6504670816729003
 31
0.0
  0
ARC
  5
FABE
  8
0
 10
3441.8801721171771533
 20
149.5914216591474997
 30
0.0
 40
0.0590544045638446
 50
90.9993196868276186
 51
180.0006802951417058
  0
LINE
  5
FABF
  8
0
 10
3441.8211177126167968
 20
149.591420957971593
 30
0.0
 11
3441.8211443763420903
 21
147.3457502040758129
 31
0.0
  0
ARC
  5
FAC0
  8
0
 10
3441.7620669960169835
 20
149.2862205061985037
 30
0.0
 40
0.0590543403601689
 50
270.9957420720780874
 51
0.0006802951457623
  0
LINE
  5
FAC1
  8
0
 10
3441.7630932484171353
 20
149.2271750836715967
 30
0.0
 11
3441.2109648819628092
 21
149.2175786909776036
 31
0.0
  0
LINE
  5
FAC2
  8
0
 10
3441.2109648819628092
 20
149.2175786909776036
 30
0.0
 11
3441.2109648819628092
 21
147.7213675764654965
 31
0.0
  0
LINE
  5
FAC3
  8
0
 10
3439.6171467482849948
 20
149.1584741989256031
 30
0.0
 11
3440.283716137716965
 21
149.1584830678478113
 31
0.0
  0
LINE
  5
FAC4
  8
0
 10
3440.8545822795181266
 20
149.158490663407207
 30
0.0
 11
3441.2109648819628092
 21
149.1584954051934915
 31
0.0
  0
LINE
  5
FAC5
  8
0
 10
3442.4510389724168817
 20
147.2785598135716043
 30
0.0
 11
3441.8791421767941756
 21
147.2884791857701998
 31
0.0
  0
ARC
  5
FAC6
  8
0
 10
3441.8801721171771533
 20
147.3475246082956005
 30
0.0
 40
0.0590544045638446
 50
179.9993197048582942
 51
269.0006803131723814
  0
ARC
  5
FAC7
  8
0
 10
3441.7620669960169835
 20
147.6527257612445965
 30
0.0
 40
0.0590543403601689
 50
359.999319704855111
 51
89.0042579279218842
  0
LINE
  5
FAC8
  8
0
 10
3441.7630932484171353
 20
147.7117711837715888
 30
0.0
 11
3441.2109648819628092
 21
147.7213675764654965
 31
0.0
  0
LINE
  5
FAC9
  8
0
 10
3439.6171467482849948
 20
147.7804720685174118
 30
0.0
 11
3440.283716137716965
 21
147.7804631995952889
 31
0.0
  0
LINE
  5
FACA
  8
0
 10
3440.8545822795181266
 20
147.7804556040358932
 30
0.0
 11
3441.2109648819628092
 21
147.7804508622496087
 31
0.0
  0
ARC
  5
FACB
  8
0
 10
3397.8882593255748361
 20
135.0031215029887051
 30
0.0
 40
42.4072537826780831
 50
350.8689052881995281
 51
358.6485098921428971
  0
ARC
  5
FACC
  8
0
 10
3407.0020769646039298
 20
134.4571538383783889
 30
0.0
 40
33.8555527194609525
 50
349.2182882047341081
 51
359.2312396259102911
  0
LINE
  5
FACD
  8
0
 10
3442.4510389724177912
 20
158.7557781852322023
 30
0.0
 11
3442.0634528407172184
 21
158.7649408763172119
 31
0.0
  0
ARC
  5
FACE
  8
0
 10
3442.0648695774389125
 20
158.8248695043322982
 30
0.0
 40
0.0599453717871924
 50
233.4758037281908116
 51
268.6457571128237873
  0
ARC
  5
FACF
  8
0
 10
3440.0267130847141743
 20
156.0728903983394105
 30
0.0
 40
3.3645941430465309
 50
53.4758037281907477
 51
83.0013529964598717
  0
ARC
  5
FAD0
  8
0
 10
3440.4434461518371791
 20
159.4675715796390136
 30
0.0
 40
0.0555705857205513
 50
233.0877698411217978
 51
263.0013529964597865
  0
ARC
  5
FAD1
  8
0
 10
3440.8711424312450617
 20
160.0573976108186969
 30
0.0
 40
0.7841364183625
 50
135.1507541673518062
 51
233.9848571698605042
  0
ARC
  5
FAD2
  8
0
 10
3440.353810008542041
 20
160.5731986411180117
 30
0.0
 40
0.0536069980774783
 50
106.1734957209480967
 51
136.047841496075705
  0
ARC
  5
FAD3
  8
0
 10
3441.9924911625980712
 20
154.9230667437811064
 30
0.0
 40
5.9365710793856783
 50
97.4897798009760663
 51
106.1734957209480967
  0
ARC
  5
FAD4
  8
0
 10
3441.2068799355120063
 20
160.8986128617208919
 30
0.0
 40
0.0903963510679706
 50
277.4897798009761232
 51
291.9796959443568767
  0
LINE
  5
FAD5
  8
0
 10
3441.2407133011170117
 20
160.8147868296171907
 30
0.0
 11
3441.2407130773390236
 21
160.9015991103235876
 31
0.0
  0
ARC
  5
FAD6
  8
0
 10
3441.2604043934588844
 20
160.9015935843372915
 30
0.0
 40
0.01969131689522
 50
97.6034540495221137
 51
179.9839210500859963
  0
ARC
  5
FAD7
  8
0
 10
3442.723616987267178
 20
150.2251843425553091
 30
0.0
 40
10.7920603207843602
 50
91.4472890566938048
 51
92.0329507124988169
  0
ARC
  5
FAD8
  8
0
 10
3442.74909579738096
 20
149.4522625521184978
 30
0.0
 40
11.5653996341822101
 50
92.9992915387130239
 51
97.4086143164995519
  0
LINE
  5
FAD9
  8
0
 10
3442.3407768602642136
 20
161.0104520445923981
 30
0.0
 11
3442.3408027519180905
 21
161.0077627613171956
 31
0.0
  0
ARC
  5
FADA
  8
0
 10
3440.1552619524682086
 20
209.6504150437343981
 30
0.0
 40
48.6917262956881132
 50
272.3407522762669259
 51
272.5726002901683955
  0
LINE
  5
FADB
  8
0
 10
3442.1439523582171205
 20
160.9993172131173083
 30
0.0
 11
3442.1439523582171205
 21
161.001819691523508
 31
0.0
  0
LINE
  5
FADC
  8
0
 10
3440.1754496607168221
 20
159.4378846045173077
 30
0.0
 11
3440.1637317883241849
 21
159.7191076392190894
 31
0.0
  0
LINE
  5
FADD
  8
0
 10
3440.138041359026829
 20
160.3356650011365048
 30
0.0
 11
3440.1163956839550337
 21
160.8551502991215045
 31
0.0
  0
LINE
  5
FADE
  8
0
 10
3440.2856846417171255
 20
160.5790383869124867
 30
0.0
 11
3440.2856846417171255
 21
160.6618545320172871
 31
0.0
  0
ARC
  5
FADF
  8
0
 10
3440.3250547953812202
 20
160.6618544985412029
 30
0.0
 40
0.0393701536637411
 50
131.8724694859351985
 51
179.9999512819134111
  0
ARC
  5
FAE0
  8
0
 10
3440.8753314487439638
 20
160.0474782138965963
 30
0.0
 40
0.8641504938156469
 50
124.4909686639750959
 51
131.8507942249927964
  0
ARC
  5
FAE1
  8
0
 10
3440.4972404288141661
 20
160.5983288494522014
 30
0.0
 40
0.1960271284154239
 50
90.0264797417799372
 51
124.5801770982977956
  0
LINE
  5
FAE2
  8
0
 10
3440.4971498331779003
 20
160.7943559569328897
 30
0.0
 11
3441.1150350598418299
 21
160.7944334473974095
 31
0.0
  0
ARC
  5
FAE3
  8
0
 10
3440.8707008559181304
 20
160.0859393982171923
 30
0.0
 40
0.7009378941000168
 50
100.6778428667733039
 51
124.8574871251289977
  0
ARC
  5
FAE4
  8
0
 10
3440.8678525274772255
 20
159.4097433438668077
 30
0.0
 40
1.3708946320022939
 50
84.7592381555958241
 51
95.3166107893824659
  0
LINE
  5
FAE5
  8
0
 10
3441.0193723645670616
 20
160.7944214501098941
 30
0.0
 11
3441.0219027333350823
 21
160.8551502991215045
 31
0.0
  0
ARC
  5
FAE6
  8
0
 10
3440.8983323685602045
 20
159.9849667225948053
 30
0.0
 40
0.8220908397098153
 50
133.2918340782341033
 51
168.8191359479062896
  0
ARC
  5
FAE7
  8
0
 10
3440.3777251702640569
 20
160.5355036346282134
 30
0.0
 40
0.0643990296419605
 50
110.2439287589863
 51
132.0253253976688939
  0
ARC
  5
FAE8
  8
0
 10
3442.0452779414868019
 20
148.8673518767193968
 30
0.0
 40
11.8496820176520608
 50
88.0376739053421744
 51
98.198673488642001
  0
ARC
  5
FAE9
  8
0
 10
3438.8800240421810486
 20
148.5643048087036107
 30
0.0
 40
1.0808030371236541
 50
270.0867152061874776
 51
305.3932656006417119
  0
ARC
  5
FAEA
  8
0
 10
3436.4896311098018487
 20
148.3290322291447865
 30
0.0
 40
1.182567951217433
 50
182.1018284586712923
 51
193.349574770728907
  0
ARC
  5
FAEB
  8
0
 10
3435.90537443218318
 20
148.1937801028217052
 30
0.0
 40
0.5828789687444611
 50
193.674202304586089
 51
210.5635454614092907
  0
ARC
  5
FAEC
  8
0
 10
3435.7569350771041172
 20
148.1070856037023873
 30
0.0
 40
0.4109801631534254
 50
210.6793707556676054
 51
231.5263485627291971
  0
ARC
  5
FAED
  8
0
 10
3435.8217245583118711
 20
148.2089995700657141
 30
0.0
 40
0.5312285323609593
 50
232.8943991623162049
 51
255.4980005565016938
  0
ARC
  5
FAEE
  8
0
 10
3436.1193103108139439
 20
149.5530549925570938
 30
0.0
 40
1.9075962246322491
 50
256.9538521647642142
 51
265.4876261335185745
  0
ARC
  5
FAEF
  8
0
 10
3396.9916680987239488
 20
-553.9364679760466288
 30
0.0
 40
702.6697283233276039
 50
86.5822582316584857
 51
86.8201323449393811
  0
ARC
  5
FAF0
  8
0
 10
3436.4896311098018487
 20
148.6099140382983137
 30
0.0
 40
1.182567951217433
 50
166.650425229271093
 51
177.898171541328594
  0
ARC
  5
FAF1
  8
0
 10
3435.90537443218318
 20
148.745166164621395
 30
0.0
 40
0.5828789687444611
 50
149.4364545385899987
 51
166.3257976954130868
  0
ARC
  5
FAF2
  8
0
 10
3435.7569350771041172
 20
148.8318606637407129
 30
0.0
 40
0.4109801631534254
 50
128.4736514372708029
 51
149.3206292443317125
  0
ARC
  5
FAF3
  8
0
 10
3435.8217245583118711
 20
148.729946697377386
 30
0.0
 40
0.5312285323609593
 50
104.5019994434984056
 51
127.1056008376836957
  0
ARC
  5
FAF4
  8
0
 10
3436.1193103108139439
 20
147.3858912748860064
 30
0.0
 40
1.9075962246322491
 50
94.5123738664813402
 51
103.0461478352356011
  0
ARC
  5
FAF5
  8
0
 10
3386.2433041018471158
 20
1037.4189482427939311
 30
0.0
 40
889.5223463184506727
 50
273.2046094975822825
 51
273.3925292261175741
  0
ARC
  5
FAF6
  8
0
 10
3439.5147918144689356
 20
148.4694731337216069
 30
0.0
 40
4.2109467660646986
 50
177.4981835119847062
 51
182.5018164880152938
  0
ARC
  5
FAF7
  8
0
 10
3438.9162407551161778
 20
148.4694731337216069
 30
0.0
 40
0.9828487569879026
 50
306.8742210697565156
 51
53.1257789302430297
  0
ARC
  5
FAF8
  8
0
 10
3438.8813370245270562
 20
148.3787460842607118
 30
0.0
 40
1.076697296451387
 50
54.5371831223721983
 51
89.9717489020103898
  0
ARC
  5
FAF9
  8
0
 10
3481.6279828760598321
 20
135.0031215029887051
 30
0.0
 40
42.4072537826780831
 50
181.3514901078569892
 51
189.1310947118003867
  0
ARC
  5
FAFA
  8
0
 10
3472.5141652370298289
 20
134.4571538383783889
 30
0.0
 40
33.8555527194609525
 50
180.7687603740897089
 51
190.7817117952650108
  0
LINE
  5
FAFB
  8
0
 10
3438.4845035393182116
 20
147.50710902004991
 30
0.0
 11
3438.4845035393182116
 21
147.2962447873215126
 31
0.0
  0
LINE
  5
FAFC
  8
0
 10
3438.4845035393182116
 20
147.2962447873215126
 30
0.0
 11
3439.4097003897168179
 21
147.2962447873215126
 31
0.0
  0
LINE
  5
FAFD
  8
0
 10
3439.4097003897168179
 20
147.2962447873215126
 30
0.0
 11
3439.4097003897168179
 21
147.6221911362011951
 31
0.0
  0
ARC
  5
FAFE
  8
0
 10
3438.5671807046169306
 20
147.2765597479215955
 30
0.0
 40
0.0196850393999983
 50
359.9999999999943157
 51
90.0
  0
LINE
  5
FAFF
  8
0
 10
3438.5868657440169045
 20
147.2765597479215955
 30
0.0
 11
3438.5868657440169045
 21
147.2371896692216069
 31
0.0
  0
ARC
  5
FB00
  8
0
 10
3438.5671807046169306
 20
147.2371896692216069
 30
0.0
 40
0.0196850394000015
 50
270.0000486723150743
 51
359.9999999999935199
  0
LINE
  5
FB01
  8
0
 10
3438.534582279417009
 20
147.2111979309518119
 30
0.0
 11
3438.534582279417009
 21
147.2175046298214909
 31
0.0
  0
LINE
  5
FB02
  8
0
 10
3438.534582279417009
 20
147.2175046298214909
 30
0.0
 11
3439.3596216495170665
 21
147.2175046298214909
 31
0.0
  0
LINE
  5
FB03
  8
0
 10
3439.3916489381181236
 20
147.2096306140215063
 30
0.0
 11
3438.5025549908168614
 21
147.2096306140215063
 31
0.0
  0
ARC
  5
FB04
  8
0
 10
3438.5025549908168614
 20
147.2017565983215093
 30
0.0
 40
0.0078740157000001
 50
90.0
 51
180.0
  0
LINE
  5
FB05
  8
0
 10
3438.4946809751168075
 20
147.2017565983215093
 30
0.0
 11
3438.5526151129079153
 21
145.8111733199085052
 31
0.0
  0
ARC
  5
FB06
  8
0
 10
3438.5722830883760253
 20
145.8119928195247894
 30
0.0
 40
0.0196850409863106
 50
182.3859458872148878
 51
270.0171614595843153
  0
LINE
  5
FB07
  8
0
 10
3438.5722889845169448
 20
145.7923077794216056
 30
0.0
 11
3439.3219149444162213
 21
145.7923077794216056
 31
0.0
  0
ARC
  5
FB08
  8
0
 10
3439.3270232243180544
 20
147.2765597479215955
 30
0.0
 40
0.0196850393999983
 50
90.0
 51
180.0000000000048885
  0
LINE
  5
FB09
  8
0
 10
3439.307338184917171
 20
147.2765597479215955
 30
0.0
 11
3439.307338184917171
 21
147.2371896692216069
 31
0.0
  0
ARC
  5
FB0A
  8
0
 10
3439.3270232243180544
 20
147.2371896692216069
 30
0.0
 40
0.0196850394000015
 50
180.0000000000065086
 51
269.9999513276849257
  0
LINE
  5
FB0B
  8
0
 10
3439.3596216495170665
 20
147.2111979309518119
 30
0.0
 11
3439.3596216495170665
 21
147.2175046298214909
 31
0.0
  0
ARC
  5
FB0C
  8
0
 10
3439.3916489381181236
 20
147.2017565983215093
 30
0.0
 40
0.0078740157000001
 50
0.0
 51
90.0
  0
LINE
  5
FB0D
  8
0
 10
3439.3995229538168132
 20
147.2017565983215093
 30
0.0
 11
3439.3415888160270697
 21
145.8111733199085052
 31
0.0
  0
ARC
  5
FB0E
  8
0
 10
3439.3219208405580503
 20
145.8119928195247894
 30
0.0
 40
0.0196850409863106
 50
269.9828385404156847
 51
357.6140541127841743
  0
ARC
  5
FB0F
  8
0
 10
3439.7581211008177888
 20
128.2670637591866125
 30
0.0
 40
0.5218854855650613
 50
195.9248081431950084
 51
344.0751918568018937
  0
LINE
  5
FB10
  8
0
 10
3438.6616599221169963
 20
134.0029139854229925
 30
0.0
 11
3438.6616599221169963
 21
145.7923077794216056
 31
0.0
  0
LINE
  5
FB11
  8
0
 10
3439.2325260639181579
 20
134.0029139854227935
 30
0.0
 11
3439.2325260639181579
 21
145.7923077794216056
 31
0.0
  0
ENDSEC
  0
EOF
