  0
SECTION
  2
HEADER
  9
$ACADVER
  1
AC1009
  9
$INSBASE
 10
4267.7501222820883413
 20
226.3808175095846025
 30
0.0
  9
$EXTMIN
 10
4262.9631008745418512
 20
224.8198237771846095
 30
0.0
  9
$EXTMAX
 10
4267.7609293823579719
 20
227.5717623914846115
 30
0.0
  9
$LIMMIN
 10
0.0
 20
0.0
  9
$LIMMAX
 10
11.6929133858000007
 20
8.2677165353999982
  9
$ORTHOMODE
 70
     0
  9
$REGENMODE
 70
     1
  9
$FILLMODE
 70
     1
  9
$QTEXTMODE
 70
     0
  9
$MIRRTEXT
 70
     0
  9
$DRAGMODE
 70
     2
  9
$LTSCALE
 40
0.6431102362
  9
$OSMODE
 70
   575
  9
$ATTMODE
 70
     1
  9
$TEXTSIZE
 40
0.2
  9
$TRACEWID
 40
0.05
  9
$TEXTSTYLE
  7
STANDARD
  9
$CLAYER
  8
0
  9
$CELTYPE
  6
BYLAYER
  9
$CECOLOR
 62
   256
  9
$DIMSCALE
 40
1.0
  9
$DIMASZ
 40
0.1875
  9
$DIMEXO
 40
0.0625
  9
$DIMDLI
 40
0.4443307087
  9
$DIMRND
 40
0.0
  9
$DIMDLE
 40
0.0
  9
$DIMEXE
 40
0.125
  9
$DIMTP
 40
0.01
  9
$DIMTM
 40
0.01
  9
$DIMTXT
 40
2.0
  9
$DIMCEN
 40
0.1052362205
  9
$DIMTSZ
 40
0.0
  9
$DIMTOL
 70
     1
  9
$DIMLIM
 70
     0
  9
$DIMTIH
 70
     1
  9
$DIMTOH
 70
     1
  9
$DIMSE1
 70
     0
  9
$DIMSE2
 70
     0
  9
$DIMTAD
 70
     0
  9
$DIMZIN
 70
     0
  9
$DIMBLK
  1

  9
$DIMASO
 70
     1
  9
$DIMSHO
 70
     1
  9
$DIMPOST
  1
\X
  9
$DIMAPOST
  1

  9
$DIMALT
 70
     1
  9
$DIMALTD
 70
     2
  9
$DIMALTF
 40
25.3999999999999986
  9
$DIMLFAC
 40
1.0
  9
$DIMTOFL
 70
     0
  9
$DIMTVP
 40
0.0
  9
$DIMTIX
 70
     0
  9
$DIMSOXD
 70
     0
  9
$DIMSAH
 70
     0
  9
$DIMBLK1
  1

  9
$DIMBLK2
  1

  9
$DIMSTYLE
  2
STANDARD
  9
$DIMCLRD
 70
     0
  9
$DIMCLRE
 70
     0
  9
$DIMCLRT
 70
     0
  9
$DIMTFAC
 40
1.0
  9
$DIMGAP
 40
0.09
  9
$LUNITS
 70
     2
  9
$LUPREC
 70
     4
  9
$SKETCHINC
 40
0.1
  9
$FILLETRAD
 40
0.0
  9
$AUNITS
 70
     0
  9
$AUPREC
 70
     0
  9
$MENU
  1
.
  9
$ELEVATION
 40
0.0
  9
$PELEVATION
 40
0.0
  9
$THICKNESS
 40
0.0
  9
$LIMCHECK
 70
     0
  9
$BLIPMODE
 70
     0
  9
$CHAMFERA
 40
0.0
  9
$CHAMFERB
 40
0.0
  9
$SKPOLY
 70
     0
  9
$TDCREATE
 40
2458060.468368056230247
  9
$TDUPDATE
 40
2459507.8012731480412185
  9
$TDINDWG
 40
0.7630626157
  9
$TDUSRTIMER
 40
0.7630626157
  9
$USRTIMER
 70
     1
  9
$ANGBASE
 50
0.0
  9
$ANGDIR
 70
     0
  9
$PDMODE
 70
     0
  9
$PDSIZE
 40
0.3125
  9
$PLINEWID
 40
0.0
  9
$COORDS
 70
     1
  9
$SPLFRAME
 70
     0
  9
$SPLINETYPE
 70
     6
  9
$SPLINESEGS
 70
     8
  9
$ATTDIA
 70
     1
  9
$ATTREQ
 70
     1
  9
$HANDLING
 70
     1
  9
$HANDSEED
  5
1F007
  9
$SURFTAB1
 70
     6
  9
$SURFTAB2
 70
     6
  9
$SURFTYPE
 70
     6
  9
$SURFU
 70
     6
  9
$SURFV
 70
     6
  9
$UCSNAME
  2

  9
$UCSORG
 10
0.0
 20
0.0
 30
0.0
  9
$UCSXDIR
 10
1.0
 20
0.0
 30
0.0
  9
$UCSYDIR
 10
0.0
 20
1.0
 30
0.0
  9
$PUCSNAME
  2

  9
$PUCSORG
 10
0.0
 20
0.0
 30
0.0
  9
$PUCSXDIR
 10
1.0
 20
0.0
 30
0.0
  9
$PUCSYDIR
 10
0.0
 20
1.0
 30
0.0
  9
$USERI1
 70
     0
  9
$USERI2
 70
     0
  9
$USERI3
 70
     0
  9
$USERI4
 70
     0
  9
$USERI5
 70
     0
  9
$USERR1
 40
0.0
  9
$USERR2
 40
0.0
  9
$USERR3
 40
0.0
  9
$USERR4
 40
0.0
  9
$USERR5
 40
0.0
  9
$WORLDVIEW
 70
     1
  9
$SHADEDGE
 70
     3
  9
$SHADEDIF
 70
    70
  9
$TILEMODE
 70
     1
  9
$MAXACTVP
 70
    64
  9
$PLIMCHECK
 70
     0
  9
$PEXTMIN
 10
1.0000000000000000E+20
 20
1.0000000000000000E+20
 30
1.0000000000000000E+20
  9
$PEXTMAX
 10
-1.0000000000000000E+20
 20
-1.0000000000000000E+20
 30
-1.0000000000000000E+20
  9
$PLIMMIN
 10
0.0
 20
0.0
  9
$PLIMMAX
 10
12.0
 20
9.0
  9
$UNITMODE
 70
     0
  9
$VISRETAIN
 70
     1
  9
$PLINEGEN
 70
     0
  9
$PSLTSCALE
 70
     1
  0
ENDSEC
  0
SECTION
  2
TABLES
  0
TABLE
  2
VPORT
 70
     1
  0
VPORT
  2
*ACTIVE
 70
     0
 10
0.0
 20
0.0
 11
1.0
 21
1.0
 12
103.8056186360070967
 22
0.0849608667445603
 13
0.0
 23
0.0
 14
1.0
 24
1.0
 15
0.0
 25
0.0
 16
0.0
 26
0.0
 36
202.37134017897489
 17
4161.556396484375
 27
226.1108322143554972
 37
0.0
 40
4.5844996581826249
 41
2.4943639291465369
 42
50.0
 43
0.0
 44
0.0
 50
0.0
 51
0.0
 71
     0
 72
   100
 73
     1
 74
     1
 75
     0
 76
     0
 77
     0
 78
     0
  0
ENDTAB
  0
TABLE
  2
LTYPE
 70
     2
  0
LTYPE
  2
CONTINUOUS
 70
     0
  3
Solid line
 72
    65
 73
     0
 40
0.0
  0
LTYPE
  2
PHANTOM2
 70
     0
  3
___ _ _ ___ _ _ ___ _ _ ___ _ _
 72
    65
 73
     6
 40
1.25
 49
0.625
 49
-0.125
 49
0.125
 49
-0.125
 49
0.125
 49
-0.125
  0
ENDTAB
  0
TABLE
  2
LAYER
 70
     2
  0
LAYER
  2
0
 70
     0
 62
   255
  6
CONTINUOUS
  0
LAYER
  2
DEFPOINTS
 70
     0
 62
     7
  6
CONTINUOUS
  0
ENDTAB
  0
TABLE
  2
STYLE
 70
     1
  0
STYLE
  2
STANDARD
 70
     0
 40
0.0
 41
0.8
 50
0.0
 71
     0
 42
0.2
  3
txt
  4

  0
ENDTAB
  0
TABLE
  2
VIEW
 70
     0
  0
ENDTAB
  0
TABLE
  2
UCS
 70
     0
  0
ENDTAB
  0
TABLE
  2
APPID
 70
    10
  0
APPID
  2
ACAD
 70
     0
  0
APPID
  2
ACAD_MLEADERVER
 70
     0
  0
APPID
  2
ACAD_EXEMPT_FROM_CAD_STANDARDS
 70
     0
  0
APPID
  2
ACAD_NAV_VCDISPLAY
 70
     0
  0
APPID
  2
ACAECLAYERSTANDARD
 70
     0
  0
APPID
  2
ACCMTRANSPARENCY
 70
     0
  0
APPID
  2
ACAD_DSTYLE_DIMJAG
 70
     0
  0
APPID
  2
ACAD_DSTYLE_DIMTALN
 70
     0
  0
APPID
  2
ACDBATTR
 70
     0
  0
APPID
  2
DCO15
 70
     0
  0
ENDTAB
  0
TABLE
  2
DIMSTYLE
 70
     1
  0
DIMSTYLE
  2
STANDARD
 70
     0
  3

  4

  5

  6

  7

 40
1.0
 41
0.1875
 42
0.0625
 43
0.38
 44
0.125
 45
0.0
 46
0.0
 47
0.01
 48
0.01
140
0.15625
141
0.09
142
0.0
143
25.3999999999999986
144
1.0
145
0.0
146
1.0
147
0.09
 71
     1
 72
     0
 73
     1
 74
     1
 75
     0
 76
     0
 77
     0
 78
     4
170
     0
171
     2
172
     0
173
     0
174
     0
175
     0
176
     0
177
     0
178
     0
  0
ENDTAB
  0
ENDSEC
  0
SECTION
  2
BLOCKS
  0
BLOCK
  8
0
  2
$MODEL_SPACE
 70
     0
 10
0.0
 20
0.0
 30
0.0
  3
$MODEL_SPACE
  1

  0
ENDBLK
  5
21
  8
0
  0
BLOCK
 67
     1
  8
0
  2
$PAPER_SPACE
 70
     0
 10
0.0
 20
0.0
 30
0.0
  3
$PAPER_SPACE
  1

  0
ENDBLK
  5
1D
 67
     1
  8
0
  0
ENDSEC
  0
SECTION
  2
ENTITIES
  0
ATTDEF
  5
12CA7
  8
DEFPOINTS
 10
4267.7502627156900417
 20
226.3841658170298103
 30
0.0
 40
0.001
  1
K-72352D
  3

  2
MODELNUMBER
 70
     0
1001
ACDBATTR
1070
     0
1070
     1
  0
ATTDEF
  5
12CA8
  8
DEFPOINTS
 10
4267.7502627156900417
 20
226.382499150363202
 30
0.0
 40
0.001
  1
ALEO
  3

  2
TRADENAME
 70
     0
1001
ACDBATTR
1070
     0
1070
     1
  0
ATTDEF
  5
12CA9
  8
DEFPOINTS
 10
4267.7502627156900417
 20
226.3808324836965085
 30
0.0
 40
0.001
  1
EXPOSED SHOWER VALVE
  3

  2
PRODUCT
 70
     0
1001
ACDBATTR
1070
     0
1070
     1
  0
LINE
  5
1EDA0
  8
0
 10
4263.5733354123876779
 20
224.8198237771846095
 30
0.0
 11
4263.5348314753882732
 21
224.8583277142845986
 31
0.0
  0
LINE
  5
1EDA1
  8
0
 10
4263.5348005090663719
 20
224.9026214351387978
 30
0.0
 11
4263.5518487511799322
 21
224.8927775706891055
 31
0.0
  0
LINE
  5
1EDA2
  8
0
 10
4263.5348009151375663
 20
224.9223012100549113
 30
0.0
 11
4263.5518423700195854
 21
224.9124614405185127
 31
0.0
  0
LINE
  5
1EDA3
  8
0
 10
4263.5348061965032684
 20
224.8829369918040868
 30
0.0
 11
4263.551856393259186
 21
224.8730918005408057
 31
0.0
  0
LINE
  5
1EDA4
  8
0
 10
4263.4847527352885663
 20
225.2135245645845885
 30
0.0
 11
4263.4847527352885663
 21
225.512053902322009
 31
0.0
  0
LINE
  5
1EDA5
  8
0
 10
4263.5348314753882732
 20
224.8583277142845986
 30
0.0
 11
4263.5348314753882732
 21
224.8632612062789065
 31
0.0
  0
LINE
  5
1EDA6
  8
0
 10
4263.5348000000831235
 20
225.0010431880583894
 30
0.0
 11
4263.551843281514266
 21
224.9912023346134049
 31
0.0
  0
LINE
  5
1EDA7
  8
0
 10
4263.5348045648988773
 20
225.0207257719634981
 30
0.0
 11
4263.5518461882156771
 21
225.0108857988188049
 31
0.0
  0
LINE
  5
1EDA8
  8
0
 10
4263.5348000180256349
 20
225.0797855348187966
 30
0.0
 11
4263.5518463033986336
 21
225.0699428647772038
 31
0.0
  0
LINE
  5
1EDA9
  8
0
 10
4263.534806882882549
 20
224.9419865219805956
 30
0.0
 11
4263.5518499932231862
 21
224.9321455896779867
 31
0.0
  0
LINE
  5
1EDAA
  8
0
 10
4263.5348079978566602
 20
224.9616758194262047
 30
0.0
 11
4263.5518566847813418
 21
224.9518314926619951
 31
0.0
  0
LINE
  5
1EDAB
  8
0
 10
4263.5348021782965588
 20
224.981362741222199
 30
0.0
 11
4263.5518524647295635
 21
224.9715175996427945
 31
0.0
  0
LINE
  5
1EDAC
  8
0
 10
4263.5348086384192356
 20
225.0404143027436987
 30
0.0
 11
4263.5518552466037363
 21
225.030571213714893
 31
0.0
  0
LINE
  5
1EDAD
  8
0
 10
4263.5348046435110518
 20
225.0601028673571875
 30
0.0
 11
4263.551855312319276
 21
225.0502574313811124
 31
0.0
  0
LINE
  5
1EDAE
  8
0
 10
4263.5348679206654197
 20
225.0995039304243051
 30
0.0
 11
4263.5519064170593992
 21
225.0896628308285869
 31
0.0
  0
LINE
  5
1EDAF
  8
0
 10
4263.5348378177732229
 20
225.1191700319648987
 30
0.0
 11
4263.5518808285632986
 21
225.1093274865864942
 31
0.0
  0
LINE
  5
1EDB0
  8
0
 10
4263.5418533567890336
 20
225.1347844071846112
 30
0.0
 11
4263.5518661610267372
 21
225.1290026123211874
 31
0.0
  0
LINE
  5
1EDB1
  8
0
 10
4263.5871149399890783
 20
225.1544694464845975
 30
0.0
 11
4263.5871149399890783
 21
225.1938395252846021
 31
0.0
  0
LINE
  5
1EDB2
  8
0
 10
4264.3598708454874213
 20
224.8730914937846137
 30
0.0
 11
4264.3427812071131484
 21
224.8829722199928085
 31
0.0
  0
LINE
  5
1EDB3
  8
0
 10
4264.3598284897889243
 20
224.892821106884611
 30
0.0
 11
4264.3427840779877442
 21
224.9025770038846019
 31
0.0
  0
LINE
  5
1EDB4
  8
0
 10
4264.359834190689071
 20
224.9124218242845927
 30
0.0
 11
4264.3427852624126899
 21
224.922341829510799
 31
0.0
  0
LINE
  5
1EDB5
  8
0
 10
4264.3598288906887319
 20
224.971476573889305
 30
0.0
 11
4264.3428545167171251
 21
224.9813604053501876
 31
0.0
  0
LINE
  5
1EDB6
  8
0
 10
4264.3598336626882883
 20
224.991243039984596
 30
0.0
 11
4264.3427857271890389
 21
225.0010865623845859
 31
0.0
  0
LINE
  5
1EDB7
  8
0
 10
4264.3599008130931907
 20
225.0699451824964967
 30
0.0
 11
4264.3428164027900493
 21
225.079809764533195
 31
0.0
  0
LINE
  5
1EDB8
  8
0
 10
4264.3598568344086743
 20
225.0896513513835089
 30
0.0
 11
4264.3428498550711083
 21
225.0994713547181902
 31
0.0
  0
LINE
  5
1EDB9
  8
0
 10
4264.3598288906887319
 20
224.9321060539035102
 30
0.0
 11
4264.3428478807391002
 21
224.9419884160587912
 31
0.0
  0
LINE
  5
1EDBA
  8
0
 10
4264.3598200868891581
 20
224.9517885227845113
 30
0.0
 11
4264.3427716074884302
 21
224.9617177959846117
 31
0.0
  0
LINE
  5
1EDBB
  8
0
 10
4264.3599008690243863
 20
225.0108835025845053
 30
0.0
 11
4264.34285110885412
 21
225.0207283077745899
 31
0.0
  0
LINE
  5
1EDBC
  8
0
 10
4264.3598948441776884
 20
225.0305696328736076
 30
0.0
 11
4264.3428455352341189
 21
225.0404143213982877
 31
0.0
  0
LINE
  5
1EDBD
  8
0
 10
4264.3598947950104048
 20
225.0502589816655075
 30
0.0
 11
4264.3428510000721872
 21
225.060100343998613
 31
0.0
  0
LINE
  5
1EDBE
  8
0
 10
4263.5733354123876779
 20
224.8198237771846095
 30
0.0
 11
4264.3213669084889261
 21
224.8198237771846095
 31
0.0
  0
LINE
  5
1EDBF
  8
0
 10
4263.5348314753882732
 20
224.8583277142845986
 30
0.0
 11
4264.3598708454874213
 21
224.8583277142845986
 31
0.0
  0
LINE
  5
1EDC0
  8
0
 10
4264.3598918295801923
 20
225.1093116158064902
 30
0.0
 11
4264.3427852624163279
 21
225.1191893438920886
 31
0.0
  0
LINE
  5
1EDC1
  8
0
 10
4264.3598300068661047
 20
225.1290343406936927
 30
0.0
 11
4264.3498718045875648
 21
225.1347844071846112
 31
0.0
  0
LINE
  5
1EDC2
  8
0
 10
4264.3075873808884353
 20
225.1544694464845975
 30
0.0
 11
4264.3075873808884353
 21
225.1938395252846021
 31
0.0
  0
LINE
  5
1EDC3
  8
0
 10
4264.3598708454874213
 20
224.8583277142845986
 30
0.0
 11
4264.3598708454874213
 21
224.8730914937846137
 31
0.0
  0
LINE
  5
1EDC4
  8
0
 10
4264.4099495856889916
 20
225.2135245645845885
 30
0.0
 11
4264.4099495856889916
 21
225.512051205596407
 31
0.0
  0
LINE
  5
1EDC5
  8
0
 10
4264.3498718045875648
 20
225.1347844071846112
 30
0.0
 11
4263.5418533567890336
 21
225.1347844071846112
 31
0.0
  0
LINE
  5
1EDC6
  8
0
 10
4263.4847527352885663
 20
225.2135245645845885
 30
0.0
 11
4264.4099495856889916
 21
225.2135245645845885
 31
0.0
  0
LINE
  5
1EDC7
  8
0
 10
4267.1782254863892376
 20
225.1998551233845944
 30
0.0
 11
4267.7501222820883413
 21
225.1898726276845935
 31
0.0
  0
LINE
  5
1EDC8
  8
0
 10
4264.7939100271887582
 20
226.5267630120845865
 30
0.0
 11
4264.7939100271887582
 21
226.23487200708459
 31
0.0
  0
LINE
  5
1EDC9
  8
0
 10
4266.5099648017876461
 20
225.6327860134846048
 30
0.0
 11
4267.0621765580890496
 21
225.6231471214846067
 31
0.0
  0
LINE
  5
1EDCA
  8
0
 10
4264.9013723972893786
 20
226.2295617582846035
 30
0.0
 11
4264.9045908467633126
 21
226.2559378552687122
 31
0.0
  0
LINE
  5
1EDCB
  8
0
 10
4265.7225632269883135
 20
225.6918654684845933
 30
0.0
 11
4264.8741503591882065
 21
225.6918654684845933
 31
0.0
  0
LINE
  5
1EDCC
  8
0
 10
4265.7796499554888214
 20
225.7410537299845998
 30
0.0
 11
4266.5099648017876461
 21
225.7410537299845998
 31
0.0
  0
LINE
  5
1EDCD
  8
0
 10
4265.0575873808884353
 20
226.250439954584607
 30
0.0
 11
4265.057587381187659
 21
226.5111953043845858
 31
0.0
  0
LINE
  5
1EDCE
  8
0
 10
4265.7599648017876461
 20
227.0008961387846114
 30
0.0
 11
4265.7796499554888214
 21
227.0205812890845891
 31
0.0
  0
LINE
  5
1EDCF
  8
0
 10
4265.7599648017876461
 20
225.9575891630846058
 30
0.0
 11
4265.7225632269883135
 21
225.9575891630846058
 31
0.0
  0
LINE
  5
1EDD0
  8
0
 10
4263.5518661610267372
 20
225.1290026123211874
 30
0.0
 11
4263.5348378177732229
 21
225.1191700319648987
 31
0.0
  0
LINE
  5
1EDD1
  8
0
 10
4265.7796499554888214
 20
226.1347545174845948
 30
0.0
 11
4266.1733506284890609
 21
226.1347545174845948
 31
0.0
  0
LINE
  5
1EDD2
  8
0
 10
4265.7599648017876461
 20
225.760738880284606
 30
0.0
 11
4265.7796499554888214
 21
225.7410537299845998
 31
0.0
  0
LINE
  5
1EDD3
  8
0
 10
4263.5518808285632986
 20
225.1093274865864942
 30
0.0
 11
4263.5348679206654197
 21
225.0995039304243051
 31
0.0
  0
LINE
  5
1EDD4
  8
0
 10
4263.5519064170593992
 20
225.0896628308285869
 30
0.0
 11
4263.5348000180256349
 21
225.0797855348187966
 31
0.0
  0
LINE
  5
1EDD5
  8
0
 10
4263.5518463033986336
 20
225.0699428647772038
 30
0.0
 11
4263.5348046435110518
 21
225.0601028673571875
 31
0.0
  0
LINE
  5
1EDD6
  8
0
 10
4263.551855312319276
 20
225.0502574313811124
 30
0.0
 11
4263.5348086384192356
 21
225.0404143027436987
 31
0.0
  0
LINE
  5
1EDD7
  8
0
 10
4263.5518552466037363
 20
225.030571213714893
 30
0.0
 11
4263.5348045648988773
 21
225.0207257719634981
 31
0.0
  0
LINE
  5
1EDD8
  8
0
 10
4263.5518461882156771
 20
225.0108857988188049
 30
0.0
 11
4263.5348000000831235
 21
225.0010431880583894
 31
0.0
  0
LINE
  5
1EDD9
  8
0
 10
4263.551843281514266
 20
224.9912023346134049
 30
0.0
 11
4263.5348021782965588
 21
224.981362741222199
 31
0.0
  0
LINE
  5
1EDDA
  8
0
 10
4263.5518524647295635
 20
224.9715175996427945
 30
0.0
 11
4263.5348079978566602
 21
224.9616758194262047
 31
0.0
  0
LINE
  5
1EDDB
  8
0
 10
4263.5518566847813418
 20
224.9518314926619951
 30
0.0
 11
4263.534806882882549
 21
224.9419865219805956
 31
0.0
  0
LINE
  5
1EDDC
  8
0
 10
4263.5518499932231862
 20
224.9321455896779867
 30
0.0
 11
4263.5348009151375663
 21
224.9223012100549113
 31
0.0
  0
LINE
  5
1EDDD
  8
0
 10
4263.5518423700195854
 20
224.9124614405185127
 30
0.0
 11
4263.5348005090663719
 21
224.9026214351387978
 31
0.0
  0
LINE
  5
1EDDE
  8
0
 10
4264.9013723972893786
 20
226.2295617582846035
 30
0.0
 11
4265.0380738864887462
 21
226.2307534487846112
 31
0.0
  0
LINE
  5
1EDDF
  8
0
 10
4264.8057206009880247
 20
226.223061433184597
 30
0.0
 11
4264.812672281088453
 21
226.223061433184597
 31
0.0
  0
LINE
  5
1EDE0
  8
0
 10
4265.7225632269883135
 20
225.6918654684845933
 30
0.0
 11
4265.7225632269883135
 21
227.0698182243845906
 31
0.0
  0
LINE
  5
1EDE1
  8
0
 10
4264.3213669084889261
 20
224.8198237771846095
 30
0.0
 11
4264.3598708454874213
 21
224.8583277142845986
 31
0.0
  0
LINE
  5
1EDE2
  8
0
 10
4263.5518487511799322
 20
224.8927775706891055
 30
0.0
 11
4263.5348061965032684
 21
224.8829369918040868
 31
0.0
  0
LINE
  5
1EDE3
  8
0
 10
4263.551856393259186
 20
224.8730918005408057
 30
0.0
 11
4263.5348314753882732
 21
224.8632612062789065
 31
0.0
  0
LINE
  5
1EDE4
  8
0
 10
4264.8126828303884395
 20
226.5385735859846079
 30
0.0
 11
4264.8057206009880247
 21
226.5385735859846079
 31
0.0
  0
LINE
  5
1EDE5
  8
0
 10
4264.9013366712861171
 20
226.5320735722459062
 30
0.0
 11
4265.0380738864887462
 21
226.5308815703845937
 31
0.0
  0
LINE
  5
1EDE6
  8
0
 10
4265.7599648017876461
 20
227.0008961387846114
 30
0.0
 11
4265.7599648017876461
 21
225.760738880284606
 31
0.0
  0
LINE
  5
1EDE7
  8
0
 10
4265.7796499554888214
 20
227.0205812890845891
 30
0.0
 11
4265.7796499554888214
 21
226.6268805016846102
 31
0.0
  0
LINE
  5
1EDE8
  8
0
 10
4265.7796499554888214
 20
226.1347545174845948
 30
0.0
 11
4265.7796499554888214
 21
225.7410537299845998
 31
0.0
  0
LINE
  5
1EDE9
  8
0
 10
4264.3427852624163279
 20
225.1191893438920886
 30
0.0
 11
4264.3598300068661047
 21
225.1290343406936927
 31
0.0
  0
LINE
  5
1EDEA
  8
0
 10
4264.3428164027900493
 20
225.079809764533195
 30
0.0
 11
4264.3598568344086743
 21
225.0896513513835089
 31
0.0
  0
LINE
  5
1EDEB
  8
0
 10
4264.3428498550711083
 20
225.0994713547181902
 30
0.0
 11
4264.3598918295801923
 21
225.1093116158064902
 31
0.0
  0
LINE
  5
1EDEC
  8
0
 10
4264.3428510000721872
 20
225.060100343998613
 30
0.0
 11
4264.3599008130931907
 21
225.0699451824964967
 31
0.0
  0
LINE
  5
1EDED
  8
0
 10
4264.3428455352341189
 20
225.0404143213982877
 30
0.0
 11
4264.3598947950104048
 21
225.0502589816655075
 31
0.0
  0
LINE
  5
1EDEE
  8
0
 10
4264.34285110885412
 20
225.0207283077745899
 30
0.0
 11
4264.3598948441776884
 21
225.0305696328736076
 31
0.0
  0
LINE
  5
1EDEF
  8
0
 10
4264.3427857271890389
 20
225.0010865623845859
 30
0.0
 11
4264.3599008690243863
 21
225.0108835025843916
 31
0.0
  0
LINE
  5
1EDF0
  8
0
 10
4264.3428545167171251
 20
224.9813604053501876
 30
0.0
 11
4264.3598336626882883
 21
224.991243039984596
 31
0.0
  0
LINE
  5
1EDF1
  8
0
 10
4264.3427716074866112
 20
224.9617177959856065
 30
0.0
 11
4264.3598288906887319
 21
224.971476573889305
 31
0.0
  0
LINE
  5
1EDF2
  8
0
 10
4266.1733506284890609
 20
226.6268805016846102
 30
0.0
 11
4265.7796499554888214
 21
226.6268805016846102
 31
0.0
  0
LINE
  5
1EDF3
  8
0
 10
4264.3428478807391002
 20
224.9419884160587912
 30
0.0
 11
4264.3598200868882486
 21
224.9517885227845966
 31
0.0
  0
LINE
  5
1EDF4
  8
0
 10
4264.3427852624126899
 20
224.922341829510799
 30
0.0
 11
4264.3598288906887319
 21
224.9321060539035955
 31
0.0
  0
LINE
  5
1EDF5
  8
0
 10
4264.3427840779877442
 20
224.9025770038846019
 30
0.0
 11
4264.359834190689071
 21
224.9124218242845927
 31
0.0
  0
LINE
  5
1EDF6
  8
0
 10
4264.3427812071131484
 20
224.8829722199928085
 30
0.0
 11
4264.3598284897889243
 21
224.892821106884611
 31
0.0
  0
LINE
  5
1EDF7
  8
0
 10
4265.7599648017876461
 20
226.8040458559846115
 30
0.0
 11
4265.7225632269883135
 21
226.8040458559846115
 31
0.0
  0
LINE
  5
1EDF8
  8
0
 10
4266.1733506284890609
 20
226.1347545174845948
 30
0.0
 11
4266.1733506284890609
 21
226.6268805016846102
 31
0.0
  0
LINE
  5
1EDF9
  8
0
 10
4266.5099648017876461
 20
227.1288490055846125
 30
0.0
 11
4267.0621765580890496
 21
227.1384878976845982
 31
0.0
  0
LINE
  5
1EDFA
  8
0
 10
4265.7796499554888214
 20
227.0205812890845891
 30
0.0
 11
4266.5099648017876461
 21
227.0205812890845891
 31
0.0
  0
LINE
  5
1EDFB
  8
0
 10
4265.7225632269883135
 20
227.0698182243845906
 30
0.0
 11
4264.8741388983889919
 21
227.0698182243845906
 31
0.0
  0
LINE
  5
1EDFC
  8
0
 10
4266.5099648017876461
 20
227.1288490055846125
 30
0.0
 11
4266.5099648017876461
 21
225.6327860134846048
 31
0.0
  0
LINE
  5
1EDFD
  8
0
 10
4267.1782254863892376
 20
227.5617798957846105
 30
0.0
 11
4267.7501222820883413
 21
227.5717623914846115
 31
0.0
  0
LINE
  5
1EDFE
  8
0
 10
4267.1202010221886667
 20
227.5027337719845946
 30
0.0
 11
4267.1202010221886667
 21
225.2589012470845944
 31
0.0
  0
LINE
  5
1EDFF
  8
0
 10
4267.7501222820883413
 20
225.1898726276845935
 30
0.0
 11
4267.7501222820883413
 21
227.5717623914846115
 31
0.0
  0
ARC
  5
1EE00
  8
0
 10
4265.0378989384653323
 20
226.2504411139476872
 30
0.0
 40
0.0196884424570734
 50
270.5091268790912977
 51
359.9966261113140717
  0
ARC
  5
1EE01
  8
0
 10
4264.3272724202879544
 20
225.1544694464845975
 30
0.0
 40
0.0196850394
 50
180.0
 51
270.0
  0
ARC
  5
1EE02
  8
0
 10
4263.5674299005886496
 20
225.1544694464845975
 30
0.0
 40
0.0196850394
 50
270.0
 51
0.0
  0
ARC
  5
1EE03
  8
0
 10
4263.5674299005886496
 20
225.1938395252846021
 30
0.0
 40
0.0196850394
 50
0.0
 51
90.0
  0
ARC
  5
1EE04
  8
0
 10
4264.3272724202879544
 20
225.1938395252846021
 30
0.0
 40
0.0196850394
 50
90.0
 51
180.0
  0
ARC
  5
1EE05
  8
0
 10
4263.7940348135152817
 20
226.3807076613852018
 30
0.0
 40
1.1175429331816811
 50
353.5897596807017749
 51
0.0065491824275894
  0
ARC
  5
1EE06
  8
0
 10
4263.79403750639176
 20
226.3809274722846965
 30
0.0
 40
1.1175402367968721
 50
359.995279593393775
 51
6.4102839448683113
  0
ARC
  5
1EE07
  8
0
 10
4265.0378991365223555
 20
226.5111941012233103
 30
0.0
 40
0.0196882447040812
 50
0.0035054561319887
 51
89.4914444018520214
  0
ARC
  5
1EE08
  8
0
 10
4264.8133911080931284
 20
226.5500033561530131
 30
0.0
 40
0.0114516943466536
 50
266.4540408307731809
 51
10.3042442626800206
  0
ARC
  5
1EE09
  8
0
 10
4267.0611459040883346
 20
225.5641009976845908
 30
0.0
 40
0.0590551181
 50
0.0
 51
88.9999999998157847
  0
ARC
  5
1EE0A
  8
0
 10
4267.1792561403890431
 20
225.2589012470845944
 30
0.0
 40
0.0590551181
 50
180.0
 51
268.9999999998158273
  0
ARC
  5
1EE0B
  8
0
 10
4267.0611459040883346
 20
227.1975340213845982
 30
0.0
 40
0.0590551181
 50
271.0000000001841727
 51
0.0
  0
ARC
  5
1EE0C
  8
0
 10
4267.1792561403890431
 20
227.5027337719845946
 30
0.0
 40
0.0590551181
 50
91.0000000001842011
 51
180.0
  0
ARC
  5
1EE0D
  8
0
 10
4264.8057193835693397
 20
226.5267642296041117
 30
0.0
 40
0.0118093564432655
 50
89.9940934123528109
 51
180.0059070727932067
  0
ARC
  5
1EE0E
  8
0
 10
4264.1675084126000002
 20
226.4581175686928134
 30
0.0
 40
0.6638293130611027
 50
8.1348600738470918
 51
19.7827019027402216
  0
ARC
  5
1EE0F
  8
0
 10
4264.4248559851721438
 20
226.5521767286163879
 30
0.0
 40
0.3898374813632821
 50
19.5757929568482183
 51
33.8782872889811912
  0
ARC
  5
1EE10
  8
0
 10
4264.5759703220337542
 20
226.6566005509118895
 30
0.0
 40
0.2061844362634276
 50
33.1948448863243328
 51
62.6474042433267897
  0
ARC
  5
1EE11
  8
0
 10
4264.542937233365592
 20
226.5733303988774878
 30
0.0
 40
0.295456865831653
 50
64.3774330914152557
 51
78.5146368204124769
  0
ARC
  5
1EE12
  8
0
 10
4264.4907799806724142
 20
226.2660810032608083
 30
0.0
 40
0.6070226690385448
 50
79.4647850213521139
 51
88.5497427135230168
  0
ARC
  5
1EE13
  8
0
 10
4264.2901738212540295
 20
221.97814528820291
 30
0.0
 40
4.8995261784682587
 50
87.4736042690579154
 51
89.1816844366448152
  0
ARC
  5
1EE14
  8
0
 10
4264.2547231966464096
 20
219.0772939903224028
 30
0.0
 40
7.8005902108651677
 50
89.2256256096142835
 51
90.6502005662566859
  0
ARC
  5
1EE15
  8
0
 10
4264.2619558774922552
 20
212.1868846868086962
 30
0.0
 40
14.6908092952683909
 50
90.373449830762226
 51
92.2672008455009944
  0
ARC
  5
1EE16
  8
0
 10
4259.2907573789962044
 20
318.9910515337297738
 30
0.0
 40
92.2293974273889887
 50
272.5328712261048167
 51
272.7282564341984994
  0
ARC
  5
1EE17
  8
0
 10
4263.3746046839378323
 20
226.423299173357492
 30
0.0
 40
0.4285346761483392
 50
91.0690716034489185
 51
107.1949901133291974
  0
ARC
  5
1EE18
  8
0
 10
4263.328008991526076
 20
226.5856316812304954
 30
0.0
 40
0.2597061864650005
 50
107.9619702214141057
 51
127.8396405271205936
  0
ARC
  5
1EE19
  8
0
 10
4263.2977332365971961
 20
226.6344475119726951
 30
0.0
 40
0.2026719709048079
 50
129.5464381475190123
 51
157.0930099308243939
  0
ARC
  5
1EE1A
  8
0
 10
4263.8350680621224456
 20
226.4184865444657078
 30
0.0
 40
0.7817581238511015
 50
157.8420937902681942
 51
172.3322156169697053
  0
ARC
  5
1EE1B
  8
0
 10
4264.0068234741220294
 20
226.3808417839435094
 30
0.0
 40
0.9571088626685508
 50
171.4706886284166103
 51
184.9497723244282952
  0
ARC
  5
1EE1C
  8
0
 10
4264.0341137349741985
 20
226.3848795463129875
 30
0.0
 40
0.9846471511975257
 50
185.0468339091850964
 51
195.2507282237253889
  0
ARC
  5
1EE1D
  8
0
 10
4263.4962680016760714
 20
226.2258304984165136
 30
0.0
 40
0.424074389269414
 50
193.6331153773056997
 51
206.8308199462165931
  0
ARC
  5
1EE1E
  8
0
 10
4263.2879437644178324
 20
226.1183141040953046
 30
0.0
 40
0.1896589850623012
 50
206.2529583444479897
 51
239.2620578287942976
  0
ARC
  5
1EE1F
  8
0
 10
4263.3477037943293908
 20
226.2197624255514938
 30
0.0
 40
0.3073997037475324
 50
239.3528093610813983
 51
258.9131591299761226
  0
ARC
  5
1EE20
  8
0
 10
4263.4290530613197916
 20
226.8539613709951084
 30
0.0
 40
0.9463436399890834
 50
261.4643282386867895
 51
268.8991640952353919
  0
ARC
  5
1EE21
  8
0
 10
4265.2104608324689252
 20
262.8205403640158124
 30
0.0
 40
36.9565891684021466
 50
267.2088970918429141
 51
267.7590196564032112
  0
ARC
  5
1EE22
  8
0
 10
4264.3074414118827917
 20
243.1721307738363862
 30
0.0
 40
17.2884157901330795
 50
268.2032034783634913
 51
269.8656117083189088
  0
ARC
  5
1EE23
  8
0
 10
4264.2943518429447067
 20
229.721392731847601
 30
0.0
 40
3.8377284405331809
 50
269.5900192188121878
 51
274.1224211794046823
  0
ARC
  5
1EE24
  8
0
 10
4264.5481821488119749
 20
226.1599074187043925
 30
0.0
 40
0.2672256035051881
 50
274.7342781744823128
 51
303.9223472495506257
  0
ARC
  5
1EE25
  8
0
 10
4264.5321114753478469
 20
226.1463207650573963
 30
0.0
 40
0.2657445403036383
 50
308.4369609745339176
 51
335.0401560620912846
  0
ARC
  5
1EE26
  8
0
 10
4264.2213664519149461
 20
226.2918010621289966
 30
0.0
 40
0.608857833173948
 50
334.9682723742536155
 51
352.239265561096488
  0
ARC
  5
1EE27
  8
0
 10
4264.8134324106276836
 20
226.2117563910319973
 30
0.0
 40
0.0113305681670463
 50
15.1164364862774008
 51
93.8466693616651071
  0
ARC
  5
1EE28
  8
0
 10
4264.8128920019444195
 20
226.2115204817064011
 30
0.0
 40
0.0119141146564305
 50
350.6409070997398203
 51
15.5339527809383906
  0
ARC
  5
1EE29
  8
0
 10
4264.8057193521572117
 20
226.2348707581531073
 30
0.0
 40
0.0118093250345597
 50
179.9939405086942088
 51
270.006059006202122
  0
ARC
  5
1EE2A
  8
0
 10
4263.8024225104472862
 20
226.380721195250004
 30
0.0
 40
1.0447711741803729
 50
0.0052819268236509
 51
12.0877445211842502
  0
ARC
  5
1EE2B
  8
0
 10
4264.2893231197249406
 20
226.4934725581551902
 30
0.0
 40
0.5451179413040048
 50
11.2163859741863199
 51
26.5741240858286716
  0
ARC
  5
1EE2C
  8
0
 10
4264.5119616396077618
 20
226.6039463174581101
 30
0.0
 40
0.2965798182398853
 50
26.7278240854533102
 51
42.9249342453498102
  0
ARC
  5
1EE2D
  8
0
 10
4264.5859893062033734
 20
226.6707398290942876
 30
0.0
 40
0.1968900488094989
 50
43.3633216978556888
 51
63.4242258569819768
  0
ARC
  5
1EE2E
  8
0
 10
4264.544526633411806
 20
226.5789460106988997
 30
0.0
 40
0.2975615471959422
 50
64.1915525691407254
 51
80.2418654079328064
  0
ARC
  5
1EE2F
  8
0
 10
4264.4861383625820963
 20
226.2172287408789089
 30
0.0
 40
0.6639523560028229
 50
80.5666594197935524
 51
88.5419345309459942
  0
ARC
  5
1EE30
  8
0
 10
4264.2827699378131001
 20
221.6907744842297063
 30
0.0
 40
5.19486332388359
 50
87.5699229083488859
 51
89.4850030591016292
  0
ARC
  5
1EE31
  8
0
 10
4264.2566722266155921
 20
217.1233100431535092
 30
0.0
 40
9.7623892918291801
 50
89.5727859314673935
 51
90.7292784980546543
  0
ARC
  5
1EE32
  8
0
 10
4264.2936560833031763
 20
210.0443219708174922
 30
0.0
 40
16.8413584431578904
 50
90.5485583856845437
 51
91.6623981814914544
  0
ARC
  5
1EE33
  8
0
 10
4264.4068808948632068
 20
208.9497804237078071
 30
0.0
 40
17.93890878553389
 50
91.922463099922453
 51
92.9727964172723347
  0
ARC
  5
1EE34
  8
0
 10
4263.715934526010642
 20
220.5130676946072015
 30
0.0
 40
6.3559906544732661
 50
92.1585516356489904
 51
93.3945884398856236
  0
ARC
  5
1EE35
  8
0
 10
4263.3565228784482315
 20
226.5119977373790903
 30
0.0
 40
0.3463230898051737
 50
92.8036506681424669
 51
112.1774441073009001
  0
ARC
  5
1EE36
  8
0
 10
4263.3034646340311156
 20
226.6271567693866018
 30
0.0
 40
0.2197283718982511
 50
110.7005715620658037
 51
139.3545593427550102
  0
ARC
  5
1EE37
  8
0
 10
4263.3441066277191567
 20
226.6057325918714866
 30
0.0
 40
0.2647181448879452
 50
141.5665972620811033
 51
159.4762177080081074
  0
ARC
  5
1EE38
  8
0
 10
4263.9803559597930871
 20
226.3845298871877958
 30
0.0
 40
0.9382702801682128
 50
160.4474663064601998
 51
174.1276354281733916
  0
ARC
  5
1EE39
  8
0
 10
4264.0068219710192352
 20
226.3807664888124123
 30
0.0
 40
0.9649830047999731
 50
174.0661325855463986
 51
186.3952067838066
  0
ARC
  5
1EE3A
  8
0
 10
4264.0153697025134534
 20
226.3825780789975965
 30
0.0
 40
0.9736797006982278
 50
186.4451200172754
 51
198.0167023722964927
  0
ARC
  5
1EE3B
  8
0
 10
4263.3423603169667331
 20
226.157595325168387
 30
0.0
 40
0.2641480588719168
 50
196.7600282110385876
 51
221.7514304096561091
  0
ARC
  5
1EE3C
  8
0
 10
4263.3206120760360136
 20
226.1600727527512049
 30
0.0
 40
0.2501064125019623
 50
225.4951583595941997
 51
252.5990393790725932
  0
ARC
  5
1EE3D
  8
0
 10
4263.3565108189450257
 20
226.2518816732032008
 30
0.0
 40
0.3485158296741675
 50
251.4810910814802014
 51
267.2974861731677834
  0
ARC
  5
1EE3E
  8
0
 10
4266.4415845449730114
 20
287.9872259754062043
 30
0.0
 40
62.1608952729312421
 50
267.140050229665178
 51
267.4808909746993777
  0
ARC
  5
1EE3F
  8
0
 10
4264.2953759348074527
 20
242.1012512290068059
 30
0.0
 40
16.2254320841449591
 50
267.93051844844058
 51
269.7520945861480755
  0
ARC
  5
1EE40
  8
0
 10
4264.2714569502959421
 20
231.0145855482226125
 30
0.0
 40
5.1388229682125184
 50
269.4839404051023166
 51
273.0263837458156786
  0
ARC
  5
1EE41
  8
0
 10
4264.5268922824034235
 20
226.2346926463976047
 30
0.0
 40
0.3521210425612945
 50
272.5836611401937262
 51
294.7573622187611022
  0
ARC
  5
1EE42
  8
0
 10
4264.566250693499569
 20
226.1165874040835035
 30
0.0
 40
0.2288002069948715
 50
298.194847934276595
 51
329.9222171758640911
  0
ARC
  5
1EE43
  8
0
 10
4264.2602257777853083
 20
226.2827975709562907
 30
0.0
 40
0.576996926258294
 50
330.8698634107722114
 51
351.1397934501113127
  0
ARC
  5
1EE44
  8
0
 10
4263.8036595918392777
 20
226.3807307672875879
 30
0.0
 40
1.0435340919555629
 50
349.6878080777019022
 51
0.0047626306707535
  0
ARC
  5
1EE45
  8
0
 10
4264.1200281487654138
 20
226.4433183934075089
 30
0.0
 40
0.7875989110967346
 50
8.3600478546445967
 51
19.9532311931278201
  0
ARC
  5
1EE46
  8
0
 10
4264.457554441782122
 20
226.5682052990518116
 30
0.0
 40
0.4277214900797503
 50
19.6574186173884797
 51
38.2720413109275484
  0
ARC
  5
1EE47
  8
0
 10
4264.5807417446812906
 20
226.6639417772310878
 30
0.0
 40
0.2717133644070913
 50
38.5126540993711117
 51
58.2672046218763526
  0
ARC
  5
1EE48
  8
0
 10
4264.5584376388860619
 20
226.6168376267634983
 30
0.0
 40
0.3235590375216462
 50
59.2952014035076189
 51
76.525482378902737
  0
ARC
  5
1EE49
  8
0
 10
4264.507472138004232
 20
226.408692331444513
 30
0.0
 40
0.5378515191107831
 50
76.4123427839169409
 51
88.3888698556060888
  0
ARC
  5
1EE4A
  8
0
 10
4264.2913632939062154
 20
222.0649758888262113
 30
0.0
 40
4.8868289988312563
 50
87.2879124663328838
 51
89.3200136947571934
  0
ARC
  5
1EE4B
  8
0
 10
4264.2696290295116341
 20
211.1080200524241945
 30
0.0
 40
15.8436412987121304
 50
89.7116698362031002
 51
91.7606997553243247
  0
ARC
  5
1EE4C
  8
0
 10
4264.774419287488854
 20
200.1778723712517944
 30
0.0
 40
26.7846697091022712
 50
92.1216181714980991
 51
93.0929902251405963
  0
ARC
  5
1EE4D
  8
0
 10
4263.3529344407779718
 20
226.5269451589273046
 30
0.0
 40
0.3972882303882153
 50
93.4237547592025379
 51
117.6774688304296035
  0
ARC
  5
1EE4E
  8
0
 10
4263.2905922814152291
 20
226.6412243781790892
 30
0.0
 40
0.2671361734502815
 50
117.2213155290480984
 51
153.815736603368606
  0
ARC
  5
1EE4F
  8
0
 10
4263.7041062533817239
 20
226.4573827723228874
 30
0.0
 40
0.7195496365348303
 50
155.2086521043055996
 51
170.0668708615430091
  0
ARC
  5
1EE50
  8
0
 10
4264.0010824783748831
 20
226.3811461460607006
 30
0.0
 40
1.025502574544312
 50
168.7333452546110095
 51
180.0183612248906115
  0
ARC
  5
1EE51
  8
0
 10
4264.0100330118357306
 20
226.3812704955290087
 30
0.0
 40
1.034453154528697
 50
180.0250897718208023
 51
198.1493791625335916
  0
ARC
  5
1EE52
  8
0
 10
4263.3557740456926695
 20
226.1638742478718029
 30
0.0
 40
0.3450383833481367
 50
197.6874808062796092
 51
218.6885337771751949
  0
ARC
  5
1EE53
  8
0
 10
4263.300154581190327
 20
226.1315447350708041
 30
0.0
 40
0.2815769483683899
 50
220.6284916900386008
 51
245.1504993127281011
  0
ARC
  5
1EE54
  8
0
 10
4263.3517662546310021
 20
226.23326857008351
 30
0.0
 40
0.3955928442274439
 50
244.558814287097789
 51
257.2707469949987171
  0
ARC
  5
1EE55
  8
0
 10
4263.3649949281161753
 20
226.3157864850059013
 30
0.0
 40
0.4790265968375782
 50
257.9021512765129955
 51
266.0381931528395967
  0
ARC
  5
1EE56
  8
0
 10
4265.0020798284449484
 20
257.4255419100289828
 30
0.0
 40
31.6317615219494286
 50
266.9733309056816211
 51
267.436036653367978
  0
ARC
  5
1EE57
  8
0
 10
4264.250661324943394
 20
240.0394686991012065
 30
0.0
 40
14.2295047827193208
 50
267.3269414697555248
 51
270.4738660653936222
  0
ARC
  5
1EE58
  8
0
 10
4264.3717157771461643
 20
227.8843730737141016
 30
0.0
 40
2.0739252385888229
 50
269.9068882956669881
 51
276.3331371514100283
  0
ARC
  5
1EE59
  8
0
 10
4264.5622398288860495
 20
226.1259290730212967
 30
0.0
 40
0.3052307371305708
 50
277.1987376681551041
 51
309.6168614031203106
  0
ARC
  5
1EE5A
  8
0
 10
4264.4851839733637462
 20
226.1811899665518126
 30
0.0
 40
0.3976665577518067
 50
313.094341636463696
 51
341.1486263089273052
  0
ARC
  5
1EE5B
  8
0
 10
4264.0597210857158643
 20
226.3331165008688117
 30
0.0
 40
0.8494206228335281
 50
340.7233993736257958
 51
351.2435991997193128
  0
ARC
  5
1EE5C
  8
0
 10
4219.5170036135032205
 20
232.2687773902781885
 30
0.0
 40
45.7844193514809135
 50
352.3989043519715096
 51
352.4202836069346176
  0
ARC
  5
1EE5D
  8
0
 10
4264.9236164971689504
 20
226.2085644730634897
 30
0.0
 40
0.0248353342117996
 50
170.5840963460107105
 51
191.0462940364436122
  0
ARC
  5
1EE5E
  8
0
 10
4264.8427807989692155
 20
226.2338757725567859
 30
0.0
 40
0.0639685901313056
 50
331.9610724387611072
 51
356.1740254929368916
  0
ARC
  5
1EE5F
  8
0
 10
4262.0540008010066231
 20
226.1673964361588958
 30
0.0
 40
2.8705941844428589
 50
6.76807358720668
 51
7.6413738136578093
  0
ARC
  5
1EE60
  8
0
 10
4264.9204931397653127
 20
226.5530901864622138
 30
0.0
 40
0.0217576677208894
 50
167.4177365259239991
 51
190.5528487777557984
  0
ARC
  5
1EE61
  8
0
 10
4264.8399027688537899
 20
226.5268090100373968
 30
0.0
 40
0.0669726737277253
 50
4.4686243808249309
 51
27.5929695191732804
  0
ARC
  5
1EE62
  8
0
 10
4263.9412821358391739
 20
226.3863834341740926
 30
0.0
 40
0.9922051951740314
 50
302.3091538314376976
 51
350.9160856981201846
  0
ARC
  5
1EE63
  8
0
 10
4264.8819159041240709
 20
225.1070615350479898
 30
0.0
 40
0.5848555906953501
 50
90.7615178368530877
 51
109.4333836194467011
  0
ARC
  5
1EE64
  8
0
 10
4265.0047781779248908
 20
224.7765765419397894
 30
0.0
 40
0.9374087078933008
 50
109.7944185823447043
 51
122.5297479897411961
  0
ARC
  5
1EE65
  8
0
 10
4263.956511603677427
 20
226.3635303850425089
 30
0.0
 40
0.9647506014043749
 50
283.9630927076381113
 51
302.2701398001196935
  0
ARC
  5
1EE66
  8
0
 10
4263.9473511604883242
 20
226.3813333987845908
 30
0.0
 40
0.9842486672999696
 50
252.704793019293902
 51
284.2305201688163834
  0
ARC
  5
1EE67
  8
0
 10
4263.9244855524502782
 20
226.3325519370555128
 30
0.0
 40
0.9309038486822649
 50
241.8116280061350096
 51
253.1559036080682006
  0
ARC
  5
1EE68
  8
0
 10
4263.9084444503323539
 20
226.328588171675392
 30
0.0
 40
0.919914606050135
 50
224.0567384931025003
 51
242.5756390511886025
  0
ARC
  5
1EE69
  8
0
 10
4263.9473511604883242
 20
226.3808163186845945
 30
0.0
 40
0.9842486672999772
 50
205.322571959409288
 51
224.6667764067323958
  0
ARC
  5
1EE6A
  8
0
 10
4263.955329095464549
 20
226.3826085604827085
 30
0.0
 40
0.9922282209235426
 50
164.2124165501979007
 51
205.2190796936397987
  0
ARC
  5
1EE6B
  8
0
 10
4263.9458495589733502
 20
226.387583942725314
 30
0.0
 40
0.9817551046532155
 50
134.4191827754987116
 51
164.3413107451229109
  0
ARC
  5
1EE6C
  8
0
 10
4263.8313909705557307
 20
226.5234488398862993
 30
0.0
 40
0.8047159283420889
 50
114.7597594658190019
 51
135.3691386513748114
  0
ARC
  5
1EE6D
  8
0
 10
4264.8837221438943743
 20
227.6271935768988044
 30
0.0
 40
0.5574577312987526
 50
238.5052487535932073
 51
269.0149807974323153
  0
ARC
  5
1EE6E
  8
0
 10
4263.9290444627340548
 20
226.2259692830986921
 30
0.0
 40
1.1390490223752801
 50
54.3762556583305425
 51
80.3079434163848305
  0
ARC
  5
1EE6F
  8
0
 10
4263.9460719861017424
 20
226.3841409427845974
 30
0.0
 40
0.980317773200014
 50
79.7325816964854823
 51
117.4372419631532978
  0
ARC
  5
1EE70
  8
0
 10
4266.5771254740830045
 20
226.4421389013164969
 30
0.0
 40
0.854665058477027
 50
197.0365542924949125
 51
201.0789971371683862
  0
ARC
  5
1EE71
  8
0
 10
4266.5639967970091675
 20
226.3240948490110895
 30
0.0
 40
0.8407610357705133
 50
158.8916460987969117
 51
163.001915619014909
  0
ARC
  5
1EE72
  8
0
 10
4264.0516003698194254
 20
203.5364363242968011
 30
0.0
 40
21.598348390146981
 50
89.9901980710966427
 51
91.3258058387053637
  0
ARC
  5
1EE73
  8
0
 10
4225.5947518881739597
 20
3300.9270131262392169
 30
0.0
 40
3076.0518817034071617
 50
270.7070226929272962
 51
270.7217555422316764
  0
ARC
  5
1EE74
  8
0
 10
4248.7435911877219041
 20
1451.103256612811947
 30
0.0
 40
1226.1030210949420507
 50
270.6920092178622212
 51
270.7289728378166842
  0
ARC
  5
1EE75
  8
0
 10
4101.8344911947988294
 20
13220.6877295583708474
 30
0.0
 40
12996.6239524258799065
 50
270.7129513843548239
 51
270.7164386572184185
  0
ARC
  5
1EE76
  8
0
 10
4242.3937505577750926
 20
1957.1447923150640236
 30
0.0
 40
1732.2237566696530848
 50
270.6998519941474228
 51
270.7260173342227176
  0
ARC
  5
1EE77
  8
0
 10
4252.3425363732048936
 20
1157.5961722491329056
 30
0.0
 40
932.6329658896669343
 50
270.6886547547878763
 51
270.7372525602473274
  0
ARC
  5
1EE78
  8
0
 10
5172.9744361585217121
 20
-72830.0255817995930556
 30
0.0
 40
73060.6967030104715377
 50
90.712586923518856
 51
90.7132072947368755
  0
ARC
  5
1EE79
  8
0
 10
4205.4167185737142063
 20
4908.6531548458306133
 30
0.0
 40
4684.0227345867970143
 50
270.711137199442021
 51
270.7208129002349892
  0
ARC
  5
1EE7A
  8
0
 10
4242.5101049269424038
 20
1947.7481879061961081
 30
0.0
 40
1722.9051659600941093
 50
270.699767650506999
 51
270.7260747212883985
  0
ARC
  5
1EE7B
  8
0
 10
4212.1834746921877013
 20
4366.1197295951469641
 30
0.0
 40
4141.4864808354841443
 50
270.7106788764580756
 51
270.7216217172398274
  0
ARC
  5
1EE7C
  8
0
 10
4252.5509702154704428
 20
1140.7828967859920795
 30
0.0
 40
915.9168181787784988
 50
270.6881838232018822
 51
270.7376690490531814
  0
ARC
  5
1EE7D
  8
0
 10
4204.3725422098323179
 20
4993.9849153682116594
 30
0.0
 40
4769.4396170178497414
 50
270.710945397638227
 51
270.7204478191341082
  0
ARC
  5
1EE7E
  8
0
 10
4247.5255643639229675
 20
1550.335951775950889
 30
0.0
 40
1325.5400596883450817
 50
270.6927446834882858
 51
270.7269350758933797
  0
ARC
  5
1EE7F
  8
0
 10
4203.9045617222627698
 20
5031.2839440116376863
 30
0.0
 40
4806.7809477876326127
 50
270.7110009784963154
 51
270.7204293651901139
  0
ARC
  5
1EE80
  8
0
 10
4265.4608816280033352
 20
226.3808175095844035
 30
0.0
 40
0.7537632737189315
 50
340.9467975936159974
 51
19.0532024083752702
  0
ENDSEC
  0
EOF
