  0
SECTION
  2
HEADER
  9
$ACADVER
  1
AC1009
  9
$INSBASE
 10
522.391825818388611
 20
55.4764704010851233
 30
0.0
  9
$EXTMIN
 10
516.1833382046570478
 20
34.7569568815269605
 30
0.0
  9
$EXTMAX
 10
537.9514577441867687
 20
77.2658065548359616
 30
0.0
  9
$LIMMIN
 10
0.0
 20
0.0
  9
$LIMMAX
 10
11.6929133858000007
 20
8.2677165353999982
  9
$ORTHOMODE
 70
     0
  9
$REGENMODE
 70
     1
  9
$FILLMODE
 70
     1
  9
$QTEXTMODE
 70
     0
  9
$MIRRTEXT
 70
     0
  9
$DRAGMODE
 70
     2
  9
$LTSCALE
 40
0.6431102362
  9
$OSMODE
 70
  4095
  9
$ATTMODE
 70
     1
  9
$TEXTSIZE
 40
0.2
  9
$TRACEWID
 40
0.05
  9
$TEXTSTYLE
  7
STANDARD
  9
$CLAYER
  8
0
  9
$CELTYPE
  6
BYLAYER
  9
$CECOLOR
 62
   256
  9
$DIMSCALE
 40
1.0
  9
$DIMASZ
 40
0.1875
  9
$DIMEXO
 40
0.0625
  9
$DIMDLI
 40
0.4443307087
  9
$DIMRND
 40
0.0
  9
$DIMDLE
 40
0.0
  9
$DIMEXE
 40
0.125
  9
$DIMTP
 40
0.01
  9
$DIMTM
 40
0.01
  9
$DIMTXT
 40
1.0
  9
$DIMCEN
 40
0.1052362205
  9
$DIMTSZ
 40
0.0
  9
$DIMTOL
 70
     1
  9
$DIMLIM
 70
     0
  9
$DIMTIH
 70
     0
  9
$DIMTOH
 70
     1
  9
$DIMSE1
 70
     0
  9
$DIMSE2
 70
     0
  9
$DIMTAD
 70
     0
  9
$DIMZIN
 70
     0
  9
$DIMBLK
  1

  9
$DIMASO
 70
     1
  9
$DIMSHO
 70
     1
  9
$DIMPOST
  1
\X
  9
$DIMAPOST
  1

  9
$DIMALT
 70
     1
  9
$DIMALTD
 70
     2
  9
$DIMALTF
 40
25.3999999999999986
  9
$DIMLFAC
 40
1.0
  9
$DIMTOFL
 70
     0
  9
$DIMTVP
 40
0.0
  9
$DIMTIX
 70
     0
  9
$DIMSOXD
 70
     0
  9
$DIMSAH
 70
     0
  9
$DIMBLK1
  1

  9
$DIMBLK2
  1

  9
$DIMSTYLE
  2
STANDARD
  9
$DIMCLRD
 70
     0
  9
$DIMCLRE
 70
     0
  9
$DIMCLRT
 70
     0
  9
$DIMTFAC
 40
1.0
  9
$DIMGAP
 40
0.09
  9
$LUNITS
 70
     2
  9
$LUPREC
 70
     4
  9
$SKETCHINC
 40
0.1
  9
$FILLETRAD
 40
0.0
  9
$AUNITS
 70
     0
  9
$AUPREC
 70
     0
  9
$MENU
  1
.
  9
$ELEVATION
 40
0.0
  9
$PELEVATION
 40
0.0
  9
$THICKNESS
 40
0.0
  9
$LIMCHECK
 70
     0
  9
$BLIPMODE
 70
     0
  9
$CHAMFERA
 40
0.0
  9
$CHAMFERB
 40
0.0
  9
$SKPOLY
 70
     0
  9
$TDCREATE
 40
2458172.5207638889551163
  9
$TDUPDATE
 40
2459123.3227662038989365
  9
$TDINDWG
 40
0.2772194213
  9
$TDUSRTIMER
 40
0.2772194213
  9
$USRTIMER
 70
     1
  9
$ANGBASE
 50
0.0
  9
$ANGDIR
 70
     0
  9
$PDMODE
 70
     0
  9
$PDSIZE
 40
0.3125
  9
$PLINEWID
 40
0.0
  9
$COORDS
 70
     1
  9
$SPLFRAME
 70
     0
  9
$SPLINETYPE
 70
     6
  9
$SPLINESEGS
 70
     8
  9
$ATTDIA
 70
     1
  9
$ATTREQ
 70
     1
  9
$HANDLING
 70
     1
  9
$HANDSEED
  5
111E6
  9
$SURFTAB1
 70
     6
  9
$SURFTAB2
 70
     6
  9
$SURFTYPE
 70
     6
  9
$SURFU
 70
     6
  9
$SURFV
 70
     6
  9
$UCSNAME
  2

  9
$UCSORG
 10
0.0
 20
0.0
 30
0.0
  9
$UCSXDIR
 10
1.0
 20
0.0
 30
0.0
  9
$UCSYDIR
 10
0.0
 20
1.0
 30
0.0
  9
$PUCSNAME
  2

  9
$PUCSORG
 10
0.0
 20
0.0
 30
0.0
  9
$PUCSXDIR
 10
1.0
 20
0.0
 30
0.0
  9
$PUCSYDIR
 10
0.0
 20
1.0
 30
0.0
  9
$USERI1
 70
     0
  9
$USERI2
 70
     0
  9
$USERI3
 70
     0
  9
$USERI4
 70
     0
  9
$USERI5
 70
     0
  9
$USERR1
 40
0.0
  9
$USERR2
 40
0.0
  9
$USERR3
 40
0.0
  9
$USERR4
 40
0.0
  9
$USERR5
 40
0.0
  9
$WORLDVIEW
 70
     1
  9
$SHADEDGE
 70
     3
  9
$SHADEDIF
 70
    70
  9
$TILEMODE
 70
     1
  9
$MAXACTVP
 70
    64
  9
$PLIMCHECK
 70
     0
  9
$PEXTMIN
 10
1.0000000000000000E+20
 20
1.0000000000000000E+20
 30
1.0000000000000000E+20
  9
$PEXTMAX
 10
-1.0000000000000000E+20
 20
-1.0000000000000000E+20
 30
-1.0000000000000000E+20
  9
$PLIMMIN
 10
0.0
 20
0.0
  9
$PLIMMAX
 10
12.0
 20
9.0
  9
$UNITMODE
 70
     0
  9
$VISRETAIN
 70
     1
  9
$PLINEGEN
 70
     0
  9
$PSLTSCALE
 70
     1
  0
ENDSEC
  0
SECTION
  2
TABLES
  0
TABLE
  2
VPORT
 70
     1
  0
VPORT
  2
*ACTIVE
 70
     0
 10
0.0
 20
0.0
 11
1.0
 21
1.0
 12
101.0452001378880027
 22
-17.1795433973645686
 13
0.0
 23
0.0
 14
1.0
 24
1.0
 15
0.0
 25
0.0
 16
0.0
 26
0.0
 36
14.6338572656650907
 17
429.6292891080536833
 27
69.7025415122186871
 37
0.0
 40
34.3212823843262029
 41
2.005224660397074
 42
50.0
 43
0.0
 44
0.0
 50
0.0
 51
0.0
 71
     0
 72
   100
 73
     1
 74
     1
 75
     0
 76
     0
 77
     0
 78
     0
  0
ENDTAB
  0
TABLE
  2
LTYPE
 70
     2
  0
LTYPE
  2
CONTINUOUS
 70
     0
  3
Solid line
 72
    65
 73
     0
 40
0.0
  0
LTYPE
  2
PHANTOM2
 70
     0
  3
___ _ _ ___ _ _ ___ _ _ ___ _ _
 72
    65
 73
     6
 40
1.25
 49
0.625
 49
-0.125
 49
0.125
 49
-0.125
 49
0.125
 49
-0.125
  0
ENDTAB
  0
TABLE
  2
LAYER
 70
     2
  0
LAYER
  2
0
 70
     0
 62
   255
  6
CONTINUOUS
  0
LAYER
  2
DEFPOINTS
 70
     0
 62
     7
  6
CONTINUOUS
  0
ENDTAB
  0
TABLE
  2
STYLE
 70
     1
  0
STYLE
  2
STANDARD
 70
     0
 40
0.0
 41
0.8
 50
0.0
 71
     0
 42
0.2
  3
txt
  4

  0
ENDTAB
  0
TABLE
  2
VIEW
 70
     0
  0
ENDTAB
  0
TABLE
  2
UCS
 70
     0
  0
ENDTAB
  0
TABLE
  2
APPID
 70
    10
  0
APPID
  2
ACAD
 70
     0
  0
APPID
  2
ACAD_MLEADERVER
 70
     0
  0
APPID
  2
ACAD_EXEMPT_FROM_CAD_STANDARDS
 70
     0
  0
APPID
  2
ACAD_DSTYLE_DIMJAG
 70
     0
  0
APPID
  2
ACAD_DSTYLE_DIMTALN
 70
     0
  0
APPID
  2
ACAD_NAV_VCDISPLAY
 70
     0
  0
APPID
  2
ACAECLAYERSTANDARD
 70
     0
  0
APPID
  2
ACCMTRANSPARENCY
 70
     0
  0
APPID
  2
DCO15
 70
     0
  0
APPID
  2
ACDBATTR
 70
     0
  0
ENDTAB
  0
TABLE
  2
DIMSTYLE
 70
     1
  0
DIMSTYLE
  2
STANDARD
 70
     0
  3

  4

  5

  6

  7

 40
1.0
 41
0.1875
 42
0.0625
 43
0.38
 44
0.125
 45
0.0
 46
0.0
 47
0.01
 48
0.01
140
0.15625
141
0.09
142
0.0
143
25.3999999999999986
144
1.0
145
0.0
146
1.0
147
0.09
 71
     1
 72
     0
 73
     1
 74
     1
 75
     0
 76
     0
 77
     0
 78
     4
170
     0
171
     2
172
     0
173
     0
174
     0
175
     0
176
     0
177
     0
178
     0
  0
ENDTAB
  0
ENDSEC
  0
SECTION
  2
BLOCKS
  0
BLOCK
  8
0
  2
$MODEL_SPACE
 70
     0
 10
0.0
 20
0.0
 30
0.0
  3
$MODEL_SPACE
  1

  0
ENDBLK
  5
21
  8
0
  0
BLOCK
 67
     1
  8
0
  2
$PAPER_SPACE
 70
     0
 10
0.0
 20
0.0
 30
0.0
  3
$PAPER_SPACE
  1

  0
ENDBLK
  5
1D
 67
     1
  8
0
  0
BLOCK
  8
0
  2
_FILLED
 70
     0
 10
0.0
 20
0.0
 30
0.0
  3
_FILLED
  1

  0
SOLID
  5
87E2
  8
0
  6
BYBLOCK
 62
     0
 10
0.0
 20
0.0
 30
0.0
 11
-1.0
 21
0.1666666667
 31
0.0
 12
-1.0
 22
-0.1666666667
 32
0.0
 13
-1.0
 23
-0.1666666667
 33
0.0
  0
ENDBLK
  5
87E3
  8
0
  6
BYBLOCK
 62
     0
  0
ENDSEC
  0
SECTION
  2
ENTITIES
  0
ATTDEF
  5
C848
  8
DEFPOINTS
 10
522.3943432460599752
 20
55.4803110843784282
 30
0.0
 40
0.001
  1
K-72352T-9
  3

  2
MODELNUMBER
 70
     0
1001
ACDBATTR
1070
     0
1070
     1
  0
ATTDEF
  5
C849
  8
DEFPOINTS
 10
522.3943432460599752
 20
55.4786444177117701
 30
0.0
 40
0.001
  1
ALEO
  3

  2
TRADENAME
 70
     0
1001
ACDBATTR
1070
     0
1070
     1
  0
ATTDEF
  5
C84A
  8
DEFPOINTS
 10
522.3943432460599752
 20
55.4769777510450979
 30
0.0
 40
0.001
  1
BATH AND SHOWER FAUCET
  3

  2
PRODUCT
 70
     0
1001
ACDBATTR
1070
     0
1070
     1
  0
ARC
  5
10BE6
  8
0
 10
517.0433534229126735
 20
56.9625254398686209
 30
0.0
 40
0.9155094299387849
 50
267.8411650396661798
 51
292.8788945634283891
  0
ARC
  5
10BE7
  8
0
 10
517.9750974648509327
 20
55.9379230599940911
 30
0.0
 40
0.5216087150454018
 50
87.8836506888603992
 51
124.9968842494152028
  0
ARC
  5
10BE8
  8
0
 10
516.7134185229149352
 20
57.1683470323954666
 30
0.0
 40
1.2535802196709009
 50
303.170314620800184
 51
320.1582248147983023
  0
ARC
  5
10BE9
  8
0
 10
516.2031061889465491
 20
56.0208619814430691
 30
0.0
 40
0.0197681534585891
 50
90.7383130169173171
 51
179.7619490767621926
  0
LINE
  5
10BEA
  8
0
 10
516.2028514637080434
 20
56.0406284936851407
 30
0.0
 11
517.0088663078081481
 21
56.0476658029851293
 31
0.0
  0
LINE
  5
10BEB
  8
0
 10
517.994359882608137
 20
56.4591759840851282
 30
0.0
 11
518.2500955578079811
 21
56.4614077554851335
 31
0.0
  0
ARC
  5
10BEC
  8
0
 10
517.0433534189525062
 20
53.9904153612097204
 30
0.0
 40
0.9155094299387849
 50
67.1211052838811923
 51
92.1588348076401616
  0
ARC
  5
10BED
  8
0
 10
517.9750974636210685
 20
55.0150177386012018
 30
0.0
 40
0.5216087150454018
 50
235.003115597891707
 51
272.116349158447008
  0
ARC
  5
10BEE
  8
0
 10
516.7134185184060016
 20
53.784593769562143
 30
0.0
 40
1.2535802196709009
 50
39.8417750325108528
 51
56.8296852265083103
  0
ARC
  5
10BEF
  8
0
 10
516.203106187495905
 20
54.932078821874498
 30
0.0
 40
0.0197681534585891
 50
180.2380507705462094
 51
269.2616868303903743
  0
LINE
  5
10BF0
  8
0
 10
516.2028514622046487
 20
54.9123123096331227
 30
0.0
 11
517.0088663062857677
 21
54.9052749981851278
 31
0.0
  0
LINE
  5
10BF1
  8
0
 10
517.994359879989247
 20
54.493764814458828
 30
0.0
 11
518.2500955578079811
 21
54.4915330423543907
 31
0.0
  0
LINE
  5
10BF2
  8
0
 10
518.2500955578079811
 20
56.4614077554851335
 30
0.0
 11
518.2500955578079811
 21
54.4915333206851287
 31
0.0
  0
LINE
  5
10BF3
  8
0
 10
516.1833382061081466
 20
56.02094411338512
 30
0.0
 11
516.1833382046570478
 21
54.9319966899851266
 31
0.0
  0
LINE
  5
10BF4
  8
0
 10
518.2973395876081213
 20
56.4659762865727473
 30
0.0
 11
518.2973395876081213
 21
54.4869652741851382
 31
0.0
  0
LINE
  5
10BF5
  8
0
 10
526.4863161132080904
 20
54.4869652741851382
 30
0.0
 11
526.4863160195484397
 21
56.4659762865727473
 31
0.0
  0
LINE
  5
10BF6
  8
0
 10
526.4863160195484397
 20
56.4659762865727473
 30
0.0
 11
518.2973395876081213
 21
56.4659762865727473
 31
0.0
  0
ARC
  5
10BF7
  8
0
 10
519.4389606840650231
 20
55.4761093956957581
 30
0.0
 40
1.1913058767227509
 50
56.1922378544830821
 51
123.8077621455169037
  0
ARC
  5
10BF8
  8
0
 10
519.4390719357063517
 20
55.4758740231447973
 30
0.0
 40
1.1904520357389159
 50
236.1707332065919047
 51
303.8292667934081805
  0
ARC
  5
10BF9
  8
0
 10
525.3445837467080537
 20
55.4764704010851233
 30
0.0
 40
1.1909448819000039
 50
56.1869594341193874
 51
123.8130405658805984
  0
ARC
  5
10BFA
  8
0
 10
525.3445837467080537
 20
55.4764704010851233
 30
0.0
 40
1.1909448818999959
 50
236.1868938523556096
 51
303.8131061476444188
  0
ARC
  5
10BFB
  8
0
 10
527.7403190993228463
 20
56.9626175777325301
 30
0.0
 40
0.9156008629079476
 50
247.1223726202005082
 51
272.1575574666615012
  0
ARC
  5
10BFC
  8
0
 10
526.8164388747765088
 20
55.9645703486832389
 30
0.0
 40
0.49534918059348
 50
54.0513573942317009
 51
93.1396142203250434
  0
ARC
  5
10BFD
  8
0
 10
528.0797361759830437
 20
57.1797196602446292
 30
0.0
 40
1.2682980321588471
 50
219.9349448260007023
 51
236.7515823243751925
  0
ARC
  5
10BFE
  8
0
 10
528.5805395637859192
 20
56.0208542605805206
 30
0.0
 40
0.0197781179079736
 50
0.2611143452846016
 51
88.0251426084336259
  0
LINE
  5
10BFF
  8
0
 10
528.5812211363080451
 20
56.0406206311851278
 30
0.0
 11
527.7747892585081217
 21
56.0476658039851188
 31
0.0
  0
LINE
  5
10C00
  8
0
 10
526.789309002955747
 20
56.4591760307872974
 30
0.0
 11
526.5335560789694682
 21
56.4614078260983732
 31
0.0
  0
ARC
  5
10C01
  8
0
 10
527.7404893457951403
 20
53.988497620463292
 30
0.0
 40
0.9174187997379666
 50
87.8573525819347907
 51
112.7922758764708959
  0
ARC
  5
10C02
  8
0
 10
526.8167144508428237
 20
54.9869753120905003
 30
0.0
 40
0.4939720374895517
 50
266.8180773968304038
 51
306.2000703378537878
  0
ARC
  5
10C03
  8
0
 10
528.0601308977795725
 20
53.796387670254461
 30
0.0
 40
1.2381041702962261
 50
123.0398348865951021
 51
140.2331400379077877
  0
ARC
  5
10C04
  8
0
 10
528.5805450102136547
 20
54.9321199429956977
 30
0.0
 40
0.0198093619704033
 50
270.7497444604709926
 51
3.5447390183477738
  0
LINE
  5
10C05
  8
0
 10
528.5808042184080477
 20
54.9123122769851335
 30
0.0
 11
527.7747893746079626
 21
54.9052749991851172
 31
0.0
  0
LINE
  5
10C06
  8
0
 10
526.7892957998079737
 20
54.4937648180851326
 30
0.0
 11
526.5335560789694682
 21
54.4915333206851287
 31
0.0
  0
LINE
  5
10C07
  8
0
 10
526.5335560789694682
 20
56.4614078260983732
 30
0.0
 11
526.5335560789694682
 21
54.4915333206851287
 31
0.0
  0
LINE
  5
10C08
  8
0
 10
528.6003174763079642
 20
56.0209443951851327
 30
0.0
 11
528.6003164734039501
 21
54.9333447143970091
 31
0.0
  0
LINE
  5
10C09
  8
0
 10
526.4863160278823671
 20
56.2855255191851285
 30
0.0
 11
526.5335560789694682
 21
56.2855255191548594
 31
0.0
  0
LINE
  5
10C0A
  8
0
 10
526.4863161048706388
 20
54.6674152829851323
 30
0.0
 11
526.5335560789694682
 21
54.6674256235886418
 31
0.0
  0
ARC
  5
10C0B
  8
0
 10
522.3918250845080138
 20
53.7044508911154423
 30
0.0
 40
0.9161153530504069
 50
58.6676953509420613
 51
121.3323046490579031
  0
LINE
  5
10C0C
  8
0
 10
521.9154443750079508
 20
54.4869652741851382
 30
0.0
 11
518.2973395876081213
 21
54.4869652741851382
 31
0.0
  0
LINE
  5
10C0D
  8
0
 10
522.8682057940080767
 20
54.4869652741851382
 30
0.0
 11
526.4863161132080904
 21
54.4869652741851382
 31
0.0
  0
LINE
  5
10C0E
  8
0
 10
521.9292296714081658
 20
54.3080674507851313
 30
0.0
 11
522.8544262664081543
 21
54.3080674507851313
 31
0.0
  0
LINE
  5
10C0F
  8
0
 10
521.9292296714081658
 20
54.3080674507851313
 30
0.0
 11
521.9292296714081658
 21
54.4951928362995233
 31
0.0
  0
LINE
  5
10C10
  8
0
 10
522.8544262664081543
 20
54.3080674507851313
 30
0.0
 11
522.8544262664081543
 21
54.4951894614402903
 31
0.0
  0
LINE
  5
10C11
  8
0
 10
521.9472808676081286
 20
54.2214532774851321
 30
0.0
 11
522.8363748149081403
 21
54.2214532774851321
 31
0.0
  0
LINE
  5
10C12
  8
0
 10
522.8043475263079927
 20
54.2214532774851321
 30
0.0
 11
522.8043475263079927
 21
54.2293272932851167
 31
0.0
  0
LINE
  5
10C13
  8
0
 10
522.8043475263079927
 20
54.2293272932851167
 30
0.0
 11
521.9793134052081314
 21
54.2293272932851167
 31
0.0
  0
LINE
  5
10C14
  8
0
 10
521.9793134052081314
 20
54.2293272932851167
 30
0.0
 11
521.9793134052081314
 21
54.2214532774851321
 31
0.0
  0
LINE
  5
10C15
  8
0
 10
522.0315916207081273
 20
54.2490123326851332
 30
0.0
 11
522.0315916208079443
 21
54.288382411385129
 31
0.0
  0
LINE
  5
10C16
  8
0
 10
522.7520640617080971
 20
54.288382411385129
 30
0.0
 11
522.7520640617080971
 21
54.2490123326851332
 31
0.0
  0
ARC
  5
10C17
  8
0
 10
522.7717491011079574
 20
54.288382411385129
 30
0.0
 40
0.0196850393999998
 50
90.000032246399158
 51
180.0
  0
ARC
  5
10C18
  8
0
 10
522.7717491011079574
 20
54.2490123326851332
 30
0.0
 40
0.0196850394
 50
180.0
 51
269.9999513276979997
  0
ARC
  5
10C19
  8
0
 10
522.0119065814079704
 20
54.288382411385129
 30
0.0
 40
0.0196850394000001
 50
0.0
 51
90.0
  0
ARC
  5
10C1A
  8
0
 10
522.0119065814079704
 20
54.2490123326851332
 30
0.0
 40
0.0196850393999999
 50
270.0
 51
0.0000000000008142
  0
LINE
  5
10C1B
  8
0
 10
521.9973409896081193
 20
52.8229959833851268
 30
0.0
 11
521.9394136780080089
 21
54.2132514621851271
 31
0.0
  0
LINE
  5
10C1C
  8
0
 10
522.8442420044103756
 20
54.2132514621851271
 30
0.0
 11
522.7863146928081051
 21
52.8229959833851268
 31
0.0
  0
LINE
  5
10C1D
  8
0
 10
522.0170089635081467
 20
52.8041304428851177
 30
0.0
 11
522.7666435141080683
 21
52.8041304428851177
 31
0.0
  0
ARC
  5
10C1E
  8
0
 10
522.0170089635006434
 20
52.8238154822668022
 30
0.0
 40
0.0196850393816857
 50
182.3859439773349891
 51
270.00000002143031
  0
ARC
  5
10C1F
  8
0
 10
522.7666467184551493
 20
52.8238154824745294
 30
0.0
 40
0.0196850398502087
 50
269.9906733455209746
 51
357.6140555100316192
  0
LINE
  5
10C20
  8
0
 10
522.1063947704079737
 20
52.8041304428851177
 30
0.0
 11
522.1063947704079737
 21
41.7924217814851318
 31
0.0
  0
LINE
  5
10C21
  8
0
 10
522.6772609121080677
 20
41.7924217814851318
 30
0.0
 11
522.6772609121080677
 21
52.8041304428851177
 31
0.0
  0
ARC
  5
10C22
  8
0
 10
521.9472808676081286
 20
54.2135792617851209
 30
0.0
 40
0.0078740156999999
 50
90.0
 51
182.3859443023090137
  0
ARC
  5
10C23
  8
0
 10
522.8363748149081403
 20
54.2135792617851209
 30
0.0
 40
0.0078740157000001
 50
357.6140559702005817
 51
89.9999999999967457
  0
LINE
  5
10C24
  8
0
 10
536.2950050347579918
 20
73.079929918059733
 30
0.0
 11
536.2950054481080997
 21
67.8965016655851343
 31
0.0
  0
ARC
  5
10C25
  8
0
 10
-835.6286328255015405
 20
68.7885542180876968
 30
0.0
 40
1371.7733111037009621
 50
0.1546742248380605
 51
0.1686647864001245
  0
ARC
  5
10C26
  8
0
 10
536.4583132202976685
 20
72.8043168350565111
 30
0.0
 40
0.3203625055882361
 50
120.647885259550506
 51
175.9910522431790127
  0
ARC
  5
10C27
  8
0
 10
535.7963316420213005
 20
75.3477374240136157
 30
0.0
 40
2.3219875186323371
 50
282.4015321370061997
 51
310.3074344276383272
  0
ARC
  5
10C28
  8
0
 10
536.0873111839008516
 20
74.9954124152131953
 30
0.0
 40
1.8650882870636301
 50
310.4923276163044079
 51
358.1791730690056283
  0
ARC
  5
10C29
  8
0
 10
536.0888302947467992
 20
75.2988435789685013
 30
0.0
 40
1.8626313003329951
 50
0.116507796556822
 51
54.6927407105319432
  0
ARC
  5
10C2A
  8
0
 10
535.7789452559917436
 20
74.8920835302475609
 30
0.0
 40
2.3737418568247861
 50
54.2632205875942475
 51
89.7717703197180441
  0
ARC
  5
10C2B
  8
0
 10
536.0642907595273527
 20
74.9244041949357893
 30
0.0
 40
1.8872035434551779
 50
0.3566357705887873
 51
62.4252267744523621
  0
ARC
  5
10C2C
  8
0
 10
535.7707557039871062
 20
72.7913271167138589
 30
0.0
 40
0.0792196842434714
 50
315.4027534542497051
 51
1.095093080755785
  0
ARC
  5
10C2D
  8
0
 10
535.8123434923020341
 20
72.4917978537155534
 30
0.0
 40
0.327336254027214
 50
312.4995506145643276
 51
359.9923167775547768
  0
LINE
  5
10C2E
  8
0
 10
537.9514577441867687
 20
75.3026311340186396
 30
0.0
 11
537.9514577441867687
 21
74.9361509579567553
 31
0.0
  0
ARC
  5
10C2F
  8
0
 10
535.7276016265647058
 20
74.2628678570252134
 30
0.0
 40
2.6294611791912379
 50
62.5948669735681733
 51
88.6750745251395358
  0
LINE
  5
10C30
  8
0
 10
535.2817963609579692
 20
73.079929918059733
 30
0.0
 11
535.2817969616080518
 21
67.8964949618096938
 31
0.0
  0
ARC
  5
10C31
  8
0
 10
1907.2053988483130524
 20
68.7885543157331369
 30
0.0
 40
1371.7732757306630447
 50
179.831335213328714
 51
179.8453257752522916
  0
ARC
  5
10C32
  8
0
 10
535.1184881754185199
 20
72.8043168350565111
 30
0.0
 40
0.3203625055882361
 50
4.0089477568209837
 51
59.3521147404495295
  0
ARC
  5
10C33
  8
0
 10
535.7804697536947742
 20
75.3477374240136157
 30
0.0
 40
2.3219875186323371
 50
229.6925655723617012
 51
257.5984678629936866
  0
ARC
  5
10C34
  8
0
 10
535.4894901982255533
 20
74.9954124047530968
 30
0.0
 40
1.865088270284454
 50
181.820826625882404
 51
229.507672492524506
  0
ARC
  5
10C35
  8
0
 10
535.4879710959736485
 20
75.2988435833185861
 30
0.0
 40
1.8626312938957801
 50
125.3072592414013968
 51
179.8834923368521004
  0
ARC
  5
10C36
  8
0
 10
535.7978561397243311
 20
74.8920835302475894
 30
0.0
 40
2.3737418568247621
 50
90.2282296802819559
 51
125.7367794124056957
  0
ARC
  5
10C37
  8
0
 10
535.5125106290920485
 20
74.924404202521643
 30
0.0
 40
1.8872035334459081
 50
117.5747731411785963
 51
179.6433644578318081
  0
ARC
  5
10C38
  8
0
 10
535.8060456917289684
 20
72.7913271167138589
 30
0.0
 40
0.0792196842434714
 50
178.9049069192442118
 51
224.5972465457500959
  0
ARC
  5
10C39
  8
0
 10
535.7644579034141543
 20
72.4917978537155534
 30
0.0
 40
0.327336254027214
 50
180.007683222444399
 51
227.5004493854357008
  0
LINE
  5
10C3A
  8
0
 10
533.6253436529622149
 20
75.3026311340186396
 30
0.0
 11
533.6253436543950102
 21
74.9361509579567553
 31
0.0
  0
ARC
  5
10C3B
  8
0
 10
535.8491997723043596
 20
74.2628678487620846
 30
0.0
 40
2.629461187978281
 50
91.3249259663488147
 51
117.4051330045486026
  0
ARC
  5
10C3C
  8
0
 10
535.788400697858151
 20
72.6082333148828241
 30
0.0
 40
0.4336703667143313
 50
235.5877303115047141
 51
304.4122696884953143
  0
ARC
  5
10C3D
  8
0
 10
535.788400697858151
 20
72.7736416652774096
 30
0.0
 40
0.0542384895456898
 50
224.3815185905419014
 51
315.618481409458127
  0
LINE
  5
10C3E
  8
0
 10
535.5029682412081229
 20
66.4024060333851338
 30
0.0
 11
535.5062629710337205
 21
41.8423865160572674
 31
0.0
  0
LINE
  5
10C3F
  8
0
 10
536.0738343829081032
 20
66.4024060333851338
 30
0.0
 11
536.0716529362337042
 21
41.8423865160572674
 31
0.0
  0
LINE
  5
10C40
  8
0
 10
535.8499609189581179
 20
72.7928411487597486
 30
0.0
 11
535.8464842169167923
 21
73.5326158568680057
 31
0.0
  0
ARC
  5
10C41
  8
0
 10
535.8071323365292074
 20
74.5754855377983006
 30
0.0
 40
2.21846449000153
 50
41.0460519113270905
 51
73.141338986818198
  0
ARC
  5
10C42
  8
0
 10
536.1555034452106838
 20
74.9653686701755646
 30
0.0
 40
1.700959605775261
 50
349.9595210134713739
 51
38.8466088962974112
  0
ARC
  5
10C43
  8
0
 10
535.9915602022964549
 20
75.0364689324692336
 30
0.0
 40
1.8752456149948351
 50
293.0428521322000961
 51
348.6936115470310256
  0
ARC
  5
10C44
  8
0
 10
535.7875858276987628
 20
75.3987909142867068
 30
0.0
 40
2.288958178966225
 50
271.5241283257748819
 51
294.1913652478248764
  0
ARC
  5
10C45
  8
0
 10
536.6738027219167861
 20
73.9645617348855637
 30
0.0
 40
0.0192984899190496
 50
99.3118873504242856
 51
189.7556834185041055
  0
ARC
  5
10C46
  8
0
 10
536.676304170338426
 20
73.9601161234287332
 30
0.0
 40
0.0241536911818787
 50
22.4230776510702903
 51
103.4647320914652937
  0
ARC
  5
10C47
  8
0
 10
536.6801783133522576
 20
73.9632631845715309
 30
0.0
 40
0.0194248467807419
 50
281.1623326051800973
 51
18.1973016530066509
  0
ARC
  5
10C48
  8
0
 10
536.6769749857891156
 20
73.965741254139715
 30
0.0
 40
0.0226333759500226
 50
191.337880668014293
 51
287.9192992649084886
  0
ARC
  5
10C49
  8
0
 10
536.6761613881549238
 20
73.9647667199986358
 30
0.0
 40
0.0522847693122655
 50
96.3316742982800633
 51
182.3667374928000982
  0
ARC
  5
10C4A
  8
0
 10
536.6796109921280049
 20
73.9636750038364426
 30
0.0
 40
0.0538519689245516
 50
9.2879466961419368
 51
99.8536107418256051
  0
ARC
  5
10C4B
  8
0
 10
536.6787677611251866
 20
73.9729558235561342
 30
0.0
 40
0.0539924002082997
 50
267.4134231027235273
 51
359.374615999767002
  0
ARC
  5
10C4C
  8
0
 10
536.6748899390454426
 20
73.9705880001410208
 30
0.0
 40
0.0515897022303617
 50
188.8988186660675979
 51
271.6008140400982143
  0
LINE
  5
10C4D
  8
0
 10
536.6238932538143445
 20
73.9634479195572112
 30
0.0
 11
536.6224873443619572
 21
74.0191684530203844
 31
0.0
  0
LINE
  5
10C4E
  8
0
 10
536.7327569451073259
 20
73.9723665076757584
 30
0.0
 11
536.733563591953839
 21
74.0203549754250929
 31
0.0
  0
ARC
  5
10C4F
  8
0
 10
536.659903999831954
 20
73.992355034473519
 30
0.0
 40
0.0466869474058104
 50
158.2133840497216113
 51
219.5809946408523103
  0
ARC
  5
10C50
  8
0
 10
536.6807896936428506
 20
73.9760859001104052
 30
0.0
 40
0.0724932431122075
 50
92.6133845200119055
 51
152.3900050833794069
  0
ARC
  5
10C51
  8
0
 10
536.6789337466967709
 20
73.9814551295491469
 30
0.0
 40
0.0670642826098466
 50
33.3864235002465293
 51
91.2384472238563262
  0
ARC
  5
10C52
  8
0
 10
536.6997128859175064
 20
73.9969763094513269
 30
0.0
 40
0.0412013615210623
 50
323.3228355864055743
 51
31.2646143211159497
  0
LINE
  5
10C53
  8
0
 10
536.2329635853581067
 20
73.4063629906326156
 30
0.0
 11
536.2329635853581067
 21
73.6910791680206785
 31
0.0
  0
LINE
  5
10C54
  8
0
 10
536.2329635853581067
 20
73.8205026416923715
 30
0.0
 11
536.2329635853581067
 21
74.1386134598435262
 31
0.0
  0
LINE
  5
10C55
  8
0
 10
536.2329635853581067
 20
74.2680702725011201
 30
0.0
 11
536.2329635853581067
 21
74.5333154437240637
 31
0.0
  0
LINE
  5
10C56
  8
0
 10
536.2329635853581067
 20
75.207133790757382
 30
0.0
 11
536.2329635853581067
 21
75.5203184645820329
 31
0.0
  0
LINE
  5
10C57
  8
0
 10
536.2329635853581067
 20
75.6497160292716728
 30
0.0
 11
536.2329635853581067
 21
75.9750305661183631
 31
0.0
  0
LINE
  5
10C58
  8
0
 10
536.2329635853581067
 20
76.1044578390142448
 30
0.0
 11
536.2329635853581067
 21
76.4423784298935232
 31
0.0
  0
LINE
  5
10C59
  8
0
 10
536.2329635853581067
 20
76.6190833985801021
 30
0.0
 11
536.2329635853581067
 21
76.7632314726260176
 31
0.0
  0
LINE
  5
10C5A
  8
0
 10
536.6775129067912076
 20
76.3673705562625855
 30
0.0
 11
536.6775070846222206
 21
76.616081649546004
 31
0.0
  0
LINE
  5
10C5B
  8
0
 10
536.6775166116608489
 20
76.2091061379850601
 30
0.0
 11
536.6775243689945682
 21
75.8777287903531885
 31
0.0
  0
LINE
  5
10C5C
  8
0
 10
536.6775274000787022
 20
75.7482471011498433
 30
0.0
 11
536.6775350870613011
 21
75.4198750149563182
 31
0.0
  0
LINE
  5
10C5D
  8
0
 10
536.6775381181673765
 20
75.2903923916215945
 30
0.0
 11
536.6775460166912808
 21
74.9529836884128429
 31
0.0
  0
LINE
  5
10C5E
  8
0
 10
536.6775490478196389
 20
74.82350011634162
 30
0.0
 11
536.6775567130003992
 21
74.4960593487639073
 31
0.0
  0
LINE
  5
10C5F
  8
0
 10
536.6775597454643503
 20
74.3665187187442029
 30
0.0
 11
536.6775770098090561
 21
73.6290214102985203
 31
0.0
  0
LINE
  5
10C60
  8
0
 10
536.6775807155187294
 20
73.4707211092807597
 30
0.0
 11
536.6775849473730204
 21
73.2899449948237134
 31
0.0
  0
LINE
  5
10C61
  8
0
 10
537.1221301487512392
 20
76.1443765971087601
 30
0.0
 11
537.1221301487512392
 21
76.3622047231347096
 31
0.0
  0
LINE
  5
10C62
  8
0
 10
537.1221301487512392
 20
75.985996568526275
 30
0.0
 11
537.1221301487512392
 21
75.6580863094330596
 31
0.0
  0
LINE
  5
10C63
  8
0
 10
537.1221301487512392
 20
75.5286007991407757
 30
0.0
 11
537.1221301487512392
 21
75.191194402550849
 31
0.0
  0
LINE
  5
10C64
  8
0
 10
537.1221301487512392
 20
75.0617088922585651
 30
0.0
 11
537.1221301487512392
 21
74.7342690144495236
 31
0.0
  0
LINE
  5
10C65
  8
0
 10
537.1221301487512392
 20
74.6047280227390104
 30
0.0
 11
537.1221301487512392
 21
74.2867150024587204
 31
0.0
  0
LINE
  5
10C66
  8
0
 10
537.1221301487512392
 20
74.1571861826382985
 30
0.0
 11
537.1221301487512392
 21
73.8626736557558274
 31
0.0
  0
LINE
  5
10C67
  8
0
 10
537.1221301487512392
 20
73.7043732120519053
 30
0.0
 11
537.1221301487512392
 21
73.5403547280279781
 31
0.0
  0
ARC
  5
10C68
  8
0
 10
537.1183632136070401
 20
74.2027711994336983
 30
0.0
 40
0.0192984899190496
 50
99.3118873504242856
 51
189.7556834185041055
  0
ARC
  5
10C69
  8
0
 10
537.12086466202868
 20
74.1983255879768535
 30
0.0
 40
0.0241536911818787
 50
22.4230776510702903
 51
103.4647320914652937
  0
ARC
  5
10C6A
  8
0
 10
537.1247388050423979
 20
74.201472649119637
 30
0.0
 40
0.0194248467807419
 50
281.1623326051800973
 51
18.1973016530066509
  0
ARC
  5
10C6B
  8
0
 10
537.1215354774792559
 20
74.2039507186878211
 30
0.0
 40
0.0226333759500226
 50
191.337880668014293
 51
287.9192992649084886
  0
ARC
  5
10C6C
  8
0
 10
537.1207218798449503
 20
74.2029761845467419
 30
0.0
 40
0.0522847693122655
 50
96.3316742982800633
 51
182.3667374928000982
  0
ARC
  5
10C6D
  8
0
 10
537.1241714838181451
 20
74.2018844683845487
 30
0.0
 40
0.0538519689245516
 50
9.2879466961419368
 51
99.8536107418256051
  0
ARC
  5
10C6E
  8
0
 10
537.1233282528154405
 20
74.2111652881042403
 30
0.0
 40
0.0539924002082997
 50
267.4134231027235273
 51
359.374615999767002
  0
ARC
  5
10C6F
  8
0
 10
537.1194504307354691
 20
74.2087974646891269
 30
0.0
 40
0.0515897022303617
 50
188.8988186660675979
 51
271.6008140400982143
  0
LINE
  5
10C70
  8
0
 10
537.0684537455045984
 20
74.2016573841053031
 30
0.0
 11
537.0670478360522111
 21
74.2573779175685331
 31
0.0
  0
LINE
  5
10C71
  8
0
 10
537.1773174367973525
 20
74.2105759722238929
 30
0.0
 11
537.1781240836439792
 21
74.2585644399732132
 31
0.0
  0
ARC
  5
10C72
  8
0
 10
537.1044644915222079
 20
74.2305644990216535
 30
0.0
 40
0.0466869474058104
 50
158.2133840497216113
 51
219.5809946408523103
  0
ARC
  5
10C73
  8
0
 10
537.1253501853332182
 20
74.2142953646585113
 30
0.0
 40
0.0724932431122075
 50
92.6133845200119055
 51
152.3900050833794069
  0
ARC
  5
10C74
  8
0
 10
537.1234942383871385
 20
74.219664594097253
 30
0.0
 40
0.0670642826098466
 50
33.3864235002465293
 51
91.2384472238563262
  0
ARC
  5
10C75
  8
0
 10
537.1442733776076466
 20
74.235185773999433
 30
0.0
 40
0.0412013615210623
 50
323.3228355864055743
 51
31.2646143211159497
  0
ARC
  5
10C76
  8
0
 10
536.2304351665178501
 20
73.7366224704757087
 30
0.0
 40
0.0192984899190496
 50
99.3118873504242856
 51
189.7556834185041055
  0
ARC
  5
10C77
  8
0
 10
536.2329366149396037
 20
73.7321768590188924
 30
0.0
 40
0.0241536911818787
 50
22.4230776510702903
 51
103.4647320914652937
  0
ARC
  5
10C78
  8
0
 10
536.2368107579533216
 20
73.7353239201616475
 30
0.0
 40
0.0194248467807419
 50
281.1623326051800973
 51
18.1973016530066509
  0
ARC
  5
10C79
  8
0
 10
536.2336074303900659
 20
73.7378019897298316
 30
0.0
 40
0.0226333759500226
 50
191.337880668014293
 51
287.9192992649084886
  0
ARC
  5
10C7A
  8
0
 10
536.2327938327559878
 20
73.7368274555887808
 30
0.0
 40
0.0522847693122655
 50
96.3316742982800633
 51
182.3667374928000982
  0
ARC
  5
10C7B
  8
0
 10
536.2362434367290689
 20
73.7357357394265591
 30
0.0
 40
0.0538519689245516
 50
9.2879466961419368
 51
99.8536107418256051
  0
ARC
  5
10C7C
  8
0
 10
536.2354002057262505
 20
73.745016559146265
 30
0.0
 40
0.0539924002082997
 50
267.4134231027235273
 51
359.374615999767002
  0
ARC
  5
10C7D
  8
0
 10
536.2315223836465066
 20
73.7426487357311373
 30
0.0
 40
0.0515897022303617
 50
188.8988186660675979
 51
271.6008140400982143
  0
LINE
  5
10C7E
  8
0
 10
536.1805256984155221
 20
73.7355086551473562
 30
0.0
 11
536.1791197889631349
 21
73.7912291886105436
 31
0.0
  0
LINE
  5
10C7F
  8
0
 10
536.2893893897083899
 20
73.7444272432659034
 30
0.0
 11
536.2901960365550167
 21
73.7924157110152521
 31
0.0
  0
ARC
  5
10C80
  8
0
 10
536.2165364444331317
 20
73.764415770063664
 30
0.0
 40
0.0466869474058104
 50
158.2133840497216113
 51
219.5809946408523103
  0
ARC
  5
10C81
  8
0
 10
536.2374221382441419
 20
73.7481466357005502
 30
0.0
 40
0.0724932431122075
 50
92.6133845200119055
 51
152.3900050833794069
  0
ARC
  5
10C82
  8
0
 10
536.2355661912979485
 20
73.7535158651392635
 30
0.0
 40
0.0670642826098466
 50
33.3864235002465293
 51
91.2384472238563262
  0
ARC
  5
10C83
  8
0
 10
536.2563453305185703
 20
73.7690370450414719
 30
0.0
 40
0.0412013615210623
 50
323.3228355864055743
 51
31.2646143211159497
  0
ARC
  5
10C84
  8
0
 10
536.673474144965553
 20
74.412109867572525
 30
0.0
 40
0.0192984899190496
 50
99.3118873504242856
 51
189.7556834185041055
  0
ARC
  5
10C85
  8
0
 10
536.6759755933871929
 20
74.4076642561156802
 30
0.0
 40
0.0241536911818787
 50
22.4230776510702903
 51
103.4647320914652937
  0
ARC
  5
10C86
  8
0
 10
536.6798497364011382
 20
74.4108113172584638
 30
0.0
 40
0.0194248467807419
 50
281.1623326051800973
 51
18.1973016530066509
  0
ARC
  5
10C87
  8
0
 10
536.6766464088379962
 20
74.4132893868266478
 30
0.0
 40
0.0226333759500226
 50
191.337880668014293
 51
287.9192992649084886
  0
ARC
  5
10C88
  8
0
 10
536.6758328112036907
 20
74.4123148526855687
 30
0.0
 40
0.0522847693122655
 50
96.3316742982800633
 51
182.3667374928000982
  0
ARC
  5
10C89
  8
0
 10
536.6792824151768855
 20
74.4112231365233754
 30
0.0
 40
0.0538519689245516
 50
9.2879466961419368
 51
99.8536107418256051
  0
ARC
  5
10C8A
  8
0
 10
536.6784391841739534
 20
74.420503956243067
 30
0.0
 40
0.0539924002082997
 50
267.4134231027235273
 51
359.374615999767002
  0
ARC
  5
10C8B
  8
0
 10
536.6745613620942095
 20
74.4181361328279536
 30
0.0
 40
0.0515897022303617
 50
188.8988186660675979
 51
271.6008140400982143
  0
LINE
  5
10C8C
  8
0
 10
536.623564676863225
 20
74.410996052244144
 30
0.0
 11
536.6221587674108378
 21
74.4667165857073456
 31
0.0
  0
LINE
  5
10C8D
  8
0
 10
536.7324283681559791
 20
74.4199146403627196
 30
0.0
 11
536.7332350150027196
 21
74.4679031081120399
 31
0.0
  0
ARC
  5
10C8E
  8
0
 10
536.6595754228808346
 20
74.4399031671604803
 30
0.0
 40
0.0466869474058104
 50
158.2133840497216113
 51
219.5809946408523103
  0
ARC
  5
10C8F
  8
0
 10
536.6804611166918448
 20
74.423634032797338
 30
0.0
 40
0.0724932431122075
 50
92.6133845200119055
 51
152.3900050833794069
  0
ARC
  5
10C90
  8
0
 10
536.6786051697457651
 20
74.4290032622360656
 30
0.0
 40
0.0670642826098466
 50
33.3864235002465293
 51
91.2384472238563262
  0
ARC
  5
10C91
  8
0
 10
536.6993843089661596
 20
74.4445244421382597
 30
0.0
 40
0.0412013615210623
 50
323.3228355864055743
 51
31.2646143211159497
  0
ARC
  5
10C92
  8
0
 10
537.1180346366559206
 20
74.6503193321206311
 30
0.0
 40
0.0192984899190496
 50
99.3118873504242856
 51
189.7556834185041055
  0
ARC
  5
10C93
  8
0
 10
537.1205360850774468
 20
74.6458737206638148
 30
0.0
 40
0.0241536911818787
 50
22.4230776510702903
 51
103.4647320914652937
  0
ARC
  5
10C94
  8
0
 10
537.1244102280911648
 20
74.6490207818065556
 30
0.0
 40
0.0194248467807419
 50
281.1623326051800973
 51
18.1973016530066509
  0
ARC
  5
10C95
  8
0
 10
537.1212069005281364
 20
74.6514988513747539
 30
0.0
 40
0.0226333759500226
 50
191.337880668014293
 51
287.9192992649084886
  0
ARC
  5
10C96
  8
0
 10
537.1203933028939446
 20
74.6505243172337032
 30
0.0
 40
0.0522847693122655
 50
96.3316742982800633
 51
182.3667374928000982
  0
ARC
  5
10C97
  8
0
 10
537.1238429068671394
 20
74.6494326010714815
 30
0.0
 40
0.0538519689245516
 50
9.2879466961419368
 51
99.8536107418256051
  0
ARC
  5
10C98
  8
0
 10
537.122999675864321
 20
74.6587134207912015
 30
0.0
 40
0.0539924002082997
 50
267.4134231027235273
 51
359.374615999767002
  0
ARC
  5
10C99
  8
0
 10
537.1191218537843497
 20
74.6563455973760597
 30
0.0
 40
0.0515897022303617
 50
188.8988186660675979
 51
271.6008140400982143
  0
LINE
  5
10C9A
  8
0
 10
537.0681251685533653
 20
74.6492055167922643
 30
0.0
 11
537.066719259100978
 21
74.704926050255466
 31
0.0
  0
LINE
  5
10C9B
  8
0
 10
537.1769888598463467
 20
74.6581241049108257
 30
0.0
 11
537.1777955066927461
 21
74.7061125726601745
 31
0.0
  0
ARC
  5
10C9C
  8
0
 10
537.1041359145710885
 20
74.6781126317085864
 30
0.0
 40
0.0466869474058104
 50
158.2133840497216113
 51
219.5809946408523103
  0
ARC
  5
10C9D
  8
0
 10
537.1250216083819851
 20
74.6618434973454725
 30
0.0
 40
0.0724932431122075
 50
92.6133845200119055
 51
152.3900050833794069
  0
ARC
  5
10C9E
  8
0
 10
537.1231656614359053
 20
74.6672127267841859
 30
0.0
 40
0.0670642826098466
 50
33.3864235002465293
 51
91.2384472238563262
  0
ARC
  5
10C9F
  8
0
 10
537.1439448006565271
 20
74.6827339066863942
 30
0.0
 40
0.0412013615210623
 50
323.3228355864055743
 51
31.2646143211159497
  0
ARC
  5
10CA0
  8
0
 10
536.2301065895667307
 20
74.1841706031626416
 30
0.0
 40
0.0192984899190496
 50
99.3118873504242856
 51
189.7556834185041055
  0
ARC
  5
10CA1
  8
0
 10
536.2326080379882569
 20
74.1797249917058252
 30
0.0
 40
0.0241536911818787
 50
22.4230776510702903
 51
103.4647320914652937
  0
ARC
  5
10CA2
  8
0
 10
536.2364821810022022
 20
74.1828720528486087
 30
0.0
 40
0.0194248467807419
 50
281.1623326051800973
 51
18.1973016530066509
  0
ARC
  5
10CA3
  8
0
 10
536.2332788534389465
 20
74.1853501224167928
 30
0.0
 40
0.0226333759500226
 50
191.337880668014293
 51
287.9192992649084886
  0
ARC
  5
10CA4
  8
0
 10
536.2324652558047546
 20
74.1843755882757137
 30
0.0
 40
0.0522847693122655
 50
96.3316742982800633
 51
182.3667374928000982
  0
ARC
  5
10CA5
  8
0
 10
536.2359148597779495
 20
74.1832838721135204
 30
0.0
 40
0.0538519689245516
 50
9.2879466961419368
 51
99.8536107418256051
  0
ARC
  5
10CA6
  8
0
 10
536.2350716287752448
 20
74.192564691833212
 30
0.0
 40
0.0539924002082997
 50
267.4134231027235273
 51
359.374615999767002
  0
ARC
  5
10CA7
  8
0
 10
536.2311938066952735
 20
74.1901968684180986
 30
0.0
 40
0.0515897022303617
 50
188.8988186660675979
 51
271.6008140400982143
  0
LINE
  5
10CA8
  8
0
 10
536.1801971214644027
 20
74.183056787834289
 30
0.0
 11
536.1787912120120154
 21
74.2387773212975048
 31
0.0
  0
LINE
  5
10CA9
  8
0
 10
536.2890608127571568
 20
74.1919753759528646
 30
0.0
 11
536.2898674596037836
 21
74.2399638437021849
 31
0.0
  0
ARC
  5
10CAA
  8
0
 10
536.2162078674818986
 20
74.2119639027506253
 30
0.0
 40
0.0466869474058104
 50
158.2133840497216113
 51
219.5809946408523103
  0
ARC
  5
10CAB
  8
0
 10
536.2370935612930225
 20
74.195694768387483
 30
0.0
 40
0.0724932431122075
 50
92.6133845200119055
 51
152.3900050833794069
  0
ARC
  5
10CAC
  8
0
 10
536.2352376143468291
 20
74.2010639978262247
 30
0.0
 40
0.0670642826098466
 50
33.3864235002465293
 51
91.2384472238563262
  0
ARC
  5
10CAD
  8
0
 10
536.2560167535674509
 20
74.2165851777284047
 30
0.0
 40
0.0412013615210623
 50
323.3228355864055743
 51
31.2646143211159497
  0
ARC
  5
10CAE
  8
0
 10
536.6743973931886558
 20
74.8690679671898067
 30
0.0
 40
0.0192984899190496
 50
99.3118873504242856
 51
189.7556834185041055
  0
ARC
  5
10CAF
  8
0
 10
536.6768988416102957
 20
74.8646223557329904
 30
0.0
 40
0.0241536911818787
 50
22.4230776510702903
 51
103.4647320914652937
  0
ARC
  5
10CB0
  8
0
 10
536.6807729846241273
 20
74.8677694168757739
 30
0.0
 40
0.0194248467807419
 50
281.1623326051800973
 51
18.1973016530066509
  0
ARC
  5
10CB1
  8
0
 10
536.6775696570608716
 20
74.870247486443958
 30
0.0
 40
0.0226333759500226
 50
191.337880668014293
 51
287.9192992649084886
  0
ARC
  5
10CB2
  8
0
 10
536.6767560594267934
 20
74.8692729523028646
 30
0.0
 40
0.0522847693122655
 50
96.3316742982800633
 51
182.3667374928000982
  0
ARC
  5
10CB3
  8
0
 10
536.6802056633998745
 20
74.8681812361406855
 30
0.0
 40
0.0538519689245516
 50
9.2879466961419368
 51
99.8536107418256051
  0
ARC
  5
10CB4
  8
0
 10
536.6793624323970562
 20
74.8774620558603772
 30
0.0
 40
0.0539924002082997
 50
267.4134231027235273
 51
359.374615999767002
  0
ARC
  5
10CB5
  8
0
 10
536.6754846103173122
 20
74.8750942324452637
 30
0.0
 40
0.0515897022303617
 50
188.8988186660675979
 51
271.6008140400982143
  0
LINE
  5
10CB6
  8
0
 10
536.6244879250863278
 20
74.8679541518614542
 30
0.0
 11
536.6230820156339405
 21
74.9236746853246416
 31
0.0
  0
LINE
  5
10CB7
  8
0
 10
536.7333516163791955
 20
74.8768727399800298
 30
0.0
 11
536.734158263225595
 21
74.9248612077293501
 31
0.0
  0
ARC
  5
10CB8
  8
0
 10
536.6604986711039373
 20
74.8968612667777904
 30
0.0
 40
0.0466869474058104
 50
158.2133840497216113
 51
219.5809946408523103
  0
ARC
  5
10CB9
  8
0
 10
536.6813843649149476
 20
74.8805921324146482
 30
0.0
 40
0.0724932431122075
 50
92.6133845200119055
 51
152.3900050833794069
  0
ARC
  5
10CBA
  8
0
 10
536.6795284179687542
 20
74.8859613618533899
 30
0.0
 40
0.0670642826098466
 50
33.3864235002465293
 51
91.2384472238563262
  0
ARC
  5
10CBB
  8
0
 10
536.700307557189376
 20
74.9014825417555699
 30
0.0
 40
0.0412013615210623
 50
323.3228355864055743
 51
31.2646143211159497
  0
ARC
  5
10CBC
  8
0
 10
537.1189578848789097
 20
75.1072774317379412
 30
0.0
 40
0.0192984899190496
 50
99.3118873504242856
 51
189.7556834185041055
  0
ARC
  5
10CBD
  8
0
 10
537.1214593333005496
 20
75.1028318202810965
 30
0.0
 40
0.0241536911818787
 50
22.4230776510702903
 51
103.4647320914652937
  0
ARC
  5
10CBE
  8
0
 10
537.1253334763142675
 20
75.10597888142388
 30
0.0
 40
0.0194248467807419
 50
281.1623326051800973
 51
18.1973016530066509
  0
ARC
  5
10CBF
  8
0
 10
537.1221301487512392
 20
75.1084569509920641
 30
0.0
 40
0.0226333759500226
 50
191.337880668014293
 51
287.9192992649084886
  0
ARC
  5
10CC0
  8
0
 10
537.1213165511169336
 20
75.1074824168509849
 30
0.0
 40
0.0522847693122655
 50
96.3316742982800633
 51
182.3667374928000982
  0
ARC
  5
10CC1
  8
0
 10
537.1247661550901284
 20
75.1063907006887916
 30
0.0
 40
0.0538519689245516
 50
9.2879466961419368
 51
99.8536107418256051
  0
ARC
  5
10CC2
  8
0
 10
537.1239229240873101
 20
75.1156715204084833
 30
0.0
 40
0.0539924002082997
 50
267.4134231027235273
 51
359.374615999767002
  0
ARC
  5
10CC3
  8
0
 10
537.1200451020074524
 20
75.1133036969933556
 30
0.0
 40
0.0515897022303617
 50
188.8988186660675979
 51
271.6008140400982143
  0
LINE
  5
10CC4
  8
0
 10
537.069048416776468
 20
75.1061636164095887
 30
0.0
 11
537.0676425073240807
 21
75.1618841498727761
 31
0.0
  0
LINE
  5
10CC5
  8
0
 10
537.1779121080694495
 20
75.1150822045281359
 30
0.0
 11
537.1787187549158489
 21
75.1630706722774562
 31
0.0
  0
ARC
  5
10CC6
  8
0
 10
537.1050591627939639
 20
75.1350707313258965
 30
0.0
 40
0.0466869474058104
 50
158.2133840497216113
 51
219.5809946408523103
  0
ARC
  5
10CC7
  8
0
 10
537.1259448566050878
 20
75.1188015969627827
 30
0.0
 40
0.0724932431122075
 50
92.6133845200119055
 51
152.3900050833794069
  0
ARC
  5
10CC8
  8
0
 10
537.1240889096590081
 20
75.124170826401496
 30
0.0
 40
0.0670642826098466
 50
33.3864235002465293
 51
91.2384472238563262
  0
ARC
  5
10CC9
  8
0
 10
537.1448680488795162
 20
75.139692006303676
 30
0.0
 40
0.0412013615210623
 50
323.3228355864055743
 51
31.2646143211159497
  0
ARC
  5
10CCA
  8
0
 10
536.6743973931886558
 20
75.3359598740720173
 30
0.0
 40
0.0192984899190496
 50
99.3118873504242856
 51
189.7556834185041055
  0
ARC
  5
10CCB
  8
0
 10
536.6768988416102957
 20
75.331514262615201
 30
0.0
 40
0.0241536911818787
 50
22.4230776510702903
 51
103.4647320914652937
  0
ARC
  5
10CCC
  8
0
 10
536.6807729846241273
 20
75.3346613237579845
 30
0.0
 40
0.0194248467807419
 50
281.1623326051800973
 51
18.1973016530066509
  0
ARC
  5
10CCD
  8
0
 10
536.6775696570608716
 20
75.3371393933261686
 30
0.0
 40
0.0226333759500226
 50
191.337880668014293
 51
287.9192992649084886
  0
ARC
  5
10CCE
  8
0
 10
536.6767560594267934
 20
75.3361648591850894
 30
0.0
 40
0.0522847693122655
 50
96.3316742982800633
 51
182.3667374928000982
  0
ARC
  5
10CCF
  8
0
 10
536.6802056633998745
 20
75.3350731430228961
 30
0.0
 40
0.0538519689245516
 50
9.2879466961419368
 51
99.8536107418256051
  0
ARC
  5
10CD0
  8
0
 10
536.6793624323970562
 20
75.3443539627425736
 30
0.0
 40
0.0539924002082997
 50
267.4134231027235273
 51
359.374615999767002
  0
ARC
  5
10CD1
  8
0
 10
536.6754846103173122
 20
75.3419861393274743
 30
0.0
 40
0.0515897022303617
 50
188.8988186660675979
 51
271.6008140400982143
  0
LINE
  5
10CD2
  8
0
 10
536.6244879250863278
 20
75.3348460587436648
 30
0.0
 11
536.6230820156339405
 21
75.3905665922068522
 31
0.0
  0
LINE
  5
10CD3
  8
0
 10
536.7333516163791955
 20
75.343764646862212
 30
0.0
 11
536.734158263225595
 21
75.3917531146115607
 31
0.0
  0
ARC
  5
10CD4
  8
0
 10
536.6604986711039373
 20
75.3637531736599726
 30
0.0
 40
0.0466869474058104
 50
158.2133840497216113
 51
219.5809946408523103
  0
ARC
  5
10CD5
  8
0
 10
536.6813843649149476
 20
75.3474840392968588
 30
0.0
 40
0.0724932431122075
 50
92.6133845200119055
 51
152.3900050833794069
  0
ARC
  5
10CD6
  8
0
 10
536.6795284179687542
 20
75.3528532687356005
 30
0.0
 40
0.0670642826098466
 50
33.3864235002465293
 51
91.2384472238563262
  0
ARC
  5
10CD7
  8
0
 10
536.700307557189376
 20
75.3683744486377805
 30
0.0
 40
0.0412013615210623
 50
323.3228355864055743
 51
31.2646143211159497
  0
ARC
  5
10CD8
  8
0
 10
537.1189578848789097
 20
75.5741693386201518
 30
0.0
 40
0.0192984899190496
 50
99.3118873504242856
 51
189.7556834185041055
  0
ARC
  5
10CD9
  8
0
 10
537.1214593333005496
 20
75.5697237271633071
 30
0.0
 40
0.0241536911818787
 50
22.4230776510702903
 51
103.4647320914652937
  0
ARC
  5
10CDA
  8
0
 10
537.1253334763142675
 20
75.5728707883060906
 30
0.0
 40
0.0194248467807419
 50
281.1623326051800973
 51
18.1973016530066509
  0
ARC
  5
10CDB
  8
0
 10
537.1221301487512392
 20
75.5753488578742747
 30
0.0
 40
0.0226333759500226
 50
191.337880668014293
 51
287.9192992649084886
  0
ARC
  5
10CDC
  8
0
 10
537.1213165511169336
 20
75.5743743237331955
 30
0.0
 40
0.0522847693122655
 50
96.3316742982800633
 51
182.3667374928000982
  0
ARC
  5
10CDD
  8
0
 10
537.1247661550901284
 20
75.5732826075710022
 30
0.0
 40
0.0538519689245516
 50
9.2879466961419368
 51
99.8536107418256051
  0
ARC
  5
10CDE
  8
0
 10
537.1239229240873101
 20
75.5825634272906939
 30
0.0
 40
0.0539924002082997
 50
267.4134231027235273
 51
359.374615999767002
  0
ARC
  5
10CDF
  8
0
 10
537.1200451020074524
 20
75.5801956038755804
 30
0.0
 40
0.0515897022303617
 50
188.8988186660675979
 51
271.6008140400982143
  0
LINE
  5
10CE0
  8
0
 10
537.069048416776468
 20
75.5730555232917709
 30
0.0
 11
537.0676425073240807
 21
75.6287760567549867
 31
0.0
  0
LINE
  5
10CE1
  8
0
 10
537.1779121080694495
 20
75.5819741114103465
 30
0.0
 11
537.1787187549158489
 21
75.6299625791596668
 31
0.0
  0
ARC
  5
10CE2
  8
0
 10
537.1050591627939639
 20
75.6019626382080929
 30
0.0
 40
0.0466869474058104
 50
158.2133840497216113
 51
219.5809946408523103
  0
ARC
  5
10CE3
  8
0
 10
537.1259448566050878
 20
75.5856935038449649
 30
0.0
 40
0.0724932431122075
 50
92.6133845200119055
 51
152.3900050833794069
  0
ARC
  5
10CE4
  8
0
 10
537.1240889096590081
 20
75.5910627332837066
 30
0.0
 40
0.0670642826098466
 50
33.3864235002465293
 51
91.2384472238563262
  0
ARC
  5
10CE5
  8
0
 10
537.1448680488795162
 20
75.6065839131858866
 30
0.0
 40
0.0412013615210623
 50
323.3228355864055743
 51
31.2646143211159497
  0
ARC
  5
10CE6
  8
0
 10
536.6743973931886558
 20
75.7938142201811331
 30
0.0
 40
0.0192984899190496
 50
99.3118873504242856
 51
189.7556834185041055
  0
ARC
  5
10CE7
  8
0
 10
536.6768988416102957
 20
75.7893686087243168
 30
0.0
 40
0.0241536911818787
 50
22.4230776510702903
 51
103.4647320914652937
  0
ARC
  5
10CE8
  8
0
 10
536.6807729846241273
 20
75.7925156698671003
 30
0.0
 40
0.0194248467807419
 50
281.1623326051800973
 51
18.1973016530066509
  0
ARC
  5
10CE9
  8
0
 10
536.6775696570608716
 20
75.7949937394352844
 30
0.0
 40
0.0226333759500226
 50
191.337880668014293
 51
287.9192992649084886
  0
ARC
  5
10CEA
  8
0
 10
536.6767560594267934
 20
75.7940192052942052
 30
0.0
 40
0.0522847693122655
 50
96.3316742982800633
 51
182.3667374928000982
  0
ARC
  5
10CEB
  8
0
 10
536.6802056633998745
 20
75.7929274891320119
 30
0.0
 40
0.0538519689245516
 50
9.2879466961419368
 51
99.8536107418256051
  0
ARC
  5
10CEC
  8
0
 10
536.6793624323970562
 20
75.8022083088517036
 30
0.0
 40
0.0539924002082997
 50
267.4134231027235273
 51
359.374615999767002
  0
ARC
  5
10CED
  8
0
 10
536.6754846103173122
 20
75.7998404854365901
 30
0.0
 40
0.0515897022303617
 50
188.8988186660675979
 51
271.6008140400982143
  0
LINE
  5
10CEE
  8
0
 10
536.6244879250863278
 20
75.7927004048527806
 30
0.0
 11
536.6230820156339405
 21
75.8484209383159538
 31
0.0
  0
LINE
  5
10CEF
  8
0
 10
536.7333516163791955
 20
75.8016189929713278
 30
0.0
 11
536.734158263225595
 21
75.8496074607206765
 31
0.0
  0
ARC
  5
10CF0
  8
0
 10
536.6604986711039373
 20
75.8216075197690884
 30
0.0
 40
0.0466869474058104
 50
158.2133840497216113
 51
219.5809946408523103
  0
ARC
  5
10CF1
  8
0
 10
536.6813843649149476
 20
75.8053383854059746
 30
0.0
 40
0.0724932431122075
 50
92.6133845200119055
 51
152.3900050833794069
  0
ARC
  5
10CF2
  8
0
 10
536.6795284179687542
 20
75.8107076148447163
 30
0.0
 40
0.0670642826098466
 50
33.3864235002465293
 51
91.2384472238563262
  0
ARC
  5
10CF3
  8
0
 10
536.700307557189376
 20
75.8262287947468963
 30
0.0
 40
0.0412013615210623
 50
323.3228355864055743
 51
31.2646143211159497
  0
ARC
  5
10CF4
  8
0
 10
536.2310298377898334
 20
75.5658749557712781
 30
0.0
 40
0.0192984899190496
 50
99.3118873504242856
 51
189.7556834185041055
  0
ARC
  5
10CF5
  8
0
 10
536.2335312862113597
 20
75.5614293443144618
 30
0.0
 40
0.0241536911818787
 50
22.4230776510702903
 51
103.4647320914652937
  0
ARC
  5
10CF6
  8
0
 10
536.2374054292251913
 20
75.5645764054572453
 30
0.0
 40
0.0194248467807419
 50
281.1623326051800973
 51
18.1973016530066509
  0
ARC
  5
10CF7
  8
0
 10
536.2342021016620492
 20
75.5670544750254294
 30
0.0
 40
0.0226333759500226
 50
191.337880668014293
 51
287.9192992649084886
  0
ARC
  5
10CF8
  8
0
 10
536.2333885040277437
 20
75.5660799408843502
 30
0.0
 40
0.0522847693122655
 50
96.3316742982800633
 51
182.3667374928000982
  0
ARC
  5
10CF9
  8
0
 10
536.2368381080010522
 20
75.5649882247221569
 30
0.0
 40
0.0538519689245516
 50
9.2879466961419368
 51
99.8536107418256051
  0
ARC
  5
10CFA
  8
0
 10
536.2359948769982338
 20
75.5742690444418344
 30
0.0
 40
0.0539924002082997
 50
267.4134231027235273
 51
359.374615999767002
  0
ARC
  5
10CFB
  8
0
 10
536.2321170549183762
 20
75.5719012210267351
 30
0.0
 40
0.0515897022303617
 50
188.8988186660675979
 51
271.6008140400982143
  0
LINE
  5
10CFC
  8
0
 10
536.1811203696872781
 20
75.5647611404429256
 30
0.0
 11
536.1797144602348908
 21
75.620481673906113
 31
0.0
  0
LINE
  5
10CFD
  8
0
 10
536.2899840609801458
 20
75.5736797285614728
 30
0.0
 11
536.2907907078268863
 21
75.6216681963108215
 31
0.0
  0
ARC
  5
10CFE
  8
0
 10
536.2171311157050013
 20
75.5936682553592334
 30
0.0
 40
0.0466869474058104
 50
158.2133840497216113
 51
219.5809946408523103
  0
ARC
  5
10CFF
  8
0
 10
536.2380168095158979
 20
75.5773991209961196
 30
0.0
 40
0.0724932431122075
 50
92.6133845200119055
 51
152.3900050833794069
  0
ARC
  5
10D00
  8
0
 10
536.2361608625699319
 20
75.5827683504348613
 30
0.0
 40
0.0670642826098466
 50
33.3864235002465293
 51
91.2384472238563262
  0
ARC
  5
10D01
  8
0
 10
536.2569400017905537
 20
75.5982895303370412
 30
0.0
 40
0.0412013615210623
 50
323.3228355864055743
 51
31.2646143211159497
  0
ARC
  5
10D02
  8
0
 10
536.2303993970895135
 20
76.0205754725720624
 30
0.0
 40
0.0192984899190496
 50
99.3118873504242856
 51
189.7556834185041055
  0
ARC
  5
10D03
  8
0
 10
536.2329008455111534
 20
76.0161298611152461
 30
0.0
 40
0.0241536911818787
 50
22.4230776510702903
 51
103.4647320914652937
  0
ARC
  5
10D04
  8
0
 10
536.2367749885248713
 20
76.0192769222580296
 30
0.0
 40
0.0194248467807419
 50
281.1623326051800973
 51
18.1973016530066509
  0
ARC
  5
10D05
  8
0
 10
536.233571660961843
 20
76.0217549918262137
 30
0.0
 40
0.0226333759500226
 50
191.337880668014293
 51
287.9192992649084886
  0
ARC
  5
10D06
  8
0
 10
536.2327580633275375
 20
76.0207804576851345
 30
0.0
 40
0.0522847693122655
 50
96.3316742982800633
 51
182.3667374928000982
  0
ARC
  5
10D07
  8
0
 10
536.236207667300846
 20
76.0196887415229412
 30
0.0
 40
0.0538519689245516
 50
9.2879466961419368
 51
99.8536107418256051
  0
ARC
  5
10D08
  8
0
 10
536.2353644362980276
 20
76.0289695612426328
 30
0.0
 40
0.0539924002082997
 50
267.4134231027235273
 51
359.374615999767002
  0
ARC
  5
10D09
  8
0
 10
536.2314866142180563
 20
76.0266017378275052
 30
0.0
 40
0.0515897022303617
 50
188.8988186660675979
 51
271.6008140400982143
  0
LINE
  5
10D0A
  8
0
 10
536.1804899289870718
 20
76.0194616572436956
 30
0.0
 11
536.1790840195347982
 21
76.0751821907068972
 31
0.0
  0
LINE
  5
10D0B
  8
0
 10
536.2893536202800533
 20
76.0283802453622855
 30
0.0
 11
536.2901602671264527
 21
76.0763687131116058
 31
0.0
  0
ARC
  5
10D0C
  8
0
 10
536.2165006750045677
 20
76.0483687721600461
 30
0.0
 40
0.0466869474058104
 50
158.2133840497216113
 51
219.5809946408523103
  0
ARC
  5
10D0D
  8
0
 10
536.2373863688158053
 20
76.0320996377969038
 30
0.0
 40
0.0724932431122075
 50
92.6133845200119055
 51
152.3900050833794069
  0
ARC
  5
10D0E
  8
0
 10
536.2355304218696119
 20
76.0374688672356456
 30
0.0
 40
0.0670642826098466
 50
33.3864235002465293
 51
91.2384472238563262
  0
ARC
  5
10D0F
  8
0
 10
536.2563095610902337
 20
76.0529900471378255
 30
0.0
 40
0.0412013615210623
 50
323.3228355864055743
 51
31.2646143211159497
  0
ARC
  5
10D10
  8
0
 10
536.2309712972232774
 20
73.3070776140534406
 30
0.0
 40
0.0201111964834572
 50
84.3147472876929243
 51
181.8063232883301907
  0
ARC
  5
10D11
  8
0
 10
536.2336557819562586
 20
73.304841297370757
 30
0.0
 40
0.0222593534004068
 50
9.5268057379211264
 51
91.7820076672320653
  0
ARC
  5
10D12
  8
0
 10
536.2328499767040739
 20
73.3106603315319205
 30
0.0
 40
0.022858080891165
 50
270.2847712026581917
 51
354.6408494120447017
  0
ARC
  5
10D13
  8
0
 10
536.2317752146088878
 20
73.3088072532687534
 30
0.0
 40
0.0210383102902863
 50
186.4505577964717133
 51
273.2381349859144848
  0
ARC
  5
10D14
  8
0
 10
536.2350250000913547
 20
73.2979549258382548
 30
0.0
 40
0.0781015297921497
 50
91.5124426136126345
 51
170.6577536589944089
  0
ARC
  5
10D15
  8
0
 10
536.2339000512490657
 20
73.3017439547941763
 30
0.0
 40
0.0742911940381561
 50
6.1074262041752387
 51
90.7222520103754135
  0
ARC
  5
10D16
  8
0
 10
536.2362528772298447
 20
73.3203407361328345
 30
0.0
 40
0.0723116391904934
 50
267.3928457869133126
 51
351.4964898737014209
  0
ARC
  5
10D17
  8
0
 10
536.227739049214847
 20
73.3180856896640591
 30
0.0
 40
0.0701764925088872
 50
186.0960517829400942
 51
274.2695363531369139
  0
LINE
  5
10D18
  8
0
 10
536.1579593862190904
 20
73.3106332583140841
 30
0.0
 11
536.1597786795156253
 21
73.370798123511122
 31
0.0
  0
LINE
  5
10D19
  8
0
 10
536.3077695805579879
 20
73.3096480139600715
 30
0.0
 11
536.3087895882581506
 21
73.369760909959723
 31
0.0
  0
ARC
  5
10D1A
  8
0
 10
536.2019519887395518
 20
73.3394129283691143
 30
0.0
 40
0.0525701292085178
 50
143.3435358273800944
 51
213.1924466204023076
  0
ARC
  5
10D1B
  8
0
 10
536.2374383677268952
 20
73.304072951922052
 30
0.0
 40
0.1023878688940399
 50
92.5048654275162079
 51
139.3308421317786099
  0
ARC
  5
10D1C
  8
0
 10
536.2368764909032279
 20
73.3176262995548313
 30
0.0
 40
0.0888229203147584
 50
35.9408662261522593
 51
92.5248612583184524
  0
ARC
  5
10D1D
  8
0
 10
536.2621576394022895
 20
73.3404870683915249
 30
0.0
 40
0.0550590270005809
 50
325.9366665126398743
 51
32.11910746417648
  0
ARC
  5
10D1E
  8
0
 10
536.6750919390890431
 20
73.529715674754982
 30
0.0
 40
0.0201111964834572
 50
84.3147472876929243
 51
181.8063232883301907
  0
ARC
  5
10D1F
  8
0
 10
536.6777764238220243
 20
73.5274793580722843
 30
0.0
 40
0.0222593534004068
 50
9.5268057379211264
 51
91.7820076672320653
  0
ARC
  5
10D20
  8
0
 10
536.6769706185698396
 20
73.533298392233462
 30
0.0
 40
0.022858080891165
 50
270.2847712026581917
 51
354.6408494120447017
  0
ARC
  5
10D21
  8
0
 10
536.6758958564745399
 20
73.5314453139703232
 30
0.0
 40
0.0210383102902863
 50
186.4505577964717133
 51
273.2381349859144848
  0
ARC
  5
10D22
  8
0
 10
536.6791456419568931
 20
73.5205929865398247
 30
0.0
 40
0.0781015297921497
 50
91.5124426136126345
 51
170.6577536589944089
  0
ARC
  5
10D23
  8
0
 10
536.6780206931148314
 20
73.5243820154957035
 30
0.0
 40
0.0742911940381561
 50
6.1074262041752387
 51
90.7222520103754135
  0
ARC
  5
10D24
  8
0
 10
536.6803735190954967
 20
73.542978796834376
 30
0.0
 40
0.0723116391904934
 50
267.3928457869133126
 51
351.4964898737014209
  0
ARC
  5
10D25
  8
0
 10
536.6718596910807264
 20
73.5407237503656006
 30
0.0
 40
0.0701764925088872
 50
186.0960517829400942
 51
274.2695363531369139
  0
LINE
  5
10D26
  8
0
 10
536.6020800280847425
 20
73.5332713190156539
 30
0.0
 11
536.6038993213812773
 21
73.5934361842126634
 31
0.0
  0
LINE
  5
10D27
  8
0
 10
536.7518902224237536
 20
73.5322860746616129
 30
0.0
 11
536.752910230123689
 21
73.5923989706612929
 31
0.0
  0
ARC
  5
10D28
  8
0
 10
536.6460726306050901
 20
73.5620509890706842
 30
0.0
 40
0.0525701292085178
 50
143.3435358273800944
 51
213.1924466204023076
  0
ARC
  5
10D29
  8
0
 10
536.6815590095925472
 20
73.5267110126235934
 30
0.0
 40
0.1023878688940399
 50
92.5048654275162079
 51
139.3308421317786099
  0
ARC
  5
10D2A
  8
0
 10
536.68099713276888
 20
73.5402643602564012
 30
0.0
 40
0.0888229203147584
 50
35.9408662261522593
 51
92.5248612583184524
  0
ARC
  5
10D2B
  8
0
 10
536.7062782812679416
 20
73.5631251290930948
 30
0.0
 40
0.0550590270005809
 50
325.9366665126398743
 51
32.11910746417648
  0
ARC
  5
10D2C
  8
0
 10
537.1196413727162735
 20
73.7633677775108936
 30
0.0
 40
0.0201111964834572
 50
84.3147472876929243
 51
181.8063232883301907
  0
ARC
  5
10D2D
  8
0
 10
537.1223258574493684
 20
73.7611314608281816
 30
0.0
 40
0.0222593534004068
 50
9.5268057379211264
 51
91.7820076672320653
  0
ARC
  5
10D2E
  8
0
 10
537.1215200521971838
 20
73.7669504949893735
 30
0.0
 40
0.022858080891165
 50
270.2847712026581917
 51
354.6408494120447017
  0
ARC
  5
10D2F
  8
0
 10
537.1204452901019977
 20
73.7650974167262063
 30
0.0
 40
0.0210383102902863
 50
186.4505577964717133
 51
273.2381349859144848
  0
ARC
  5
10D30
  8
0
 10
537.1236950755843509
 20
73.754245089295722
 30
0.0
 40
0.0781015297921497
 50
91.5124426136126345
 51
170.6577536589944089
  0
ARC
  5
10D31
  8
0
 10
537.1225701267421755
 20
73.7580341182516293
 30
0.0
 40
0.0742911940381561
 50
6.1074262041752387
 51
90.7222520103754135
  0
ARC
  5
10D32
  8
0
 10
537.1249229527229545
 20
73.7766308995902733
 30
0.0
 40
0.0723116391904934
 50
267.3928457869133126
 51
351.4964898737014209
  0
ARC
  5
10D33
  8
0
 10
537.1164091247079568
 20
73.7743758531215121
 30
0.0
 40
0.0701764925088872
 50
186.0960517829400942
 51
274.2695363531369139
  0
LINE
  5
10D34
  8
0
 10
537.0466294617122003
 20
73.7669234217715371
 30
0.0
 11
537.0484487550087351
 21
73.8270882869685749
 31
0.0
  0
LINE
  5
10D35
  8
0
 10
537.1964396560512114
 20
73.765938177417496
 30
0.0
 11
537.1974596637511468
 21
73.826051073417176
 31
0.0
  0
ARC
  5
10D36
  8
0
 10
537.0906220642325479
 20
73.7957030918265673
 30
0.0
 40
0.0525701292085178
 50
143.3435358273800944
 51
213.1924466204023076
  0
ARC
  5
10D37
  8
0
 10
537.126108443220005
 20
73.760363115379505
 30
0.0
 40
0.1023878688940399
 50
92.5048654275162079
 51
139.3308421317786099
  0
ARC
  5
10D38
  8
0
 10
537.1255465663963378
 20
73.7739164630122843
 30
0.0
 40
0.0888229203147584
 50
35.9408662261522593
 51
92.5248612583184524
  0
ARC
  5
10D39
  8
0
 10
537.1508277148952857
 20
73.7967772318489637
 30
0.0
 40
0.0550590270005809
 50
325.9366665126398743
 51
32.11910746417648
  0
ARC
  5
10D3A
  8
0
 10
537.5669983016540527
 20
74.4481354666734632
 30
0.0
 40
0.0201111964834572
 50
84.3147472876929243
 51
181.8063232883301907
  0
ARC
  5
10D3B
  8
0
 10
537.569682786387034
 20
74.4458991499907938
 30
0.0
 40
0.0222593534004068
 50
9.5268057379211264
 51
91.7820076672320653
  0
ARC
  5
10D3C
  8
0
 10
537.5688769811348493
 20
74.4517181841519573
 30
0.0
 40
0.022858080891165
 50
270.2847712026581917
 51
354.6408494120447017
  0
ARC
  5
10D3D
  8
0
 10
537.5678022190395495
 20
74.4498651058888186
 30
0.0
 40
0.0210383102902863
 50
186.4505577964717133
 51
273.2381349859144848
  0
ARC
  5
10D3E
  8
0
 10
537.5710520045219027
 20
74.4390127784583342
 30
0.0
 40
0.0781015297921497
 50
91.5124426136126345
 51
170.6577536589944089
  0
ARC
  5
10D3F
  8
0
 10
537.569927055679841
 20
74.442801807414213
 30
0.0
 40
0.0742911940381561
 50
6.1074262041752387
 51
90.7222520103754135
  0
ARC
  5
10D40
  8
0
 10
537.5722798816605064
 20
74.4613985887528713
 30
0.0
 40
0.0723116391904934
 50
267.3928457869133126
 51
351.4964898737014209
  0
ARC
  5
10D41
  8
0
 10
537.5637660536455087
 20
74.4591435422840959
 30
0.0
 40
0.0701764925088872
 50
186.0960517829400942
 51
274.2695363531369139
  0
LINE
  5
10D42
  8
0
 10
537.4939863906497521
 20
74.4516911109341493
 30
0.0
 11
537.495805683946287
 21
74.5118559761311587
 31
0.0
  0
LINE
  5
10D43
  8
0
 10
537.6437965849886496
 20
74.4507058665801082
 30
0.0
 11
537.6448165926888123
 21
74.5108187625797882
 31
0.0
  0
ARC
  5
10D44
  8
0
 10
537.5379789931700998
 20
74.4804707809891795
 30
0.0
 40
0.0525701292085178
 50
143.3435358273800944
 51
213.1924466204023076
  0
ARC
  5
10D45
  8
0
 10
537.5734653721574432
 20
74.4451308045420888
 30
0.0
 40
0.1023878688940399
 50
92.5048654275162079
 51
139.3308421317786099
  0
ARC
  5
10D46
  8
0
 10
537.5729034953337759
 20
74.4586841521748966
 30
0.0
 40
0.0888229203147584
 50
35.9408662261522593
 51
92.5248612583184524
  0
ARC
  5
10D47
  8
0
 10
537.5981846438329512
 20
74.4815449210115901
 30
0.0
 40
0.0550590270005809
 50
325.9366665126398743
 51
32.11910746417648
  0
ARC
  5
10D48
  8
0
 10
537.5648769246232632
 20
74.8989305351034318
 30
0.0
 40
0.0201111964834572
 50
84.3147472876929243
 51
181.8063232883301907
  0
ARC
  5
10D49
  8
0
 10
537.5675614093562444
 20
74.8966942184207483
 30
0.0
 40
0.0222593534004068
 50
9.5268057379211264
 51
91.7820076672320653
  0
ARC
  5
10D4A
  8
0
 10
537.5667556041040598
 20
74.9025132525819117
 30
0.0
 40
0.022858080891165
 50
270.2847712026581917
 51
354.6408494120447017
  0
ARC
  5
10D4B
  8
0
 10
537.56568084200876
 20
74.900660174318773
 30
0.0
 40
0.0210383102902863
 50
186.4505577964717133
 51
273.2381349859144848
  0
ARC
  5
10D4C
  8
0
 10
537.5689306274913406
 20
74.8898078468882602
 30
0.0
 40
0.0781015297921497
 50
91.5124426136126345
 51
170.6577536589944089
  0
ARC
  5
10D4D
  8
0
 10
537.5678056786490515
 20
74.8935968758441675
 30
0.0
 40
0.0742911940381561
 50
6.1074262041752387
 51
90.7222520103754135
  0
ARC
  5
10D4E
  8
0
 10
537.5701585046298305
 20
74.9121936571828257
 30
0.0
 40
0.0723116391904934
 50
267.3928457869133126
 51
351.4964898737014209
  0
ARC
  5
10D4F
  8
0
 10
537.5616446766150602
 20
74.9099386107140504
 30
0.0
 40
0.0701764925088872
 50
186.0960517829400942
 51
274.2695363531369139
  0
LINE
  5
10D50
  8
0
 10
537.4918650136190763
 20
74.9024861793640753
 30
0.0
 11
537.4936843069156112
 21
74.9626510445611132
 31
0.0
  0
LINE
  5
10D51
  8
0
 10
537.6416752079579737
 20
74.9015009350100627
 30
0.0
 11
537.6426952156581365
 21
74.9616138310097426
 31
0.0
  0
ARC
  5
10D52
  8
0
 10
537.5358576161395376
 20
74.9312658494191339
 30
0.0
 40
0.0525701292085178
 50
143.3435358273800944
 51
213.1924466204023076
  0
ARC
  5
10D53
  8
0
 10
537.5713439951267674
 20
74.8959258729720432
 30
0.0
 40
0.1023878688940399
 50
92.5048654275162079
 51
139.3308421317786099
  0
ARC
  5
10D54
  8
0
 10
537.5707821183032138
 20
74.909479220604851
 30
0.0
 40
0.0888229203147584
 50
35.9408662261522593
 51
92.5248612583184524
  0
ARC
  5
10D55
  8
0
 10
537.5960632668021617
 20
74.9323399894415445
 30
0.0
 40
0.0550590270005809
 50
325.9366665126398743
 51
32.11910746417648
  0
ARC
  5
10D56
  8
0
 10
537.5581437234233135
 20
75.3603976279534322
 30
0.0
 40
0.0201111964834572
 50
84.3147472876929243
 51
181.8063232883301907
  0
ARC
  5
10D57
  8
0
 10
537.5608282081564084
 20
75.3581613112707487
 30
0.0
 40
0.0222593534004068
 50
9.5268057379211264
 51
91.7820076672320653
  0
ARC
  5
10D58
  8
0
 10
537.5600224029041101
 20
75.3639803454319122
 30
0.0
 40
0.022858080891165
 50
270.2847712026581917
 51
354.6408494120447017
  0
ARC
  5
10D59
  8
0
 10
537.558947640808924
 20
75.3621272671687734
 30
0.0
 40
0.0210383102902863
 50
186.4505577964717133
 51
273.2381349859144848
  0
ARC
  5
10D5A
  8
0
 10
537.5621974262912772
 20
75.3512749397382606
 30
0.0
 40
0.0781015297921497
 50
91.5124426136126345
 51
170.6577536589944089
  0
ARC
  5
10D5B
  8
0
 10
537.5610724774491018
 20
75.3550639686941679
 30
0.0
 40
0.0742911940381561
 50
6.1074262041752387
 51
90.7222520103754135
  0
ARC
  5
10D5C
  8
0
 10
537.5634253034297672
 20
75.3736607500328262
 30
0.0
 40
0.0723116391904934
 50
267.3928457869133126
 51
351.4964898737014209
  0
ARC
  5
10D5D
  8
0
 10
537.5549114754148832
 20
75.3714057035640508
 30
0.0
 40
0.0701764925088872
 50
186.0960517829400942
 51
274.2695363531369139
  0
LINE
  5
10D5E
  8
0
 10
537.4851318124191266
 20
75.3639532722140757
 30
0.0
 11
537.4869511057155478
 21
75.4241181374111136
 31
0.0
  0
LINE
  5
10D5F
  8
0
 10
537.6349420067581377
 20
75.3629680278600631
 30
0.0
 11
537.6359620144579594
 21
75.4230809238597431
 31
0.0
  0
ARC
  5
10D60
  8
0
 10
537.5291244149394743
 20
75.3927329422691344
 30
0.0
 40
0.0525701292085178
 50
143.3435358273800944
 51
213.1924466204023076
  0
ARC
  5
10D61
  8
0
 10
537.5646107939269314
 20
75.3573929658220436
 30
0.0
 40
0.1023878688940399
 50
92.5048654275162079
 51
139.3308421317786099
  0
ARC
  5
10D62
  8
0
 10
537.5640489171031504
 20
75.3709463134548514
 30
0.0
 40
0.0888229203147584
 50
35.9408662261522593
 51
92.5248612583184524
  0
ARC
  5
10D63
  8
0
 10
537.5893300656023257
 20
75.3938070822915449
 30
0.0
 40
0.0550590270005809
 50
325.9366665126398743
 51
32.11910746417648
  0
ARC
  5
10D64
  8
0
 10
537.1183293277232451
 20
76.0450299229534323
 30
0.0
 40
0.0201111964834572
 50
84.3147472876929243
 51
181.8063232883301907
  0
ARC
  5
10D65
  8
0
 10
537.12101381245634
 20
76.0427936062707346
 30
0.0
 40
0.0222593534004068
 50
9.5268057379211264
 51
91.7820076672320653
  0
ARC
  5
10D66
  8
0
 10
537.1202080072041554
 20
76.0486126404319123
 30
0.0
 40
0.022858080891165
 50
270.2847712026581917
 51
354.6408494120447017
  0
ARC
  5
10D67
  8
0
 10
537.1191332451088556
 20
76.0467595621687735
 30
0.0
 40
0.0210383102902863
 50
186.4505577964717133
 51
273.2381349859144848
  0
ARC
  5
10D68
  8
0
 10
537.1223830305913225
 20
76.0359072347382607
 30
0.0
 40
0.0781015297921497
 50
91.5124426136126345
 51
170.6577536589944089
  0
ARC
  5
10D69
  8
0
 10
537.1212580817491471
 20
76.0396962636941538
 30
0.0
 40
0.0742911940381561
 50
6.1074262041752387
 51
90.7222520103754135
  0
ARC
  5
10D6A
  8
0
 10
537.1236109077296987
 20
76.0582930450328263
 30
0.0
 40
0.0723116391904934
 50
267.3928457869133126
 51
351.4964898737014209
  0
ARC
  5
10D6B
  8
0
 10
537.1150970797150421
 20
76.0560379985640509
 30
0.0
 40
0.0701764925088872
 50
186.0960517829400942
 51
274.2695363531369139
  0
LINE
  5
10D6C
  8
0
 10
537.0453174167191719
 20
76.0485855672140758
 30
0.0
 11
537.0471367100154794
 21
76.1087504324111137
 31
0.0
  0
LINE
  5
10D6D
  8
0
 10
537.1951276110579556
 20
76.0476003228600632
 30
0.0
 11
537.1961476187581184
 21
76.1077132188597432
 31
0.0
  0
ARC
  5
10D6E
  8
0
 10
537.0893100192395195
 20
76.0773652372691345
 30
0.0
 40
0.0525701292085178
 50
143.3435358273800944
 51
213.1924466204023076
  0
ARC
  5
10D6F
  8
0
 10
537.1247963982267493
 20
76.0420252608220437
 30
0.0
 40
0.1023878688940399
 50
92.5048654275162079
 51
139.3308421317786099
  0
ARC
  5
10D70
  8
0
 10
537.1242345214031957
 20
76.0555786084548515
 30
0.0
 40
0.0888229203147584
 50
35.9408662261522593
 51
92.5248612583184524
  0
ARC
  5
10D71
  8
0
 10
537.1495156699021436
 20
76.078439377291545
 30
0.0
 40
0.0550590270005809
 50
325.9366665126398743
 51
32.11910746417648
  0
ARC
  5
10D72
  8
0
 10
536.675718396323191
 20
76.2680940232534397
 30
0.0
 40
0.0201111964834572
 50
84.3147472876929243
 51
181.8063232883301907
  0
ARC
  5
10D73
  8
0
 10
536.6784028810562859
 20
76.2658577065707561
 30
0.0
 40
0.0222593534004068
 50
9.5268057379211264
 51
91.7820076672320653
  0
ARC
  5
10D74
  8
0
 10
536.6775970758042149
 20
76.2716767407319054
 30
0.0
 40
0.022858080891165
 50
270.2847712026581917
 51
354.6408494120447017
  0
ARC
  5
10D75
  8
0
 10
536.6765223137089151
 20
76.2698236624687809
 30
0.0
 40
0.0210383102902863
 50
186.4505577964717133
 51
273.2381349859144848
  0
ARC
  5
10D76
  8
0
 10
536.679772099191382
 20
76.2589713350382539
 30
0.0
 40
0.0781015297921497
 50
91.5124426136126345
 51
170.6577536589944089
  0
ARC
  5
10D77
  8
0
 10
536.6786471503492066
 20
76.2627603639941753
 30
0.0
 40
0.0742911940381561
 50
6.1074262041752387
 51
90.7222520103754135
  0
ARC
  5
10D78
  8
0
 10
536.6809999763296446
 20
76.2813571453328336
 30
0.0
 40
0.0723116391904934
 50
267.3928457869133126
 51
351.4964898737014209
  0
ARC
  5
10D79
  8
0
 10
536.672486148314988
 20
76.2791020988640582
 30
0.0
 40
0.0701764925088872
 50
186.0960517829400942
 51
274.2695363531369139
  0
LINE
  5
10D7A
  8
0
 10
536.6027064853191177
 20
76.2716496675140831
 30
0.0
 11
536.6045257786156526
 21
76.331814532711121
 31
0.0
  0
LINE
  5
10D7B
  8
0
 10
536.7525166796581289
 20
76.2706644231600706
 30
0.0
 11
536.7535366873579505
 21
76.3307773191597505
 31
0.0
  0
ARC
  5
10D7C
  8
0
 10
536.6466990878395791
 20
76.3004293375691418
 30
0.0
 40
0.0525701292085178
 50
143.3435358273800944
 51
213.1924466204023076
  0
ARC
  5
10D7D
  8
0
 10
536.6821854668269225
 20
76.2650893611220511
 30
0.0
 40
0.1023878688940399
 50
92.5048654275162079
 51
139.3308421317786099
  0
ARC
  5
10D7E
  8
0
 10
536.6816235900032552
 20
76.2786427087548304
 30
0.0
 40
0.0888229203147584
 50
35.9408662261522593
 51
92.5248612583184524
  0
ARC
  5
10D7F
  8
0
 10
536.7069047385022031
 20
76.3015034775915524
 30
0.0
 40
0.0550590270005809
 50
325.9366665126398743
 51
32.11910746417648
  0
ARC
  5
10D80
  8
0
 10
536.2280611565734034
 20
76.5013741938534508
 30
0.0
 40
0.0201111964834572
 50
84.3147472876929243
 51
181.8063232883301907
  0
ARC
  5
10D81
  8
0
 10
536.2307456413063846
 20
76.4991378771707389
 30
0.0
 40
0.0222593534004068
 50
9.5268057379211264
 51
91.7820076672320653
  0
ARC
  5
10D82
  8
0
 10
536.2299398360542
 20
76.5049569113319023
 30
0.0
 40
0.022858080891165
 50
270.2847712026581917
 51
354.6408494120447017
  0
ARC
  5
10D83
  8
0
 10
536.2288650739587865
 20
76.5031038330687636
 30
0.0
 40
0.0210383102902863
 50
186.4505577964717133
 51
273.2381349859144848
  0
ARC
  5
10D84
  8
0
 10
536.2314656628905141
 20
76.5105952986902196
 30
0.0
 40
0.0733808322219834
 50
88.8303403718067273
 51
180.0
  0
ARC
  5
10D85
  8
0
 10
536.2363776207002957
 20
76.5125659924420347
 30
0.0
 40
0.0714764297252481
 50
359.5297404232351255
 51
92.7377454684919798
  0
ARC
  5
10D86
  8
0
 10
536.2320857549843822
 20
76.5184118160129856
 30
0.0
 40
0.0760384533703567
 50
268.468450312213804
 51
355.1472695568012909
  0
ARC
  5
10D87
  8
0
 10
536.2302317347665621
 20
76.5146617178443336
 30
0.0
 40
0.0722614111104802
 50
183.225951390181109
 51
269.8586343929915188
  0
LINE
  5
10D88
  8
0
 10
536.1580848306684857
 20
76.5105952986902196
 30
0.0
 11
536.1567326462580922
 21
76.5733227708597326
 31
0.0
  0
LINE
  5
10D89
  8
0
 10
536.307851642957985
 20
76.5119793506600558
 30
0.0
 11
536.309871257558143
 21
76.5731944432597231
 31
0.0
  0
ARC
  5
10D8A
  8
0
 10
536.2139338745226951
 20
76.5431775185609524
 30
0.0
 40
0.0646584623319817
 50
152.2106087414514093
 51
210.2592010616043012
  0
ARC
  5
10D8B
  8
0
 10
536.2330474558134483
 20
76.5325682154739013
 30
0.0
 40
0.0865152237594968
 50
90.0555442574936933
 51
151.8963534475217898
  0
ARC
  5
10D8C
  8
0
 10
536.2351781123193177
 20
76.5354035895413034
 30
0.0
 40
0.0837091068548046
 50
26.8370420847836613
 51
91.5159384464957242
  0
ARC
  5
10D8D
  8
0
 10
536.2352063743186363
 20
76.5450169327631897
 30
0.0
 40
0.0798048675642774
 50
335.5449305228106027
 51
20.6758238459808901
  0
ARC
  5
10D8E
  8
0
 10
535.7864669502897641
 20
75.7785273347524821
 30
0.0
 40
0.0192984899190496
 50
99.3118873504242856
 51
189.7556834185041055
  0
ARC
  5
10D8F
  8
0
 10
535.788968398711404
 20
75.7740817232956658
 30
0.0
 40
0.0241536911818787
 50
22.4230776510702903
 51
103.4647320914652937
  0
ARC
  5
10D90
  8
0
 10
535.7928425417252356
 20
75.7772287844384493
 30
0.0
 40
0.0194248467807419
 50
281.1623326051800973
 51
18.1973016530066509
  0
ARC
  5
10D91
  8
0
 10
535.7896392141619799
 20
75.7797068540066334
 30
0.0
 40
0.0226333759500226
 50
191.337880668014293
 51
287.9192992649084886
  0
ARC
  5
10D92
  8
0
 10
535.7888256165279017
 20
75.7787323198655542
 30
0.0
 40
0.0522847693122655
 50
96.3316742982800633
 51
182.3667374928000982
  0
ARC
  5
10D93
  8
0
 10
535.7922752205010966
 20
75.777640603703361
 30
0.0
 40
0.0538519689245516
 50
9.2879466961419368
 51
99.8536107418256051
  0
ARC
  5
10D94
  8
0
 10
535.7914319894981645
 20
75.7869214234230526
 30
0.0
 40
0.0539924002082997
 50
267.4134231027235273
 51
359.374615999767002
  0
ARC
  5
10D95
  8
0
 10
535.7875541674184205
 20
75.7845536000079392
 30
0.0
 40
0.0515897022303617
 50
188.8988186660675979
 51
271.6008140400982143
  0
LINE
  5
10D96
  8
0
 10
535.7365574821874361
 20
75.7774135194241296
 30
0.0
 11
535.7351515727350488
 21
75.8331340528873454
 31
0.0
  0
LINE
  5
10D97
  8
0
 10
535.8454211734803039
 20
75.7863321075427052
 30
0.0
 11
535.8462278203269307
 21
75.8343205752920255
 31
0.0
  0
ARC
  5
10D98
  8
0
 10
535.7725682282050457
 20
75.8063206343404659
 30
0.0
 40
0.0466869474058104
 50
158.2133840497216113
 51
219.5809946408523103
  0
ARC
  5
10D99
  8
0
 10
535.7934539220160559
 20
75.7900514999773236
 30
0.0
 40
0.0724932431122075
 50
92.6133845200119055
 51
152.3900050833794069
  0
ARC
  5
10D9A
  8
0
 10
535.7915979750697488
 20
75.7954207294160653
 30
0.0
 40
0.0670642826098466
 50
33.3864235002465293
 51
91.2384472238563262
  0
ARC
  5
10D9B
  8
0
 10
535.8123771142904843
 20
75.8109419093182453
 30
0.0
 40
0.0412013615210623
 50
323.3228355864055743
 51
31.2646143211159497
  0
ARC
  5
10D9C
  8
0
 10
535.7858365095894442
 20
76.2581569603785852
 30
0.0
 40
0.0192984899190496
 50
99.3118873504242856
 51
189.7556834185041055
  0
ARC
  5
10D9D
  8
0
 10
535.7883379580111978
 20
76.2537113489217546
 30
0.0
 40
0.0241536911818787
 50
22.4230776510702903
 51
103.4647320914652937
  0
ARC
  5
10D9E
  8
0
 10
535.7922121010249157
 20
76.2568584100645239
 30
0.0
 40
0.0194248467807419
 50
281.1623326051800973
 51
18.1973016530066509
  0
ARC
  5
10D9F
  8
0
 10
535.7890087734617737
 20
76.2593364796327364
 30
0.0
 40
0.0226333759500226
 50
191.337880668014293
 51
287.9192992649084886
  0
ARC
  5
10DA0
  8
0
 10
535.7881951758274681
 20
76.258361945491643
 30
0.0
 40
0.0522847693122655
 50
96.3316742982800633
 51
182.3667374928000982
  0
ARC
  5
10DA1
  8
0
 10
535.7916447798006629
 20
76.2572702293294356
 30
0.0
 40
0.0538519689245516
 50
9.2879466961419368
 51
99.8536107418256051
  0
ARC
  5
10DA2
  8
0
 10
535.7908015487978446
 20
76.2665510490491556
 30
0.0
 40
0.0539924002082997
 50
267.4134231027235273
 51
359.374615999767002
  0
ARC
  5
10DA3
  8
0
 10
535.7869237267181006
 20
76.2641832256340138
 30
0.0
 40
0.0515897022303617
 50
188.8988186660675979
 51
271.6008140400982143
  0
LINE
  5
10DA4
  8
0
 10
535.7359270414871162
 20
76.2570431450502326
 30
0.0
 11
535.7345211320347289
 21
76.31276367851342
 31
0.0
  0
LINE
  5
10DA5
  8
0
 10
535.8447907327798703
 20
76.2659617331687798
 30
0.0
 11
535.8455973796266107
 21
76.3139502009181285
 31
0.0
  0
ARC
  5
10DA6
  8
0
 10
535.7719377875047257
 20
76.2859502599665404
 30
0.0
 40
0.0466869474058104
 50
158.2133840497216113
 51
219.5809946408523103
  0
ARC
  5
10DA7
  8
0
 10
535.792823481315736
 20
76.2696811256034266
 30
0.0
 40
0.0724932431122075
 50
92.6133845200119055
 51
152.3900050833794069
  0
ARC
  5
10DA8
  8
0
 10
535.7909675343696563
 20
76.2750503550421257
 30
0.0
 40
0.0670642826098466
 50
33.3864235002465293
 51
91.2384472238563262
  0
ARC
  5
10DA9
  8
0
 10
535.8117466735902781
 20
76.2905715349443483
 30
0.0
 40
0.0412013615210623
 50
323.3228355864055743
 51
31.2646143211159497
  0
ARC
  5
10DAA
  8
0
 10
535.7834362305496825
 20
73.5180432087974793
 30
0.0
 40
0.0192984899190496
 50
99.3118873504242856
 51
189.7556834185041055
  0
ARC
  5
10DAB
  8
0
 10
535.7859376789713224
 20
73.5135975973406346
 30
0.0
 40
0.0241536911818787
 50
22.4230776510702903
 51
103.4647320914652937
  0
ARC
  5
10DAC
  8
0
 10
535.7898118219850403
 20
73.5167446584834181
 30
0.0
 40
0.0194248467807419
 50
281.1623326051800973
 51
18.1973016530066509
  0
ARC
  5
10DAD
  8
0
 10
535.7866084944218983
 20
73.5192227280516022
 30
0.0
 40
0.0226333759500226
 50
191.337880668014293
 51
287.9192992649084886
  0
ARC
  5
10DAE
  8
0
 10
535.7857948967875927
 20
73.518248193910523
 30
0.0
 40
0.0522847693122655
 50
96.3316742982800633
 51
182.3667374928000982
  0
ARC
  5
10DAF
  8
0
 10
535.7892445007609012
 20
73.5171564777483297
 30
0.0
 40
0.0538519689245516
 50
9.2879466961419368
 51
99.8536107418256051
  0
ARC
  5
10DB0
  8
0
 10
535.7884012697580829
 20
73.5264372974680214
 30
0.0
 40
0.0539924002082997
 50
267.4134231027235273
 51
359.374615999767002
  0
ARC
  5
10DB1
  8
0
 10
535.7845234476782252
 20
73.5240694740529079
 30
0.0
 40
0.0515897022303617
 50
188.8988186660675979
 51
271.6008140400982143
  0
LINE
  5
10DB2
  8
0
 10
535.7335267624472408
 20
73.5169293934691268
 30
0.0
 11
535.7321208529948535
 21
73.5726499269323142
 31
0.0
  0
LINE
  5
10DB3
  8
0
 10
535.8423904537401086
 20
73.525847981587674
 30
0.0
 11
535.8431971005867354
 21
73.5738364493369943
 31
0.0
  0
ARC
  5
10DB4
  8
0
 10
535.7695375084648504
 20
73.5458365083854346
 30
0.0
 40
0.0466869474058104
 50
158.2133840497216113
 51
219.5809946408523103
  0
ARC
  5
10DB5
  8
0
 10
535.7904232022757469
 20
73.5295673740223208
 30
0.0
 40
0.0724932431122075
 50
92.6133845200119055
 51
152.3900050833794069
  0
ARC
  5
10DB6
  8
0
 10
535.7885672553296672
 20
73.5349366034610341
 30
0.0
 40
0.0670642826098466
 50
33.3864235002465293
 51
91.2384472238563262
  0
ARC
  5
10DB7
  8
0
 10
535.8093463945501753
 20
73.550457783363214
 30
0.0
 40
0.0412013615210623
 50
323.3228355864055743
 51
31.2646143211159497
  0
ARC
  5
10DB8
  8
0
 10
535.7831076535984494
 20
73.9499421167066231
 30
0.0
 40
0.0192984899190496
 50
99.3118873504242856
 51
189.7556834185041055
  0
ARC
  5
10DB9
  8
0
 10
535.7856091020200893
 20
73.9454965052497926
 30
0.0
 40
0.0241536911818787
 50
22.4230776510702903
 51
103.4647320914652937
  0
ARC
  5
10DBA
  8
0
 10
535.7894832450339209
 20
73.9486435663925761
 30
0.0
 40
0.0194248467807419
 50
281.1623326051800973
 51
18.1973016530066509
  0
ARC
  5
10DBB
  8
0
 10
535.7862799174706652
 20
73.9511216359607602
 30
0.0
 40
0.0226333759500226
 50
191.337880668014293
 51
287.9192992649084886
  0
ARC
  5
10DBC
  8
0
 10
535.785466319836587
 20
73.950147101819681
 30
0.0
 40
0.0522847693122655
 50
96.3316742982800633
 51
182.3667374928000982
  0
ARC
  5
10DBD
  8
0
 10
535.7889159238096681
 20
73.9490553856574735
 30
0.0
 40
0.0538519689245516
 50
9.2879466961419368
 51
99.8536107418256051
  0
ARC
  5
10DBE
  8
0
 10
535.7880726928068498
 20
73.9583362053771793
 30
0.0
 40
0.0539924002082997
 50
267.4134231027235273
 51
359.374615999767002
  0
ARC
  5
10DBF
  8
0
 10
535.7841948707271058
 20
73.9559683819620659
 30
0.0
 40
0.0515897022303617
 50
188.8988186660675979
 51
271.6008140400982143
  0
LINE
  5
10DC0
  8
0
 10
535.7331981854961214
 20
73.9488283013782848
 30
0.0
 11
535.7317922760437341
 21
74.0045488348414722
 31
0.0
  0
LINE
  5
10DC1
  8
0
 10
535.8420618767888755
 20
73.957746889496832
 30
0.0
 11
535.8428685236353886
 21
74.0057353572461523
 31
0.0
  0
ARC
  5
10DC2
  8
0
 10
535.7692089315137309
 20
73.9777354162945926
 30
0.0
 40
0.0466869474058104
 50
158.2133840497216113
 51
219.5809946408523103
  0
ARC
  5
10DC3
  8
0
 10
535.7900946253247412
 20
73.9614662819314788
 30
0.0
 40
0.0724932431122075
 50
92.6133845200119055
 51
152.3900050833794069
  0
ARC
  5
10DC4
  8
0
 10
535.7882386783785478
 20
73.9668355113701921
 30
0.0
 40
0.0670642826098466
 50
33.3864235002465293
 51
91.2384472238563262
  0
ARC
  5
10DC5
  8
0
 10
535.8090178175990559
 20
73.982356691272372
 30
0.0
 40
0.0412013615210623
 50
323.3228355864055743
 51
31.2646143211159497
  0
LINE
  5
10DC6
  8
0
 10
536.3218682356949785
 20
75.036986891403302
 30
0.0
 11
536.3219373548172371
 21
75.1642239940789523
 31
0.0
  0
LINE
  5
10DC7
  8
0
 10
536.3316767545580888
 20
75.0638656475597372
 30
0.0
 11
536.3316767545580888
 21
75.1537389268875415
 31
0.0
  0
ARC
  5
10DC8
  8
0
 10
536.3214797894050889
 20
75.1530160590871645
 30
0.0
 40
0.0102225552671106
 50
4.0549419992324127
 51
63.7192913533063106
  0
LINE
  5
10DC9
  8
0
 10
536.3260060232580599
 20
75.1621819656597268
 30
0.0
 11
536.2396485455581114
 21
75.2055240138597298
 31
0.0
  0
LINE
  5
10DCA
  8
0
 10
536.2329635853581067
 20
74.9905096043712547
 30
0.0
 11
536.3218682356949785
 21
75.036986891403302
 31
0.0
  0
LINE
  5
10DCB
  8
0
 10
536.2329635853581067
 20
75.1753518184999621
 30
0.0
 11
536.3219187795630205
 21
75.1300299612686899
 31
0.0
  0
ARC
  5
10DCC
  8
0
 10
536.3214797894050889
 20
75.0645885153601
 30
0.0
 40
0.0102225552671106
 50
272.230680531635528
 51
355.9450580007667782
  0
ARC
  5
10DCD
  8
0
 10
536.2317069836292376
 20
75.0766113995118758
 30
0.0
 40
0.0260821343565964
 50
87.2384983094216153
 51
185.1683538977725902
  0
ARC
  5
10DCE
  8
0
 10
536.2346388446816263
 20
75.0768592999454825
 30
0.0
 40
0.0258582695715078
 50
359.1953265816546264
 51
93.7145780951899496
  0
ARC
  5
10DCF
  8
0
 10
536.2341776870947569
 20
75.0797909263155532
 30
0.0
 40
0.0265223217029157
 50
267.3762770868136158
 51
352.8639151066573163
  0
ARC
  5
10DD0
  8
0
 10
536.2316993124196642
 20
75.0798236380361459
 30
0.0
 40
0.0265573403068198
 50
192.0886836895357135
 51
272.7286200788494739
  0
LINE
  5
10DD1
  8
0
 10
536.1440589350212349
 20
75.036986891403302
 30
0.0
 11
536.1439898158988626
 21
75.1642239940789523
 31
0.0
  0
LINE
  5
10DD2
  8
0
 10
536.1342504161581246
 20
75.0638656475597372
 30
0.0
 11
536.1342504161581246
 21
75.1537389268875415
 31
0.0
  0
ARC
  5
10DD3
  8
0
 10
536.1444473813111244
 20
75.1530160590871645
 30
0.0
 40
0.0102225552671106
 50
116.2807086466936966
 51
175.9450580007676024
  0
LINE
  5
10DD4
  8
0
 10
536.1399211474581534
 20
75.1621819656597268
 30
0.0
 11
536.2262786251581019
 21
75.2055240138597298
 31
0.0
  0
LINE
  5
10DD5
  8
0
 10
536.2329635853581067
 20
74.9905096043712547
 30
0.0
 11
536.1440589350212349
 21
75.036986891403302
 31
0.0
  0
LINE
  5
10DD6
  8
0
 10
536.2329635853581067
 20
75.1753518184999621
 30
0.0
 11
536.1440083911530792
 21
75.1300299612686899
 31
0.0
  0
ARC
  5
10DD7
  8
0
 10
536.1444473813111244
 20
75.0645885153601
 30
0.0
 40
0.0102225552671106
 50
184.0549419992323976
 51
267.7693194683612887
  0
ARC
  5
10DD8
  8
0
 10
536.2329635853581067
 20
75.1924485028130931
 30
0.0
 40
0.0146852879442696
 50
62.921245250726237
 51
117.0787547492736991
  0
LINE
  5
10DD9
  8
0
 10
536.3218682356949785
 20
74.8057173435672098
 30
0.0
 11
536.3219373548172371
 21
74.9329544462428601
 31
0.0
  0
LINE
  5
10DDA
  8
0
 10
536.3316767545580888
 20
74.832596099723645
 30
0.0
 11
536.3316767545580888
 21
74.9224693790514635
 31
0.0
  0
ARC
  5
10DDB
  8
0
 10
536.3214797894050889
 20
74.921746511251115
 30
0.0
 40
0.0102225552671106
 50
4.0549419992324127
 51
63.7192913533063106
  0
LINE
  5
10DDC
  8
0
 10
536.3260060232580599
 20
74.930912417823663
 30
0.0
 11
536.2396485455581114
 21
74.9742544660236661
 31
0.0
  0
LINE
  5
10DDD
  8
0
 10
536.2329635853581067
 20
74.7592400565351625
 30
0.0
 11
536.3218682356949785
 21
74.8057173435672098
 31
0.0
  0
LINE
  5
10DDE
  8
0
 10
536.2329635853581067
 20
74.9440822706638556
 30
0.0
 11
536.3219187795630205
 21
74.8987604134325977
 31
0.0
  0
ARC
  5
10DDF
  8
0
 10
536.3214797894050889
 20
74.8333189675239936
 30
0.0
 40
0.0102225552671106
 50
272.230680531635528
 51
355.9450580007667782
  0
ARC
  5
10DE0
  8
0
 10
536.2317069836292376
 20
74.8453418516757836
 30
0.0
 40
0.0260821343565964
 50
87.2384983094216153
 51
185.1683538977725902
  0
ARC
  5
10DE1
  8
0
 10
536.2346388446816263
 20
74.8455897521093902
 30
0.0
 40
0.0258582695715078
 50
359.1953265816546264
 51
93.7145780951899496
  0
ARC
  5
10DE2
  8
0
 10
536.2341776870947569
 20
74.848521378479461
 30
0.0
 40
0.0265223217029157
 50
267.3762770868136158
 51
352.8639151066573163
  0
ARC
  5
10DE3
  8
0
 10
536.2316993124196642
 20
74.8485540902000821
 30
0.0
 40
0.0265573403068198
 50
192.0886836895357135
 51
272.7286200788494739
  0
LINE
  5
10DE4
  8
0
 10
536.1440589350212349
 20
74.8057173435672098
 30
0.0
 11
536.1439898158988626
 21
74.9329544462428601
 31
0.0
  0
LINE
  5
10DE5
  8
0
 10
536.1342504161581246
 20
74.832596099723645
 30
0.0
 11
536.1342504161581246
 21
74.9224693790514635
 31
0.0
  0
ARC
  5
10DE6
  8
0
 10
536.1444473813111244
 20
74.921746511251115
 30
0.0
 40
0.0102225552671106
 50
116.2807086466936966
 51
175.9450580007676024
  0
LINE
  5
10DE7
  8
0
 10
536.1399211474581534
 20
74.930912417823663
 30
0.0
 11
536.2262786251581019
 21
74.9742544660236661
 31
0.0
  0
LINE
  5
10DE8
  8
0
 10
536.2329635853581067
 20
74.7592400565351625
 30
0.0
 11
536.1440589350212349
 21
74.8057173435672098
 31
0.0
  0
LINE
  5
10DE9
  8
0
 10
536.2329635853581067
 20
74.9440822706638556
 30
0.0
 11
536.1440083911530792
 21
74.8987604134325977
 31
0.0
  0
ARC
  5
10DEA
  8
0
 10
536.1444473813111244
 20
74.8333189675239936
 30
0.0
 40
0.0102225552671106
 50
184.0549419992323976
 51
267.7693194683612887
  0
ARC
  5
10DEB
  8
0
 10
536.2329635853581067
 20
74.9611789549770151
 30
0.0
 40
0.0146852879442696
 50
62.921245250726237
 51
117.0787547492736991
  0
LINE
  5
10DEC
  8
0
 10
536.3218682356949785
 20
74.579792730756111
 30
0.0
 11
536.3219373548172371
 21
74.7070298334317613
 31
0.0
  0
LINE
  5
10DED
  8
0
 10
536.3316767545580888
 20
74.6066714869125462
 30
0.0
 11
536.3316767545580888
 21
74.6965447662403506
 31
0.0
  0
ARC
  5
10DEE
  8
0
 10
536.3214797894050889
 20
74.6958218984399878
 30
0.0
 40
0.0102225552671106
 50
4.0549419992324127
 51
63.7192913533063106
  0
LINE
  5
10DEF
  8
0
 10
536.3260060232580599
 20
74.7049878050125358
 30
0.0
 11
536.2396485455581114
 21
74.7483298532125389
 31
0.0
  0
LINE
  5
10DF0
  8
0
 10
536.2329635853581067
 20
74.5333154437240637
 30
0.0
 11
536.3218682356949785
 21
74.579792730756111
 31
0.0
  0
LINE
  5
10DF1
  8
0
 10
536.2329635853581067
 20
74.7181576578527711
 30
0.0
 11
536.3219187795630205
 21
74.6728358006214989
 31
0.0
  0
ARC
  5
10DF2
  8
0
 10
536.3214797894050889
 20
74.607394354712909
 30
0.0
 40
0.0102225552671106
 50
272.230680531635528
 51
355.9450580007667782
  0
ARC
  5
10DF3
  8
0
 10
536.2317069836292376
 20
74.6194172388646848
 30
0.0
 40
0.0260821343565964
 50
87.2384983094216153
 51
185.1683538977725902
  0
ARC
  5
10DF4
  8
0
 10
536.2346388446816263
 20
74.6196651392982915
 30
0.0
 40
0.0258582695715078
 50
359.1953265816546264
 51
93.7145780951899496
  0
ARC
  5
10DF5
  8
0
 10
536.2341776870947569
 20
74.6225967656683622
 30
0.0
 40
0.0265223217029157
 50
267.3762770868136158
 51
352.8639151066573163
  0
ARC
  5
10DF6
  8
0
 10
536.2316993124196642
 20
74.6226294773889549
 30
0.0
 40
0.0265573403068198
 50
192.0886836895357135
 51
272.7286200788494739
  0
LINE
  5
10DF7
  8
0
 10
536.1440589350212349
 20
74.579792730756111
 30
0.0
 11
536.1439898158988626
 21
74.7070298334317613
 31
0.0
  0
LINE
  5
10DF8
  8
0
 10
536.1342504161581246
 20
74.6066714869125462
 30
0.0
 11
536.1342504161581246
 21
74.6965447662403506
 31
0.0
  0
ARC
  5
10DF9
  8
0
 10
536.1444473813111244
 20
74.6958218984399878
 30
0.0
 40
0.0102225552671106
 50
116.2807086466936966
 51
175.9450580007676024
  0
LINE
  5
10DFA
  8
0
 10
536.1399211474581534
 20
74.7049878050125358
 30
0.0
 11
536.2262786251581019
 21
74.7483298532125389
 31
0.0
  0
LINE
  5
10DFB
  8
0
 10
536.2329635853581067
 20
74.5333154437240637
 30
0.0
 11
536.1440589350212349
 21
74.579792730756111
 31
0.0
  0
LINE
  5
10DFC
  8
0
 10
536.2329635853581067
 20
74.7181576578527711
 30
0.0
 11
536.1440083911530792
 21
74.6728358006214989
 31
0.0
  0
ARC
  5
10DFD
  8
0
 10
536.1444473813111244
 20
74.607394354712909
 30
0.0
 40
0.0102225552671106
 50
184.0549419992323976
 51
267.7693194683612887
  0
ARC
  5
10DFE
  8
0
 10
536.2329635853581067
 20
74.7352543421659163
 30
0.0
 40
0.0146852879442696
 50
62.921245250726237
 51
117.0787547492736991
  0
LINE
  5
10DFF
  8
0
 10
536.0997906695948814
 20
74.4649597958917866
 30
0.0
 11
536.0998597887172537
 21
74.5921968985674368
 31
0.0
  0
LINE
  5
10E00
  8
0
 10
536.1095991884581053
 20
74.4918385520482218
 30
0.0
 11
536.1095991884581053
 21
74.5817118313760545
 31
0.0
  0
ARC
  5
10E01
  8
0
 10
536.0994022233049918
 20
74.5809889635756917
 30
0.0
 40
0.0102225552671106
 50
4.0549419992324127
 51
63.7192913533063106
  0
LINE
  5
10E02
  8
0
 10
536.1039284571580765
 20
74.5901548701482255
 30
0.0
 11
536.017570979458128
 21
74.6334969183482428
 31
0.0
  0
LINE
  5
10E03
  8
0
 10
536.0108860192581233
 20
74.4184825088597393
 30
0.0
 11
536.0997906695948814
 21
74.4649597958917866
 31
0.0
  0
LINE
  5
10E04
  8
0
 10
536.0108860192581233
 20
74.6033247229884466
 30
0.0
 11
536.0998412134629234
 21
74.5580028657571745
 31
0.0
  0
ARC
  5
10E05
  8
0
 10
536.0994022233049918
 20
74.4925614198485846
 30
0.0
 40
0.0102225552671106
 50
272.230680531635528
 51
355.9450580007667782
  0
ARC
  5
10E06
  8
0
 10
536.0096294175292542
 20
74.5045843040003604
 30
0.0
 40
0.0260821343565964
 50
87.2384983094216153
 51
185.1683538977725902
  0
ARC
  5
10E07
  8
0
 10
536.0125612785816429
 20
74.504832204433967
 30
0.0
 40
0.0258582695715078
 50
359.1953265816546264
 51
93.7145780951899496
  0
ARC
  5
10E08
  8
0
 10
536.0121001209947735
 20
74.5077638308040378
 30
0.0
 40
0.0265223217029157
 50
267.3762770868136158
 51
352.8639151066573163
  0
ARC
  5
10E09
  8
0
 10
536.0096217463197945
 20
74.5077965425246589
 30
0.0
 40
0.0265573403068198
 50
192.0886836895357135
 51
272.7286200788494739
  0
LINE
  5
10E0A
  8
0
 10
535.9219813689212515
 20
74.4649597958917866
 30
0.0
 11
535.9219122497988792
 21
74.5921968985674368
 31
0.0
  0
LINE
  5
10E0B
  8
0
 10
535.9121728500581412
 20
74.4918385520482218
 30
0.0
 11
535.9121728500581412
 21
74.5817118313760545
 31
0.0
  0
ARC
  5
10E0C
  8
0
 10
535.922369815211141
 20
74.5809889635756917
 30
0.0
 40
0.0102225552671106
 50
116.2807086466936966
 51
175.9450580007676024
  0
LINE
  5
10E0D
  8
0
 10
535.9178435813580563
 20
74.5901548701482255
 30
0.0
 11
536.0042010590581185
 21
74.6334969183482428
 31
0.0
  0
LINE
  5
10E0E
  8
0
 10
536.0108860192581233
 20
74.4184825088597393
 30
0.0
 11
535.9219813689212515
 21
74.4649597958917866
 31
0.0
  0
LINE
  5
10E0F
  8
0
 10
536.0108860192581233
 20
74.6033247229884466
 30
0.0
 11
535.9219308250532094
 21
74.5580028657571745
 31
0.0
  0
ARC
  5
10E10
  8
0
 10
535.922369815211141
 20
74.4925614198485846
 30
0.0
 40
0.0102225552671106
 50
184.0549419992323976
 51
267.7693194683612887
  0
ARC
  5
10E11
  8
0
 10
536.0108860192581233
 20
74.6204214073015919
 30
0.0
 40
0.0146852879442696
 50
62.921245250726237
 51
117.0787547492736991
  0
LINE
  5
10E12
  8
0
 10
535.8773043508948604
 20
74.3518309812917835
 30
0.0
 11
535.8773734700172326
 21
74.4790680839674337
 31
0.0
  0
LINE
  5
10E13
  8
0
 10
535.8871128697580843
 20
74.3787097374482045
 30
0.0
 11
535.8871128697580843
 21
74.4685830167760514
 31
0.0
  0
ARC
  5
10E14
  8
0
 10
535.8769159046049708
 20
74.4678601489756744
 30
0.0
 40
0.0102225552671106
 50
4.0549419992324127
 51
63.7192913533063106
  0
LINE
  5
10E15
  8
0
 10
535.8814421384581692
 20
74.4770260555482366
 30
0.0
 11
535.795084660758107
 21
74.5203681037482397
 31
0.0
  0
LINE
  5
10E16
  8
0
 10
535.7883997005581023
 20
74.3053536942597361
 30
0.0
 11
535.8773043508948604
 21
74.3518309812917835
 31
0.0
  0
LINE
  5
10E17
  8
0
 10
535.7883997005581023
 20
74.4901959083884435
 30
0.0
 11
535.8773548947627887
 21
74.4448740511571714
 31
0.0
  0
ARC
  5
10E18
  8
0
 10
535.8769159046049708
 20
74.3794326052485957
 30
0.0
 40
0.0102225552671106
 50
272.230680531635528
 51
355.9450580007667782
  0
ARC
  5
10E19
  8
0
 10
535.7871430988292332
 20
74.3914554894003572
 30
0.0
 40
0.0260821343565964
 50
87.2384983094216153
 51
185.1683538977725902
  0
ARC
  5
10E1A
  8
0
 10
535.7900749598816219
 20
74.3917033898339639
 30
0.0
 40
0.0258582695715078
 50
359.1953265816546264
 51
93.7145780951899496
  0
ARC
  5
10E1B
  8
0
 10
535.7896138022947525
 20
74.3946350162040346
 30
0.0
 40
0.0265223217029157
 50
267.3762770868136158
 51
352.8639151066573163
  0
ARC
  5
10E1C
  8
0
 10
535.7871354276197735
 20
74.3946677279246558
 30
0.0
 40
0.0265573403068198
 50
192.0886836895357135
 51
272.7286200788494739
  0
LINE
  5
10E1D
  8
0
 10
535.6994950502212305
 20
74.3518309812917835
 30
0.0
 11
535.6994259310988582
 21
74.4790680839674337
 31
0.0
  0
LINE
  5
10E1E
  8
0
 10
535.6896865313581202
 20
74.3787097374482045
 30
0.0
 11
535.6896865313581202
 21
74.4685830167760514
 31
0.0
  0
ARC
  5
10E1F
  8
0
 10
535.69988349651112
 20
74.4678601489756744
 30
0.0
 40
0.0102225552671106
 50
116.2807086466936966
 51
175.9450580007676024
  0
LINE
  5
10E20
  8
0
 10
535.6953572626580353
 20
74.4770260555482366
 30
0.0
 11
535.7817147403579838
 21
74.5203681037482397
 31
0.0
  0
LINE
  5
10E21
  8
0
 10
535.7883997005581023
 20
74.3053536942597361
 30
0.0
 11
535.6994950502212305
 21
74.3518309812917835
 31
0.0
  0
LINE
  5
10E22
  8
0
 10
535.7883997005581023
 20
74.4901959083884435
 30
0.0
 11
535.6994445063531884
 21
74.4448740511571714
 31
0.0
  0
ARC
  5
10E23
  8
0
 10
535.69988349651112
 20
74.3794326052485957
 30
0.0
 40
0.0102225552671106
 50
184.0549419992323976
 51
267.7693194683612887
  0
ARC
  5
10E24
  8
0
 10
535.7883997005581023
 20
74.5072925927015888
 30
0.0
 40
0.0146852879442696
 50
62.921245250726237
 51
117.0787547492736991
  0
LINE
  5
10E25
  8
0
 10
536.0997906695948814
 20
75.1494888244131118
 30
0.0
 11
536.0998597887172537
 21
75.2767259270887621
 31
0.0
  0
LINE
  5
10E26
  8
0
 10
536.1095991884581053
 20
75.176367580569547
 30
0.0
 11
536.1095991884581053
 21
75.2662408598973514
 31
0.0
  0
ARC
  5
10E27
  8
0
 10
536.0994022233049918
 20
75.2655179920969744
 30
0.0
 40
0.0102225552671106
 50
4.0549419992324127
 51
63.7192913533063106
  0
LINE
  5
10E28
  8
0
 10
536.1039284571580765
 20
75.2746838986695366
 30
0.0
 11
536.017570979458128
 21
75.3180259468695397
 31
0.0
  0
LINE
  5
10E29
  8
0
 10
536.0108860192581233
 20
75.1030115373810645
 30
0.0
 11
536.0997906695948814
 21
75.1494888244131118
 31
0.0
  0
LINE
  5
10E2A
  8
0
 10
536.0108860192581233
 20
75.2878537515097719
 30
0.0
 11
536.0998412134629234
 21
75.2425318942784997
 31
0.0
  0
ARC
  5
10E2B
  8
0
 10
536.0994022233049918
 20
75.1770904483698956
 30
0.0
 40
0.0102225552671106
 50
272.230680531635528
 51
355.9450580007667782
  0
ARC
  5
10E2C
  8
0
 10
536.0096294175292542
 20
75.1891133325216856
 30
0.0
 40
0.0260821343565964
 50
87.2384983094216153
 51
185.1683538977725902
  0
ARC
  5
10E2D
  8
0
 10
536.0125612785816429
 20
75.1893612329552923
 30
0.0
 40
0.0258582695715078
 50
359.1953265816546264
 51
93.7145780951899496
  0
ARC
  5
10E2E
  8
0
 10
536.0121001209947735
 20
75.192292859325363
 30
0.0
 40
0.0265223217029157
 50
267.3762770868136158
 51
352.8639151066573163
  0
ARC
  5
10E2F
  8
0
 10
536.0096217463197945
 20
75.1923255710459557
 30
0.0
 40
0.0265573403068198
 50
192.0886836895357135
 51
272.7286200788494739
  0
LINE
  5
10E30
  8
0
 10
535.9219813689212515
 20
75.1494888244131118
 30
0.0
 11
535.9219122497988792
 21
75.2767259270887621
 31
0.0
  0
LINE
  5
10E31
  8
0
 10
535.9121728500581412
 20
75.176367580569547
 30
0.0
 11
535.9121728500581412
 21
75.2662408598973514
 31
0.0
  0
ARC
  5
10E32
  8
0
 10
535.922369815211141
 20
75.2655179920969744
 30
0.0
 40
0.0102225552671106
 50
116.2807086466936966
 51
175.9450580007676024
  0
LINE
  5
10E33
  8
0
 10
535.9178435813580563
 20
75.2746838986695366
 30
0.0
 11
536.0042010590581185
 21
75.3180259468695397
 31
0.0
  0
LINE
  5
10E34
  8
0
 10
536.0108860192581233
 20
75.1030115373810645
 30
0.0
 11
535.9219813689212515
 21
75.1494888244131118
 31
0.0
  0
LINE
  5
10E35
  8
0
 10
536.0108860192581233
 20
75.2878537515097719
 30
0.0
 11
535.9219308250532094
 21
75.2425318942784997
 31
0.0
  0
ARC
  5
10E36
  8
0
 10
535.922369815211141
 20
75.1770904483698956
 30
0.0
 40
0.0102225552671106
 50
184.0549419992323976
 51
267.7693194683612887
  0
ARC
  5
10E37
  8
0
 10
536.0108860192581233
 20
75.3049504358229029
 30
0.0
 40
0.0146852879442696
 50
62.921245250726237
 51
117.0787547492736991
  0
LINE
  5
10E38
  8
0
 10
535.8773043508948604
 20
75.2644758310410964
 30
0.0
 11
535.8773734700172326
 21
75.3917129337167466
 31
0.0
  0
LINE
  5
10E39
  8
0
 10
535.8871128697580843
 20
75.29135458719756
 30
0.0
 11
535.8871128697580843
 21
75.3812278665253643
 31
0.0
  0
ARC
  5
10E3A
  8
0
 10
535.8769159046049708
 20
75.3805049987250015
 30
0.0
 40
0.0102225552671106
 50
4.0549419992324127
 51
63.7192913533063106
  0
LINE
  5
10E3B
  8
0
 10
535.8814421384581692
 20
75.3896709052975496
 30
0.0
 11
535.795084660758107
 21
75.4330129534975526
 31
0.0
  0
LINE
  5
10E3C
  8
0
 10
535.7883997005581023
 20
75.2179985440090491
 30
0.0
 11
535.8773043508948604
 21
75.2644758310410964
 31
0.0
  0
LINE
  5
10E3D
  8
0
 10
535.7883997005581023
 20
75.4028407581377849
 30
0.0
 11
535.8773548947627887
 21
75.3575189009064843
 31
0.0
  0
ARC
  5
10E3E
  8
0
 10
535.8769159046049708
 20
75.2920774549979228
 30
0.0
 40
0.0102225552671106
 50
272.230680531635528
 51
355.9450580007667782
  0
ARC
  5
10E3F
  8
0
 10
535.7871430988292332
 20
75.3041003391496702
 30
0.0
 40
0.0260821343565964
 50
87.2384983094216153
 51
185.1683538977725902
  0
ARC
  5
10E40
  8
0
 10
535.7900749598816219
 20
75.3043482395832768
 30
0.0
 40
0.0258582695715078
 50
359.1953265816546264
 51
93.7145780951899496
  0
ARC
  5
10E41
  8
0
 10
535.7896138022947525
 20
75.307279865953376
 30
0.0
 40
0.0265223217029157
 50
267.3762770868136158
 51
352.8639151066573163
  0
ARC
  5
10E42
  8
0
 10
535.7871354276197735
 20
75.3073125776739687
 30
0.0
 40
0.0265573403068198
 50
192.0886836895357135
 51
272.7286200788494739
  0
LINE
  5
10E43
  8
0
 10
535.6994950502212305
 20
75.2644758310410964
 30
0.0
 11
535.6994259310988582
 21
75.3917129337167466
 31
0.0
  0
LINE
  5
10E44
  8
0
 10
535.6896865313581202
 20
75.29135458719756
 30
0.0
 11
535.6896865313581202
 21
75.3812278665253643
 31
0.0
  0
ARC
  5
10E45
  8
0
 10
535.69988349651112
 20
75.3805049987250015
 30
0.0
 40
0.0102225552671106
 50
116.2807086466936966
 51
175.9450580007676024
  0
LINE
  5
10E46
  8
0
 10
535.6953572626580353
 20
75.3896709052975496
 30
0.0
 11
535.7817147403579838
 21
75.4330129534975526
 31
0.0
  0
LINE
  5
10E47
  8
0
 10
535.7883997005581023
 20
75.2179985440090491
 30
0.0
 11
535.6994950502212305
 21
75.2644758310410964
 31
0.0
  0
LINE
  5
10E48
  8
0
 10
535.7883997005581023
 20
75.4028407581377849
 30
0.0
 11
535.6994445063531884
 21
75.3575189009064843
 31
0.0
  0
ARC
  5
10E49
  8
0
 10
535.69988349651112
 20
75.2920774549979228
 30
0.0
 40
0.0102225552671106
 50
184.0549419992323976
 51
267.7693194683612887
  0
ARC
  5
10E4A
  8
0
 10
535.7883997005581023
 20
75.4199374424509301
 30
0.0
 40
0.0146852879442696
 50
62.921245250726237
 51
117.0787547492736991
  0
LINE
  5
10E4B
  8
0
 10
537.8394738231428391
 20
75.2051755648362246
 30
0.0
 11
537.6151860456460554
 21
75.3231652182738571
 31
0.0
  0
LINE
  5
10E4C
  8
0
 10
537.4766583824721238
 20
75.3960395904392726
 30
0.0
 11
537.1713042053933123
 21
75.5566753323035982
 31
0.0
  0
LINE
  5
10E4D
  8
0
 10
537.0602567608966638
 20
75.6150933595252042
 30
0.0
 11
536.731467452493348
 21
75.7880574727975613
 31
0.0
  0
LINE
  5
10E4E
  8
0
 10
536.6213567850596746
 20
75.8459826956308518
 30
0.0
 11
536.2887580580112399
 21
76.0209508056913421
 31
0.0
  0
LINE
  5
10E4F
  8
0
 10
536.1809871296673009
 20
76.077645176770659
 30
0.0
 11
535.8435754617865996
 21
76.2551452001933399
 31
0.0
  0
LINE
  5
10E50
  8
0
 10
537.8420817599969723
 20
74.7446490095824743
 30
0.0
 11
537.6193633727508541
 21
74.8592044685156566
 31
0.0
  0
LINE
  5
10E51
  8
0
 10
537.4833291288655346
 20
74.9291738384972064
 30
0.0
 11
537.1712532686981376
 21
75.0896904165197157
 31
0.0
  0
LINE
  5
10E52
  8
0
 10
537.0599112629048477
 20
75.1469593054062557
 30
0.0
 11
536.72668325287475
 21
75.3183555160666032
 31
0.0
  0
LINE
  5
10E53
  8
0
 10
536.6153456170879963
 20
75.3756221572353411
 30
0.0
 11
536.2824925368698814
 21
75.5468255223152454
 31
0.0
  0
LINE
  5
10E54
  8
0
 10
536.1715739018147815
 20
75.6038766499751489
 30
0.0
 11
535.843496831524817
 21
75.7726234688491047
 31
0.0
  0
LINE
  5
10E55
  8
0
 10
536.501452545561051
 20
76.6824986228852481
 30
0.0
 11
536.3083965712794452
 21
76.5759778651099339
 31
0.0
  0
LINE
  5
10E56
  8
0
 10
536.1608244944752641
 20
76.4945533481730706
 30
0.0
 11
535.8419559353485511
 21
76.3186141125430026
 31
0.0
  0
LINE
  5
10E57
  8
0
 10
536.9720644685454545
 20
76.4634786048390538
 30
0.0
 11
536.7477658061427519
 21
76.3379277694143354
 31
0.0
  0
LINE
  5
10E58
  8
0
 10
536.6054704509369913
 20
76.2582781605768929
 30
0.0
 11
536.2872540926082365
 21
76.0801570375794824
 31
0.0
  0
LINE
  5
10E59
  8
0
 10
536.1804747709076082
 20
76.0203874745246537
 30
0.0
 11
536.1804666835018907
 21
76.0203829476116084
 31
0.0
  0
LINE
  5
10E5A
  8
0
 10
536.1795298806204073
 20
76.0198585736222867
 30
0.0
 11
535.8467455516215523
 21
75.8335830511805113
 31
0.0
  0
LINE
  5
10E5B
  8
0
 10
537.3303040669004531
 20
76.1884122482211836
 30
0.0
 11
537.1931944655065081
 21
76.1115610814487837
 31
0.0
  0
LINE
  5
10E5C
  8
0
 10
537.0495262872918829
 20
76.031033773283724
 30
0.0
 11
536.7316765927587312
 21
75.8528761560579028
 31
0.0
  0
LINE
  5
10E5D
  8
0
 10
536.623985068254342
 20
75.7925140864032585
 30
0.0
 11
536.2967057024603719
 21
75.6090710534860335
 31
0.0
  0
LINE
  5
10E5E
  8
0
 10
536.1867079474602633
 20
75.547416320862169
 30
0.0
 11
535.8871128697580843
 21
75.3794905808221642
 31
0.0
  0
LINE
  5
10E5F
  8
0
 10
537.5909181741061502
 20
75.8779738074335057
 30
0.0
 11
537.179132557558205
 21
75.6293748048529437
 31
0.0
  0
LINE
  5
10E60
  8
0
 10
537.0699089016550261
 20
75.5680358838775703
 30
0.0
 11
536.7390997471302398
 21
75.3822567463864459
 31
0.0
  0
LINE
  5
10E61
  8
0
 10
536.6286952782287472
 20
75.3202546925523393
 30
0.0
 11
536.3316767545580888
 21
75.1534520379350113
 31
0.0
  0
LINE
  5
10E62
  8
0
 10
537.7505107326514917
 20
74.3863619041107142
 30
0.0
 11
537.6405973564505985
 21
74.437698466375025
 31
0.0
  0
LINE
  5
10E63
  8
0
 10
537.4925138979157282
 20
74.50686289341877
 30
0.0
 11
537.1768126645330312
 21
74.6543155200656656
 31
0.0
  0
LINE
  5
10E64
  8
0
 10
537.0671678794931267
 20
74.7055266331140331
 30
0.0
 11
536.7312215427825777
 21
74.8624350152244915
 31
0.0
  0
LINE
  5
10E65
  8
0
 10
536.6177999567303232
 20
74.9154101354122872
 30
0.0
 11
536.3218772739838869
 21
75.0536249164817946
 31
0.0
  0
LINE
  5
10E66
  8
0
 10
537.7741719064292738
 20
75.488031078557313
 30
0.0
 11
537.6403647869217366
 21
75.414469939647006
 31
0.0
  0
LINE
  5
10E67
  8
0
 10
537.4951412704308495
 20
75.3346325789075735
 30
0.0
 11
537.1799141087631142
 21
75.16133485668567
 31
0.0
  0
LINE
  5
10E68
  8
0
 10
537.069970488357967
 20
75.1008927967812383
 30
0.0
 11
536.7379036554787035
 21
74.9183373803667223
 31
0.0
  0
LINE
  5
10E69
  8
0
 10
536.6270300274203464
 20
74.8573840440637071
 30
0.0
 11
536.3316767545580888
 21
74.6950120924621217
 31
0.0
  0
LINE
  5
10E6A
  8
0
 10
537.5659509690237883
 20
74.0177246906689845
 30
0.0
 11
537.1761347435641483
 21
74.1999112303889632
 31
0.0
  0
LINE
  5
10E6B
  8
0
 10
537.0637123449447472
 20
74.2524535476496652
 30
0.0
 11
536.7309570325044206
 21
74.4079718021181549
 31
0.0
  0
LINE
  5
10E6C
  8
0
 10
536.6181552589794137
 20
74.4606914260090207
 30
0.0
 11
536.3248851448394134
 21
74.5977556727202966
 31
0.0
  0
LINE
  5
10E6D
  8
0
 10
537.8550945577511584
 20
75.0335861947035738
 30
0.0
 11
537.6509945970509534
 21
74.9285922686191839
 31
0.0
  0
LINE
  5
10E6E
  8
0
 10
537.5142059535201042
 20
74.858224902164153
 30
0.0
 11
537.1847084758493338
 21
74.6887234789552963
 31
0.0
  0
LINE
  5
10E6F
  8
0
 10
537.0738127843884513
 20
74.6316760694782886
 30
0.0
 11
536.7379889018393442
 21
74.4589201915213437
 31
0.0
  0
LINE
  5
10E70
  8
0
 10
536.6258239394612701
 20
74.4012198385729135
 30
0.0
 11
536.294664874811815
 21
74.2308636550797871
 31
0.0
  0
LINE
  5
10E71
  8
0
 10
536.1824976528848765
 20
74.1731621397650542
 30
0.0
 11
535.8461782977710754
 21
74.0001513788104432
 31
0.0
  0
LINE
  5
10E72
  8
0
 10
537.8032687276236175
 20
74.5524665194438398
 30
0.0
 11
537.6530458561078376
 21
74.4768818917402768
 31
0.0
  0
LINE
  5
10E73
  8
0
 10
537.5158639070556319
 20
74.4078588032975858
 30
0.0
 11
537.1850053404637038
 21
74.2413873377608411
 31
0.0
  0
LINE
  5
10E74
  8
0
 10
537.0735247064329769
 20
74.1852958642433578
 30
0.0
 11
536.7334600029565763
 21
74.014192331552124
 31
0.0
  0
LINE
  5
10E75
  8
0
 10
536.7151875727585093
 20
74.0049985595263706
 30
0.0
 11
536.2908435824301705
 21
73.7914899093218537
 31
0.0
  0
LINE
  5
10E76
  8
0
 10
536.1797920689218699
 20
73.7356143477661732
 30
0.0
 11
535.8466334819210033
 21
73.5679856271153483
 31
0.0
  0
LINE
  5
10E77
  8
0
 10
537.5661477274510389
 20
74.018028830064992
 30
0.0
 11
537.1963634717785681
 21
73.8275306130596505
 31
0.0
  0
LINE
  5
10E78
  8
0
 10
537.0498737141660968
 20
73.7520648862022767
 30
0.0
 11
536.749198277319806
 21
73.5971687981781599
 31
0.0
  0
LINE
  5
10E79
  8
0
 10
536.6041107947045248
 20
73.5224254679145304
 30
0.0
 11
536.308510410654435
 21
73.3701438462828719
 31
0.0
  0
LINE
  5
10E7A
  8
0
 10
536.1616494394863821
 20
73.2944868848898068
 30
0.0
 11
535.8483618428206228
 21
73.1330935111610358
 31
0.0
  0
LINE
  5
10E7B
  8
0
 10
537.5700567098175497
 20
75.9099863928918239
 30
0.0
 11
537.1840878517851934
 21
76.0186507393464126
 31
0.0
  0
LINE
  5
10E7C
  8
0
 10
537.0406913817924988
 20
76.0973614013460917
 30
0.0
 11
536.7492119752913595
 21
76.2573551379152832
 31
0.0
  0
LINE
  5
10E7D
  8
0
 10
536.6075083979003466
 20
76.335136567156411
 30
0.0
 11
536.3060150818613465
 21
76.5006269623879405
 31
0.0
  0
LINE
  5
10E7E
  8
0
 10
536.1608841318334271
 20
76.5802896845869725
 30
0.0
 11
535.788400697858151
 21
76.7847467236869647
 31
0.0
  0
LINE
  5
10E7F
  8
0
 10
537.2964162262543368
 20
73.6896590448835838
 30
0.0
 11
537.1881395434630804
 21
73.741521985941489
 31
0.0
  0
LINE
  5
10E80
  8
0
 10
537.0406902816041566
 20
73.8121480171394637
 30
0.0
 11
536.7218907959188527
 21
73.9648482893418731
 31
0.0
  0
LINE
  5
10E81
  8
0
 10
536.694835926801602
 20
73.9778071743593557
 30
0.0
 11
536.2856914485230391
 21
74.1737813713345133
 31
0.0
  0
LINE
  5
10E82
  8
0
 10
536.172381581493255
 20
74.2280551337324255
 30
0.0
 11
535.8776332611878388
 21
74.3692352508994361
 31
0.0
  0
LINE
  5
10E83
  8
0
 10
536.9532678359541933
 20
73.4266041729561749
 30
0.0
 11
536.7494817263511777
 21
73.5216943223915962
 31
0.0
  0
LINE
  5
10E84
  8
0
 10
536.6019024580692758
 20
73.5905573803391917
 30
0.0
 11
536.2887454289855214
 21
73.736681906443323
 31
0.0
  0
LINE
  5
10E85
  8
0
 10
536.1773170969562443
 20
73.7886763076547254
 30
0.0
 11
535.8405894103023002
 21
73.9457993132676847
 31
0.0
  0
LINE
  5
10E86
  8
0
 10
536.4824083894759497
 20
73.2178390228636147
 30
0.0
 11
536.305721672979189
 21
73.3002643923539239
 31
0.0
  0
LINE
  5
10E87
  8
0
 10
536.1584698661514494
 20
73.3689582071837378
 30
0.0
 11
535.8465695365038073
 21
73.5144615049138679
 31
0.0
  0
LINE
  5
10E88
  8
0
 10
537.5725077127135592
 20
75.4593655418503886
 30
0.0
 11
537.6064401808915818
 21
75.853088315971064
 31
0.0
  0
LINE
  5
10E89
  8
0
 10
537.5657171937580188
 20
75.30138544027119
 30
0.0
 11
537.5684804428206007
 21
74.9982723141606868
 31
0.0
  0
LINE
  5
10E8A
  8
0
 10
537.5668513692762644
 20
74.5473048260081725
 30
0.0
 11
537.5666637084128752
 21
74.839941829211881
 31
0.0
  0
LINE
  5
10E8B
  8
0
 10
537.5694549949938619
 20
74.3891421483635611
 30
0.0
 11
537.5809896474986544
 21
74.0413507710021292
 31
0.0
  0
LINE
  5
10E8C
  8
0
 10
535.7885672553296672
 20
73.602000886070897
 30
0.0
 11
535.7884956586713088
 21
73.9043454619100828
 31
0.0
  0
LINE
  5
10E8D
  8
0
 10
535.7884649796690155
 20
74.0338994121641463
 30
0.0
 11
535.788400697858151
 21
74.305354215625016
 31
0.0
  0
LINE
  5
10E8E
  8
0
 10
535.7883997005581023
 20
75.4346227303951764
 30
0.0
 11
535.7883999067801142
 21
75.7329708305868508
 31
0.0
  0
LINE
  5
10E8F
  8
0
 10
535.7883999962215285
 20
75.862368359221847
 30
0.0
 11
535.7884002383146935
 21
76.212612074381326
 31
0.0
  0
LINE
  5
10E90
  8
0
 10
535.7884003277764577
 20
76.3420393041991758
 30
0.0
 11
535.7884006337817482
 21
76.7847466885152699
 31
0.0
  0
LINE
  5
10E91
  8
0
 10
535.7268404767579568
 20
72.7928411487597486
 30
0.0
 11
535.7302606968175951
 21
73.5205975875505828
 31
0.0
  0
ARC
  5
10E92
  8
0
 10
535.7696690591868673
 20
74.5754855377983006
 30
0.0
 40
2.21846449000153
 50
106.858661013181802
 51
138.9539480886728882
  0
ARC
  5
10E93
  8
0
 10
535.4212979505053909
 20
74.9653686701755646
 30
0.0
 40
1.700959605775261
 50
141.153391103702603
 51
190.0404789865278019
  0
ARC
  5
10E94
  8
0
 10
535.5852411934196198
 20
75.0364689324692336
 30
0.0
 40
1.8752456149948351
 50
191.3063884529688892
 51
246.9571478677999039
  0
ARC
  5
10E95
  8
0
 10
535.7892155680173119
 20
75.3987909142867068
 30
0.0
 40
2.288958178966225
 50
245.808634752174811
 51
268.4758716742251181
  0
ARC
  5
10E96
  8
0
 10
534.9029986737994022
 20
73.9645617348855637
 30
0.0
 40
0.0192984899190496
 50
350.2443165814951271
 51
80.6881126495757144
  0
ARC
  5
10E97
  8
0
 10
534.9004972253776486
 20
73.9601161234287332
 30
0.0
 40
0.0241536911818787
 50
76.5352679085347631
 51
157.5769223489297133
  0
ARC
  5
10E98
  8
0
 10
534.8966230823639307
 20
73.9632631845715309
 30
0.0
 40
0.0194248467807419
 50
161.80269834699331
 51
258.8376673948166058
  0
ARC
  5
10E99
  8
0
 10
534.8998264099270727
 20
73.965741254139715
 30
0.0
 40
0.0226333759500226
 50
252.0807007350913977
 51
348.6621193319855934
  0
ARC
  5
10E9A
  8
0
 10
534.9006400075612646
 20
73.9647667199986358
 30
0.0
 40
0.0522847693122655
 50
357.6332625071997882
 51
83.6683257017232336
  0
ARC
  5
10E9B
  8
0
 10
534.8971904035881835
 20
73.9636750038364426
 30
0.0
 40
0.0538519689245516
 50
80.1463892581744091
 51
170.7120533038581129
  0
ARC
  5
10E9C
  8
0
 10
534.8980336345910018
 20
73.9729558235561342
 30
0.0
 40
0.0539924002082997
 50
180.625384000232998
 51
272.5865768972764727
  0
ARC
  5
10E9D
  8
0
 10
534.9019114566707458
 20
73.9705880001410208
 30
0.0
 40
0.0515897022303617
 50
268.3991859599017857
 51
351.1011813339322885
  0
LINE
  5
10E9E
  8
0
 10
534.9529081419018439
 20
73.9634479195572112
 30
0.0
 11
534.9543140513542312
 21
74.0191684530203844
 31
0.0
  0
LINE
  5
10E9F
  8
0
 10
534.8440444506087488
 20
73.9723665076757584
 30
0.0
 11
534.8432378037623494
 21
74.0203549754250929
 31
0.0
  0
ARC
  5
10EA0
  8
0
 10
534.9168973958842344
 20
73.992355034473519
 30
0.0
 40
0.0466869474058104
 50
320.419005359147377
 51
21.7866159502783496
  0
ARC
  5
10EA1
  8
0
 10
534.8960117020732241
 20
73.9760859001104052
 30
0.0
 40
0.0724932431122075
 50
27.6099949166205896
 51
87.3866154799880945
  0
ARC
  5
10EA2
  8
0
 10
534.8978676490193038
 20
73.9814551295491469
 30
0.0
 40
0.0670642826098466
 50
88.7615527761404195
 51
146.613576499753492
  0
ARC
  5
10EA3
  8
0
 10
534.877088509798682
 20
73.9969763094513269
 30
0.0
 40
0.0412013615210623
 50
148.7353856788840005
 51
216.6771644135943973
  0
LINE
  5
10EA4
  8
0
 10
535.3438378103580817
 20
73.4063629906326156
 30
0.0
 11
535.3438378103580817
 21
73.6910791680206785
 31
0.0
  0
LINE
  5
10EA5
  8
0
 10
535.3438378103580817
 20
73.8205026416923715
 30
0.0
 11
535.3438378103580817
 21
74.1386134598435262
 31
0.0
  0
LINE
  5
10EA6
  8
0
 10
535.3438378103580817
 20
74.2680702725011201
 30
0.0
 11
535.3438378103580817
 21
74.5333154437240637
 31
0.0
  0
LINE
  5
10EA7
  8
0
 10
535.3438378103580817
 20
75.207133790757382
 30
0.0
 11
535.3438378103580817
 21
75.5203184645820329
 31
0.0
  0
LINE
  5
10EA8
  8
0
 10
535.3438378103580817
 20
75.6497160292716728
 30
0.0
 11
535.3438378103580817
 21
75.9750305661183631
 31
0.0
  0
LINE
  5
10EA9
  8
0
 10
535.3438378103580817
 20
76.1044578390142448
 30
0.0
 11
535.3438378103580817
 21
76.4423784298935232
 31
0.0
  0
LINE
  5
10EAA
  8
0
 10
535.3438378103580817
 20
76.6190833985801021
 30
0.0
 11
535.3438378103580817
 21
76.7632314726260176
 31
0.0
  0
LINE
  5
10EAB
  8
0
 10
534.8992884889248671
 20
76.3673705562625855
 30
0.0
 11
534.8992943110940814
 21
76.616081649546004
 31
0.0
  0
LINE
  5
10EAC
  8
0
 10
534.8992847840552258
 20
76.2091061379850601
 30
0.0
 11
534.8992770267216201
 21
75.8777287903531885
 31
0.0
  0
LINE
  5
10EAD
  8
0
 10
534.8992739956372588
 20
75.7482471011498433
 30
0.0
 11
534.8992663086548873
 21
75.4198750149563182
 31
0.0
  0
LINE
  5
10EAE
  8
0
 10
534.8992632775486982
 20
75.2903923916215945
 30
0.0
 11
534.8992553790249076
 21
74.9529836884128429
 31
0.0
  0
LINE
  5
10EAF
  8
0
 10
534.8992523478965495
 20
74.82350011634162
 30
0.0
 11
534.8992446827157892
 21
74.4960593487639073
 31
0.0
  0
LINE
  5
10EB0
  8
0
 10
534.8992416502517244
 20
74.3665187187442029
 30
0.0
 11
534.899224385907246
 21
73.6290214102985203
 31
0.0
  0
LINE
  5
10EB1
  8
0
 10
534.8992206801973452
 20
73.4707211092807597
 30
0.0
 11
534.8992164483431679
 21
73.2899449948237134
 31
0.0
  0
LINE
  5
10EB2
  8
0
 10
534.4546712469649492
 20
76.1443765971087601
 30
0.0
 11
534.4546712469649492
 21
76.3622047231347096
 31
0.0
  0
LINE
  5
10EB3
  8
0
 10
534.4546712469649492
 20
75.985996568526275
 30
0.0
 11
534.4546712469649492
 21
75.6580863094330596
 31
0.0
  0
LINE
  5
10EB4
  8
0
 10
534.4546712469649492
 20
75.5286007991407757
 30
0.0
 11
534.4546712469649492
 21
75.191194402550849
 31
0.0
  0
LINE
  5
10EB5
  8
0
 10
534.4546712469649492
 20
75.0617088922585651
 30
0.0
 11
534.4546712469649492
 21
74.7342690144495236
 31
0.0
  0
LINE
  5
10EB6
  8
0
 10
534.4546712469649492
 20
74.6047280227390104
 30
0.0
 11
534.4546712469649492
 21
74.2867150024587204
 31
0.0
  0
LINE
  5
10EB7
  8
0
 10
534.4546712469649492
 20
74.1571861826382985
 30
0.0
 11
534.4546712469649492
 21
73.8626736557558274
 31
0.0
  0
LINE
  5
10EB8
  8
0
 10
534.4546712469649492
 20
73.7043732120519053
 30
0.0
 11
534.4546712469649492
 21
73.5403547280279781
 31
0.0
  0
ARC
  5
10EB9
  8
0
 10
534.4584381821091483
 20
74.2027711994336983
 30
0.0
 40
0.0192984899190496
 50
350.2443165814951271
 51
80.6881126495757144
  0
ARC
  5
10EBA
  8
0
 10
534.4559367336876221
 20
74.1983255879768535
 30
0.0
 40
0.0241536911818787
 50
76.5352679085347631
 51
157.5769223489297133
  0
ARC
  5
10EBB
  8
0
 10
534.4520625906737905
 20
74.201472649119637
 30
0.0
 40
0.0194248467807419
 50
161.80269834699331
 51
258.8376673948166058
  0
ARC
  5
10EBC
  8
0
 10
534.4552659182369325
 20
74.2039507186878211
 30
0.0
 40
0.0226333759500226
 50
252.0807007350913977
 51
348.6621193319855934
  0
ARC
  5
10EBD
  8
0
 10
534.4560795158711244
 20
74.2029761845467419
 30
0.0
 40
0.0522847693122655
 50
357.6332625071997882
 51
83.6683257017232336
  0
ARC
  5
10EBE
  8
0
 10
534.4526299118979296
 20
74.2018844683845487
 30
0.0
 40
0.0538519689245516
 50
80.1463892581744091
 51
170.7120533038581129
  0
ARC
  5
10EBF
  8
0
 10
534.4534731429007479
 20
74.2111652881042403
 30
0.0
 40
0.0539924002082997
 50
180.625384000232998
 51
272.5865768972764727
  0
ARC
  5
10EC0
  8
0
 10
534.4573509649806056
 20
74.2087974646891269
 30
0.0
 40
0.0515897022303617
 50
268.3991859599017857
 51
351.1011813339322885
  0
LINE
  5
10EC1
  8
0
 10
534.5083476502114763
 20
74.2016573841053031
 30
0.0
 11
534.5097535596638636
 21
74.2573779175685331
 31
0.0
  0
LINE
  5
10EC2
  8
0
 10
534.3994839589186086
 20
74.2105759722238929
 30
0.0
 11
534.3986773120720954
 21
74.2585644399732132
 31
0.0
  0
ARC
  5
10EC3
  8
0
 10
534.4723369041939804
 20
74.2305644990216535
 30
0.0
 40
0.0466869474058104
 50
320.419005359147377
 51
21.7866159502783496
  0
ARC
  5
10EC4
  8
0
 10
534.4514512103828565
 20
74.2142953646585113
 30
0.0
 40
0.0724932431122075
 50
27.6099949166205896
 51
87.3866154799880945
  0
ARC
  5
10EC5
  8
0
 10
534.4533071573290499
 20
74.219664594097253
 30
0.0
 40
0.0670642826098466
 50
88.7615527761404195
 51
146.613576499753492
  0
ARC
  5
10EC6
  8
0
 10
534.4325280181085418
 20
74.235185773999433
 30
0.0
 40
0.0412013615210623
 50
148.7353856788840005
 51
216.6771644135943973
  0
ARC
  5
10EC7
  8
0
 10
535.3463662291982246
 20
73.7366224704757087
 30
0.0
 40
0.0192984899190496
 50
350.2443165814951271
 51
80.6881126495757144
  0
ARC
  5
10EC8
  8
0
 10
535.3438647807765847
 20
73.7321768590188924
 30
0.0
 40
0.0241536911818787
 50
76.5352679085347631
 51
157.5769223489297133
  0
ARC
  5
10EC9
  8
0
 10
535.3399906377627531
 20
73.7353239201616475
 30
0.0
 40
0.0194248467807419
 50
161.80269834699331
 51
258.8376673948166058
  0
ARC
  5
10ECA
  8
0
 10
535.3431939653260088
 20
73.7378019897298316
 30
0.0
 40
0.0226333759500226
 50
252.0807007350913977
 51
348.6621193319855934
  0
ARC
  5
10ECB
  8
0
 10
535.3440075629602006
 20
73.7368274555887808
 30
0.0
 40
0.0522847693122655
 50
357.6332625071997882
 51
83.6683257017232336
  0
ARC
  5
10ECC
  8
0
 10
535.3405579589868921
 20
73.7357357394265591
 30
0.0
 40
0.0538519689245516
 50
80.1463892581744091
 51
170.7120533038581129
  0
ARC
  5
10ECD
  8
0
 10
535.3414011899898242
 20
73.745016559146265
 30
0.0
 40
0.0539924002082997
 50
180.625384000232998
 51
272.5865768972764727
  0
ARC
  5
10ECE
  8
0
 10
535.3452790120695681
 20
73.7426487357311373
 30
0.0
 40
0.0515897022303617
 50
268.3991859599017857
 51
351.1011813339322885
  0
LINE
  5
10ECF
  8
0
 10
535.3962756973006663
 20
73.7355086551473562
 30
0.0
 11
535.3976816067530535
 21
73.7912291886105436
 31
0.0
  0
LINE
  5
10ED0
  8
0
 10
535.2874120060077985
 20
73.7444272432659034
 30
0.0
 11
535.2866053591611717
 21
73.7924157110152521
 31
0.0
  0
ARC
  5
10ED1
  8
0
 10
535.3602649512830567
 20
73.764415770063664
 30
0.0
 40
0.0466869474058104
 50
320.419005359147377
 51
21.7866159502783496
  0
ARC
  5
10ED2
  8
0
 10
535.3393792574720464
 20
73.7481466357005502
 30
0.0
 40
0.0724932431122075
 50
27.6099949166205896
 51
87.3866154799880945
  0
ARC
  5
10ED3
  8
0
 10
535.3412352044180125
 20
73.7535158651392635
 30
0.0
 40
0.0670642826098466
 50
88.7615527761404195
 51
146.613576499753492
  0
ARC
  5
10ED4
  8
0
 10
535.320456065197618
 20
73.7690370450414719
 30
0.0
 40
0.0412013615210623
 50
148.7353856788840005
 51
216.6771644135943973
  0
ARC
  5
10ED5
  8
0
 10
534.903327250750408
 20
74.412109867572525
 30
0.0
 40
0.0192984899190496
 50
350.2443165814951271
 51
80.6881126495757144
  0
ARC
  5
10ED6
  8
0
 10
534.9008258023287681
 20
74.4076642561156802
 30
0.0
 40
0.0241536911818787
 50
76.5352679085347631
 51
157.5769223489297133
  0
ARC
  5
10ED7
  8
0
 10
534.8969516593150502
 20
74.4108113172584638
 30
0.0
 40
0.0194248467807419
 50
161.80269834699331
 51
258.8376673948166058
  0
ARC
  5
10ED8
  8
0
 10
534.9001549868781922
 20
74.4132893868266478
 30
0.0
 40
0.0226333759500226
 50
252.0807007350913977
 51
348.6621193319855934
  0
ARC
  5
10ED9
  8
0
 10
534.9009685845124977
 20
74.4123148526855687
 30
0.0
 40
0.0522847693122655
 50
357.6332625071997882
 51
83.6683257017232336
  0
ARC
  5
10EDA
  8
0
 10
534.8975189805391892
 20
74.4112231365233754
 30
0.0
 40
0.0538519689245516
 50
80.1463892581744091
 51
170.7120533038581129
  0
ARC
  5
10EDB
  8
0
 10
534.8983622115420076
 20
74.420503956243067
 30
0.0
 40
0.0539924002082997
 50
180.625384000232998
 51
272.5865768972764727
  0
ARC
  5
10EDC
  8
0
 10
534.9022400336218652
 20
74.4181361328279536
 30
0.0
 40
0.0515897022303617
 50
268.3991859599017857
 51
351.1011813339322885
  0
LINE
  5
10EDD
  8
0
 10
534.9532367188528497
 20
74.410996052244144
 30
0.0
 11
534.9546426283053506
 21
74.4667165857073456
 31
0.0
  0
LINE
  5
10EDE
  8
0
 10
534.8443730275600956
 20
74.4199146403627196
 30
0.0
 11
534.8435663807134688
 21
74.4679031081120399
 31
0.0
  0
ARC
  5
10EDF
  8
0
 10
534.9172259728353538
 20
74.4399031671604803
 30
0.0
 40
0.0466869474058104
 50
320.419005359147377
 51
21.7866159502783496
  0
ARC
  5
10EE0
  8
0
 10
534.8963402790243435
 20
74.423634032797338
 30
0.0
 40
0.0724932431122075
 50
27.6099949166205896
 51
87.3866154799880945
  0
ARC
  5
10EE1
  8
0
 10
534.8981962259704233
 20
74.4290032622360656
 30
0.0
 40
0.0670642826098466
 50
88.7615527761404195
 51
146.613576499753492
  0
ARC
  5
10EE2
  8
0
 10
534.8774170867499151
 20
74.4445244421382597
 30
0.0
 40
0.0412013615210623
 50
148.7353856788840005
 51
216.6771644135943973
  0
ARC
  5
10EE3
  8
0
 10
534.4587667590602678
 20
74.6503193321206311
 30
0.0
 40
0.0192984899190496
 50
350.2443165814951271
 51
80.6881126495757144
  0
ARC
  5
10EE4
  8
0
 10
534.4562653106387415
 20
74.6458737206638148
 30
0.0
 40
0.0241536911818787
 50
76.5352679085347631
 51
157.5769223489297133
  0
ARC
  5
10EE5
  8
0
 10
534.4523911676247963
 20
74.6490207818065556
 30
0.0
 40
0.0194248467807419
 50
161.80269834699331
 51
258.8376673948166058
  0
ARC
  5
10EE6
  8
0
 10
534.455594495188052
 20
74.6514988513747539
 30
0.0
 40
0.0226333759500226
 50
252.0807007350913977
 51
348.6621193319855934
  0
ARC
  5
10EE7
  8
0
 10
534.4564080928222438
 20
74.6505243172337032
 30
0.0
 40
0.0522847693122655
 50
357.6332625071997882
 51
83.6683257017232336
  0
ARC
  5
10EE8
  8
0
 10
534.452958488849049
 20
74.6494326010714815
 30
0.0
 40
0.0538519689245516
 50
80.1463892581744091
 51
170.7120533038581129
  0
ARC
  5
10EE9
  8
0
 10
534.4538017198518673
 20
74.6587134207912015
 30
0.0
 40
0.0539924002082997
 50
180.625384000232998
 51
272.5865768972764727
  0
ARC
  5
10EEA
  8
0
 10
534.4576795419318387
 20
74.6563455973760597
 30
0.0
 40
0.0515897022303617
 50
268.3991859599017857
 51
351.1011813339322885
  0
LINE
  5
10EEB
  8
0
 10
534.5086762271628231
 20
74.6492055167922643
 30
0.0
 11
534.5100821366152104
 21
74.704926050255466
 31
0.0
  0
LINE
  5
10EEC
  8
0
 10
534.3998125358698417
 20
74.6581241049108257
 30
0.0
 11
534.3990058890233286
 21
74.7061125726601745
 31
0.0
  0
ARC
  5
10EED
  8
0
 10
534.4726654811450999
 20
74.6781126317085864
 30
0.0
 40
0.0466869474058104
 50
320.419005359147377
 51
21.7866159502783496
  0
ARC
  5
10EEE
  8
0
 10
534.4517797873340896
 20
74.6618434973454725
 30
0.0
 40
0.0724932431122075
 50
27.6099949166205896
 51
87.3866154799880945
  0
ARC
  5
10EEF
  8
0
 10
534.453635734280283
 20
74.6672127267841859
 30
0.0
 40
0.0670642826098466
 50
88.7615527761404195
 51
146.613576499753492
  0
ARC
  5
10EF0
  8
0
 10
534.4328565950595475
 20
74.6827339066863942
 30
0.0
 40
0.0412013615210623
 50
148.7353856788840005
 51
216.6771644135943973
  0
ARC
  5
10EF1
  8
0
 10
535.346694806149344
 20
74.1841706031626416
 30
0.0
 40
0.0192984899190496
 50
350.2443165814951271
 51
80.6881126495757144
  0
ARC
  5
10EF2
  8
0
 10
535.3441933577278178
 20
74.1797249917058252
 30
0.0
 40
0.0241536911818787
 50
76.5352679085347631
 51
157.5769223489297133
  0
ARC
  5
10EF3
  8
0
 10
535.3403192147139862
 20
74.1828720528486087
 30
0.0
 40
0.0194248467807419
 50
161.80269834699331
 51
258.8376673948166058
  0
ARC
  5
10EF4
  8
0
 10
535.3435225422771282
 20
74.1853501224167928
 30
0.0
 40
0.0226333759500226
 50
252.0807007350913977
 51
348.6621193319855934
  0
ARC
  5
10EF5
  8
0
 10
535.3443361399113201
 20
74.1843755882757137
 30
0.0
 40
0.0522847693122655
 50
357.6332625071997882
 51
83.6683257017232336
  0
ARC
  5
10EF6
  8
0
 10
535.3408865359381252
 20
74.1832838721135204
 30
0.0
 40
0.0538519689245516
 50
80.1463892581744091
 51
170.7120533038581129
  0
ARC
  5
10EF7
  8
0
 10
535.3417297669409436
 20
74.192564691833212
 30
0.0
 40
0.0539924002082997
 50
180.625384000232998
 51
272.5865768972764727
  0
ARC
  5
10EF8
  8
0
 10
535.3456075890208012
 20
74.1901968684180986
 30
0.0
 40
0.0515897022303617
 50
268.3991859599017857
 51
351.1011813339322885
  0
LINE
  5
10EF9
  8
0
 10
535.396604274251672
 20
74.183056787834289
 30
0.0
 11
535.3980101837040593
 21
74.2387773212975048
 31
0.0
  0
LINE
  5
10EFA
  8
0
 10
535.2877405829590316
 20
74.1919753759528646
 30
0.0
 11
535.2869339361124048
 21
74.2399638437021849
 31
0.0
  0
ARC
  5
10EFB
  8
0
 10
535.3605935282342898
 20
74.2119639027506253
 30
0.0
 40
0.0466869474058104
 50
320.419005359147377
 51
21.7866159502783496
  0
ARC
  5
10EFC
  8
0
 10
535.3397078344231659
 20
74.195694768387483
 30
0.0
 40
0.0724932431122075
 50
27.6099949166205896
 51
87.3866154799880945
  0
ARC
  5
10EFD
  8
0
 10
535.3415637813692456
 20
74.2010639978262247
 30
0.0
 40
0.0670642826098466
 50
88.7615527761404195
 51
146.613576499753492
  0
ARC
  5
10EFE
  8
0
 10
535.3207846421487375
 20
74.2165851777284047
 30
0.0
 40
0.0412013615210623
 50
148.7353856788840005
 51
216.6771644135943973
  0
ARC
  5
10EFF
  8
0
 10
534.9024040025275326
 20
74.8690679671898067
 30
0.0
 40
0.0192984899190496
 50
350.2443165814951271
 51
80.6881126495757144
  0
ARC
  5
10F00
  8
0
 10
534.8999025541058927
 20
74.8646223557329904
 30
0.0
 40
0.0241536911818787
 50
76.5352679085347631
 51
157.5769223489297133
  0
ARC
  5
10F01
  8
0
 10
534.8960284110919474
 20
74.8677694168757739
 30
0.0
 40
0.0194248467807419
 50
161.80269834699331
 51
258.8376673948166058
  0
ARC
  5
10F02
  8
0
 10
534.8992317386552031
 20
74.870247486443958
 30
0.0
 40
0.0226333759500226
 50
252.0807007350913977
 51
348.6621193319855934
  0
ARC
  5
10F03
  8
0
 10
534.900045336289395
 20
74.8692729523028646
 30
0.0
 40
0.0522847693122655
 50
357.6332625071997882
 51
83.6683257017232336
  0
ARC
  5
10F04
  8
0
 10
534.8965957323160865
 20
74.8681812361406855
 30
0.0
 40
0.0538519689245516
 50
80.1463892581744091
 51
170.7120533038581129
  0
ARC
  5
10F05
  8
0
 10
534.8974389633190185
 20
74.8774620558603772
 30
0.0
 40
0.0539924002082997
 50
180.625384000232998
 51
272.5865768972764727
  0
ARC
  5
10F06
  8
0
 10
534.9013167853987625
 20
74.8750942324452637
 30
0.0
 40
0.0515897022303617
 50
268.3991859599017857
 51
351.1011813339322885
  0
LINE
  5
10F07
  8
0
 10
534.9523134706298606
 20
74.8679541518614542
 30
0.0
 11
534.9537193800822479
 21
74.9236746853246416
 31
0.0
  0
LINE
  5
10F08
  8
0
 10
534.8434497793369928
 20
74.8768727399800298
 30
0.0
 11
534.842643132490366
 21
74.9248612077293501
 31
0.0
  0
ARC
  5
10F09
  8
0
 10
534.916302724612251
 20
74.8968612667777904
 30
0.0
 40
0.0466869474058104
 50
320.419005359147377
 51
21.7866159502783496
  0
ARC
  5
10F0A
  8
0
 10
534.8954170308013545
 20
74.8805921324146482
 30
0.0
 40
0.0724932431122075
 50
27.6099949166205896
 51
87.3866154799880945
  0
ARC
  5
10F0B
  8
0
 10
534.8972729777474342
 20
74.8859613618533899
 30
0.0
 40
0.0670642826098466
 50
88.7615527761404195
 51
146.613576499753492
  0
ARC
  5
10F0C
  8
0
 10
534.8764938385268124
 20
74.9014825417555699
 30
0.0
 40
0.0412013615210623
 50
148.7353856788840005
 51
216.6771644135943973
  0
ARC
  5
10F0D
  8
0
 10
534.457843510837165
 20
75.1072774317379412
 30
0.0
 40
0.0192984899190496
 50
350.2443165814951271
 51
80.6881126495757144
  0
ARC
  5
10F0E
  8
0
 10
534.4553420624156388
 20
75.1028318202810965
 30
0.0
 40
0.0241536911818787
 50
76.5352679085347631
 51
157.5769223489297133
  0
ARC
  5
10F0F
  8
0
 10
534.4514679194019209
 20
75.10597888142388
 30
0.0
 40
0.0194248467807419
 50
161.80269834699331
 51
258.8376673948166058
  0
ARC
  5
10F10
  8
0
 10
534.4546712469649492
 20
75.1084569509920641
 30
0.0
 40
0.0226333759500226
 50
252.0807007350913977
 51
348.6621193319855934
  0
ARC
  5
10F11
  8
0
 10
534.4554848445992548
 20
75.1074824168509849
 30
0.0
 40
0.0522847693122655
 50
357.6332625071997882
 51
83.6683257017232336
  0
ARC
  5
10F12
  8
0
 10
534.4520352406259462
 20
75.1063907006887916
 30
0.0
 40
0.0538519689245516
 50
80.1463892581744091
 51
170.7120533038581129
  0
ARC
  5
10F13
  8
0
 10
534.4528784716287646
 20
75.1156715204084833
 30
0.0
 40
0.0539924002082997
 50
180.625384000232998
 51
272.5865768972764727
  0
ARC
  5
10F14
  8
0
 10
534.4567562937087359
 20
75.1133036969933556
 30
0.0
 40
0.0515897022303617
 50
268.3991859599017857
 51
351.1011813339322885
  0
LINE
  5
10F15
  8
0
 10
534.5077529789397204
 20
75.1061636164095887
 30
0.0
 11
534.5091588883921077
 21
75.1618841498727761
 31
0.0
  0
LINE
  5
10F16
  8
0
 10
534.3988892876468526
 20
75.1150822045281359
 30
0.0
 11
534.3980826408002258
 21
75.1630706722774562
 31
0.0
  0
ARC
  5
10F17
  8
0
 10
534.4717422329221108
 20
75.1350707313258965
 30
0.0
 40
0.0466869474058104
 50
320.419005359147377
 51
21.7866159502783496
  0
ARC
  5
10F18
  8
0
 10
534.4508565391111006
 20
75.1188015969627827
 30
0.0
 40
0.0724932431122075
 50
27.6099949166205896
 51
87.3866154799880945
  0
ARC
  5
10F19
  8
0
 10
534.4527124860570666
 20
75.124170826401496
 30
0.0
 40
0.0670642826098466
 50
88.7615527761404195
 51
146.613576499753492
  0
ARC
  5
10F1A
  8
0
 10
534.4319333468366722
 20
75.139692006303676
 30
0.0
 40
0.0412013615210623
 50
148.7353856788840005
 51
216.6771644135943973
  0
ARC
  5
10F1B
  8
0
 10
534.9024040025275326
 20
75.3359598740720173
 30
0.0
 40
0.0192984899190496
 50
350.2443165814951271
 51
80.6881126495757144
  0
ARC
  5
10F1C
  8
0
 10
534.8999025541058927
 20
75.331514262615201
 30
0.0
 40
0.0241536911818787
 50
76.5352679085347631
 51
157.5769223489297133
  0
ARC
  5
10F1D
  8
0
 10
534.8960284110919474
 20
75.3346613237579845
 30
0.0
 40
0.0194248467807419
 50
161.80269834699331
 51
258.8376673948166058
  0
ARC
  5
10F1E
  8
0
 10
534.8992317386552031
 20
75.3371393933261686
 30
0.0
 40
0.0226333759500226
 50
252.0807007350913977
 51
348.6621193319855934
  0
ARC
  5
10F1F
  8
0
 10
534.900045336289395
 20
75.3361648591850894
 30
0.0
 40
0.0522847693122655
 50
357.6332625071997882
 51
83.6683257017232336
  0
ARC
  5
10F20
  8
0
 10
534.8965957323160865
 20
75.3350731430228961
 30
0.0
 40
0.0538519689245516
 50
80.1463892581744091
 51
170.7120533038581129
  0
ARC
  5
10F21
  8
0
 10
534.8974389633190185
 20
75.3443539627425736
 30
0.0
 40
0.0539924002082997
 50
180.625384000232998
 51
272.5865768972764727
  0
ARC
  5
10F22
  8
0
 10
534.9013167853987625
 20
75.3419861393274743
 30
0.0
 40
0.0515897022303617
 50
268.3991859599017857
 51
351.1011813339322885
  0
LINE
  5
10F23
  8
0
 10
534.9523134706298606
 20
75.3348460587436648
 30
0.0
 11
534.9537193800822479
 21
75.3905665922068522
 31
0.0
  0
LINE
  5
10F24
  8
0
 10
534.8434497793369928
 20
75.343764646862212
 30
0.0
 11
534.842643132490366
 21
75.3917531146115607
 31
0.0
  0
ARC
  5
10F25
  8
0
 10
534.916302724612251
 20
75.3637531736599726
 30
0.0
 40
0.0466869474058104
 50
320.419005359147377
 51
21.7866159502783496
  0
ARC
  5
10F26
  8
0
 10
534.8954170308013545
 20
75.3474840392968588
 30
0.0
 40
0.0724932431122075
 50
27.6099949166205896
 51
87.3866154799880945
  0
ARC
  5
10F27
  8
0
 10
534.8972729777474342
 20
75.3528532687356005
 30
0.0
 40
0.0670642826098466
 50
88.7615527761404195
 51
146.613576499753492
  0
ARC
  5
10F28
  8
0
 10
534.8764938385268124
 20
75.3683744486377805
 30
0.0
 40
0.0412013615210623
 50
148.7353856788840005
 51
216.6771644135943973
  0
ARC
  5
10F29
  8
0
 10
534.457843510837165
 20
75.5741693386201518
 30
0.0
 40
0.0192984899190496
 50
350.2443165814951271
 51
80.6881126495757144
  0
ARC
  5
10F2A
  8
0
 10
534.4553420624156388
 20
75.5697237271633071
 30
0.0
 40
0.0241536911818787
 50
76.5352679085347631
 51
157.5769223489297133
  0
ARC
  5
10F2B
  8
0
 10
534.4514679194019209
 20
75.5728707883060906
 30
0.0
 40
0.0194248467807419
 50
161.80269834699331
 51
258.8376673948166058
  0
ARC
  5
10F2C
  8
0
 10
534.4546712469649492
 20
75.5753488578742747
 30
0.0
 40
0.0226333759500226
 50
252.0807007350913977
 51
348.6621193319855934
  0
ARC
  5
10F2D
  8
0
 10
534.4554848445992548
 20
75.5743743237331955
 30
0.0
 40
0.0522847693122655
 50
357.6332625071997882
 51
83.6683257017232336
  0
ARC
  5
10F2E
  8
0
 10
534.4520352406259462
 20
75.5732826075710022
 30
0.0
 40
0.0538519689245516
 50
80.1463892581744091
 51
170.7120533038581129
  0
ARC
  5
10F2F
  8
0
 10
534.4528784716287646
 20
75.5825634272906939
 30
0.0
 40
0.0539924002082997
 50
180.625384000232998
 51
272.5865768972764727
  0
ARC
  5
10F30
  8
0
 10
534.4567562937087359
 20
75.5801956038755804
 30
0.0
 40
0.0515897022303617
 50
268.3991859599017857
 51
351.1011813339322885
  0
LINE
  5
10F31
  8
0
 10
534.5077529789397204
 20
75.5730555232917709
 30
0.0
 11
534.5091588883921077
 21
75.6287760567549867
 31
0.0
  0
LINE
  5
10F32
  8
0
 10
534.3988892876468526
 20
75.5819741114103465
 30
0.0
 11
534.3980826408002258
 21
75.6299625791596668
 31
0.0
  0
ARC
  5
10F33
  8
0
 10
534.4717422329221108
 20
75.6019626382080929
 30
0.0
 40
0.0466869474058104
 50
320.419005359147377
 51
21.7866159502783496
  0
ARC
  5
10F34
  8
0
 10
534.4508565391111006
 20
75.5856935038449649
 30
0.0
 40
0.0724932431122075
 50
27.6099949166205896
 51
87.3866154799880945
  0
ARC
  5
10F35
  8
0
 10
534.4527124860570666
 20
75.5910627332837066
 30
0.0
 40
0.0670642826098466
 50
88.7615527761404195
 51
146.613576499753492
  0
ARC
  5
10F36
  8
0
 10
534.4319333468366722
 20
75.6065839131858866
 30
0.0
 40
0.0412013615210623
 50
148.7353856788840005
 51
216.6771644135943973
  0
ARC
  5
10F37
  8
0
 10
534.9024040025275326
 20
75.7938142201811331
 30
0.0
 40
0.0192984899190496
 50
350.2443165814951271
 51
80.6881126495757144
  0
ARC
  5
10F38
  8
0
 10
534.8999025541058927
 20
75.7893686087243168
 30
0.0
 40
0.0241536911818787
 50
76.5352679085347631
 51
157.5769223489297133
  0
ARC
  5
10F39
  8
0
 10
534.8960284110919474
 20
75.7925156698671003
 30
0.0
 40
0.0194248467807419
 50
161.80269834699331
 51
258.8376673948166058
  0
ARC
  5
10F3A
  8
0
 10
534.8992317386552031
 20
75.7949937394352844
 30
0.0
 40
0.0226333759500226
 50
252.0807007350913977
 51
348.6621193319855934
  0
ARC
  5
10F3B
  8
0
 10
534.900045336289395
 20
75.7940192052942052
 30
0.0
 40
0.0522847693122655
 50
357.6332625071997882
 51
83.6683257017232336
  0
ARC
  5
10F3C
  8
0
 10
534.8965957323160865
 20
75.7929274891320119
 30
0.0
 40
0.0538519689245516
 50
80.1463892581744091
 51
170.7120533038581129
  0
ARC
  5
10F3D
  8
0
 10
534.8974389633190185
 20
75.8022083088517036
 30
0.0
 40
0.0539924002082997
 50
180.625384000232998
 51
272.5865768972764727
  0
ARC
  5
10F3E
  8
0
 10
534.9013167853987625
 20
75.7998404854365901
 30
0.0
 40
0.0515897022303617
 50
268.3991859599017857
 51
351.1011813339322885
  0
LINE
  5
10F3F
  8
0
 10
534.9523134706298606
 20
75.7927004048527806
 30
0.0
 11
534.9537193800822479
 21
75.8484209383159538
 31
0.0
  0
LINE
  5
10F40
  8
0
 10
534.8434497793369928
 20
75.8016189929713278
 30
0.0
 11
534.842643132490366
 21
75.8496074607206765
 31
0.0
  0
ARC
  5
10F41
  8
0
 10
534.916302724612251
 20
75.8216075197690884
 30
0.0
 40
0.0466869474058104
 50
320.419005359147377
 51
21.7866159502783496
  0
ARC
  5
10F42
  8
0
 10
534.8954170308013545
 20
75.8053383854059746
 30
0.0
 40
0.0724932431122075
 50
27.6099949166205896
 51
87.3866154799880945
  0
ARC
  5
10F43
  8
0
 10
534.8972729777474342
 20
75.8107076148447163
 30
0.0
 40
0.0670642826098466
 50
88.7615527761404195
 51
146.613576499753492
  0
ARC
  5
10F44
  8
0
 10
534.8764938385268124
 20
75.8262287947468963
 30
0.0
 40
0.0412013615210623
 50
148.7353856788840005
 51
216.6771644135943973
  0
ARC
  5
10F45
  8
0
 10
535.3457715579263549
 20
75.5658749557712781
 30
0.0
 40
0.0192984899190496
 50
350.2443165814951271
 51
80.6881126495757144
  0
ARC
  5
10F46
  8
0
 10
535.343270109504715
 20
75.5614293443144618
 30
0.0
 40
0.0241536911818787
 50
76.5352679085347631
 51
157.5769223489297133
  0
ARC
  5
10F47
  8
0
 10
535.3393959664908834
 20
75.5645764054572453
 30
0.0
 40
0.0194248467807419
 50
161.80269834699331
 51
258.8376673948166058
  0
ARC
  5
10F48
  8
0
 10
535.3425992940541391
 20
75.5670544750254294
 30
0.0
 40
0.0226333759500226
 50
252.0807007350913977
 51
348.6621193319855934
  0
ARC
  5
10F49
  8
0
 10
535.343412891688331
 20
75.5660799408843502
 30
0.0
 40
0.0522847693122655
 50
357.6332625071997882
 51
83.6683257017232336
  0
ARC
  5
10F4A
  8
0
 10
535.3399632877151362
 20
75.5649882247221569
 30
0.0
 40
0.0538519689245516
 50
80.1463892581744091
 51
170.7120533038581129
  0
ARC
  5
10F4B
  8
0
 10
535.3408065187179545
 20
75.5742690444418344
 30
0.0
 40
0.0539924002082997
 50
180.625384000232998
 51
272.5865768972764727
  0
ARC
  5
10F4C
  8
0
 10
535.3446843407978122
 20
75.5719012210267351
 30
0.0
 40
0.0515897022303617
 50
268.3991859599017857
 51
351.1011813339322885
  0
LINE
  5
10F4D
  8
0
 10
535.3956810260287966
 20
75.5647611404429256
 30
0.0
 11
535.3970869354810702
 21
75.620481673906113
 31
0.0
  0
LINE
  5
10F4E
  8
0
 10
535.2868173347359289
 20
75.5736797285614728
 30
0.0
 11
535.2860106878893021
 21
75.6216681963108215
 31
0.0
  0
ARC
  5
10F4F
  8
0
 10
535.3596702800110734
 20
75.5936682553592334
 30
0.0
 40
0.0466869474058104
 50
320.419005359147377
 51
21.7866159502783496
  0
ARC
  5
10F50
  8
0
 10
535.3387845862000631
 20
75.5773991209961196
 30
0.0
 40
0.0724932431122075
 50
27.6099949166205896
 51
87.3866154799880945
  0
ARC
  5
10F51
  8
0
 10
535.3406405331463702
 20
75.5827683504348613
 30
0.0
 40
0.0670642826098466
 50
88.7615527761404195
 51
146.613576499753492
  0
ARC
  5
10F52
  8
0
 10
535.3198613939257484
 20
75.5982895303370412
 30
0.0
 40
0.0412013615210623
 50
148.7353856788840005
 51
216.6771644135943973
  0
ARC
  5
10F53
  8
0
 10
535.3464019986265612
 20
76.0205754725720624
 30
0.0
 40
0.0192984899190496
 50
350.2443165814951271
 51
80.6881126495757144
  0
ARC
  5
10F54
  8
0
 10
535.343900550205035
 20
76.0161298611152461
 30
0.0
 40
0.0241536911818787
 50
76.5352679085347631
 51
157.5769223489297133
  0
ARC
  5
10F55
  8
0
 10
535.3400264071912034
 20
76.0192769222580296
 30
0.0
 40
0.0194248467807419
 50
161.80269834699331
 51
258.8376673948166058
  0
ARC
  5
10F56
  8
0
 10
535.3432297347543454
 20
76.0217549918262137
 30
0.0
 40
0.0226333759500226
 50
252.0807007350913977
 51
348.6621193319855934
  0
ARC
  5
10F57
  8
0
 10
535.3440433323886509
 20
76.0207804576851345
 30
0.0
 40
0.0522847693122655
 50
357.6332625071997882
 51
83.6683257017232336
  0
ARC
  5
10F58
  8
0
 10
535.3405937284153424
 20
76.0196887415229412
 30
0.0
 40
0.0538519689245516
 50
80.1463892581744091
 51
170.7120533038581129
  0
ARC
  5
10F59
  8
0
 10
535.3414369594180471
 20
76.0289695612426328
 30
0.0
 40
0.0539924002082997
 50
180.625384000232998
 51
272.5865768972764727
  0
ARC
  5
10F5A
  8
0
 10
535.3453147814980184
 20
76.0266017378275052
 30
0.0
 40
0.0515897022303617
 50
268.3991859599017857
 51
351.1011813339322885
  0
LINE
  5
10F5B
  8
0
 10
535.3963114667290029
 20
76.0194616572436956
 30
0.0
 11
535.3977173761813901
 21
76.0751821907068972
 31
0.0
  0
LINE
  5
10F5C
  8
0
 10
535.2874477754362488
 20
76.0283802453622855
 30
0.0
 11
535.286641128589622
 21
76.0763687131116058
 31
0.0
  0
ARC
  5
10F5D
  8
0
 10
535.360300720711507
 20
76.0483687721600461
 30
0.0
 40
0.0466869474058104
 50
320.419005359147377
 51
21.7866159502783496
  0
ARC
  5
10F5E
  8
0
 10
535.3394150269004967
 20
76.0320996377969038
 30
0.0
 40
0.0724932431122075
 50
27.6099949166205896
 51
87.3866154799880945
  0
ARC
  5
10F5F
  8
0
 10
535.3412709738464628
 20
76.0374688672356456
 30
0.0
 40
0.0670642826098466
 50
88.7615527761404195
 51
146.613576499753492
  0
ARC
  5
10F60
  8
0
 10
535.3204918346259547
 20
76.0529900471378255
 30
0.0
 40
0.0412013615210623
 50
148.7353856788840005
 51
216.6771644135943973
  0
ARC
  5
10F61
  8
0
 10
535.3458300984927973
 20
73.3070776140534406
 30
0.0
 40
0.0201111964834572
 50
358.1936767116688998
 51
95.6852527123070757
  0
ARC
  5
10F62
  8
0
 10
535.3431456137598161
 20
73.304841297370757
 30
0.0
 40
0.0222593534004068
 50
88.2179923327679489
 51
170.4731942620788914
  0
ARC
  5
10F63
  8
0
 10
535.3439514190120008
 20
73.3106603315319205
 30
0.0
 40
0.022858080891165
 50
185.359150587955213
 51
269.7152287973416946
  0
ARC
  5
10F64
  8
0
 10
535.3450261811071869
 20
73.3088072532687534
 30
0.0
 40
0.0210383102902863
 50
266.7618650140822183
 51
353.5494422035275193
  0
ARC
  5
10F65
  8
0
 10
535.3417763956248336
 20
73.2979549258382548
 30
0.0
 40
0.0781015297921497
 50
9.3422463410056267
 51
88.4875573863873655
  0
ARC
  5
10F66
  8
0
 10
535.342901344467009
 20
73.3017439547941763
 30
0.0
 40
0.0742911940381561
 50
89.2777479896246149
 51
173.8925737958246884
  0
ARC
  5
10F67
  8
0
 10
535.3405485184863437
 20
73.3203407361328345
 30
0.0
 40
0.0723116391904934
 50
188.5035101262978117
 51
272.6071542130865737
  0
ARC
  5
10F68
  8
0
 10
535.3490623465012277
 20
73.3180856896640591
 30
0.0
 40
0.0701764925088872
 50
265.7304636468629724
 51
353.9039482170599058
  0
LINE
  5
10F69
  8
0
 10
535.4188420094969842
 20
73.3106332583140841
 30
0.0
 11
535.4170227162004494
 21
73.370798123511122
 31
0.0
  0
LINE
  5
10F6A
  8
0
 10
535.2690318151579731
 20
73.3096480139600715
 30
0.0
 11
535.2680118074581515
 21
73.369760909959723
 31
0.0
  0
ARC
  5
10F6B
  8
0
 10
535.3748494069766366
 20
73.3394129283691143
 30
0.0
 40
0.0525701292085178
 50
326.8075533795977776
 51
36.6564641726198914
  0
ARC
  5
10F6C
  8
0
 10
535.3393630279891795
 20
73.304072951922052
 30
0.0
 40
0.1023878688940399
 50
40.6691578682213475
 51
87.4951345724837921
  0
ARC
  5
10F6D
  8
0
 10
535.3399249048129604
 20
73.3176262995548313
 30
0.0
 40
0.0888229203147584
 50
87.4751387416815618
 51
144.0591337738476909
  0
ARC
  5
10F6E
  8
0
 10
535.3146437563138988
 20
73.3404870683915249
 30
0.0
 40
0.0550590270005809
 50
147.8808925358235058
 51
214.0633334873600973
  0
ARC
  5
10F6F
  8
0
 10
534.9017094566271453
 20
73.529715674754982
 30
0.0
 40
0.0201111964834572
 50
358.1936767116688998
 51
95.6852527123070757
  0
ARC
  5
10F70
  8
0
 10
534.8990249718941641
 20
73.5274793580722843
 30
0.0
 40
0.0222593534004068
 50
88.2179923327679489
 51
170.4731942620788914
  0
ARC
  5
10F71
  8
0
 10
534.8998307771463487
 20
73.533298392233462
 30
0.0
 40
0.022858080891165
 50
185.359150587955213
 51
269.7152287973416946
  0
ARC
  5
10F72
  8
0
 10
534.9009055392416485
 20
73.5314453139703232
 30
0.0
 40
0.0210383102902863
 50
266.7618650140822183
 51
353.5494422035275193
  0
ARC
  5
10F73
  8
0
 10
534.8976557537590679
 20
73.5205929865398247
 30
0.0
 40
0.0781015297921497
 50
9.3422463410056267
 51
88.4875573863873655
  0
ARC
  5
10F74
  8
0
 10
534.8987807026012433
 20
73.5243820154957035
 30
0.0
 40
0.0742911940381561
 50
89.2777479896246149
 51
173.8925737958246884
  0
ARC
  5
10F75
  8
0
 10
534.8964278766206917
 20
73.542978796834376
 30
0.0
 40
0.0723116391904934
 50
188.5035101262978117
 51
272.6071542130865737
  0
ARC
  5
10F76
  8
0
 10
534.904941704635462
 20
73.5407237503656006
 30
0.0
 40
0.0701764925088872
 50
265.7304636468629724
 51
353.9039482170599058
  0
LINE
  5
10F77
  8
0
 10
534.9747213676314459
 20
73.5332713190156539
 30
0.0
 11
534.972902074334911
 21
73.5934361842126634
 31
0.0
  0
LINE
  5
10F78
  8
0
 10
534.8249111732924348
 20
73.5322860746616129
 30
0.0
 11
534.8238911655923857
 21
73.5923989706612929
 31
0.0
  0
ARC
  5
10F79
  8
0
 10
534.9307287651108709
 20
73.5620509890706842
 30
0.0
 40
0.0525701292085178
 50
326.8075533795977776
 51
36.6564641726198914
  0
ARC
  5
10F7A
  8
0
 10
534.8952423861236412
 20
73.5267110126235934
 30
0.0
 40
0.1023878688940399
 50
40.6691578682213475
 51
87.4951345724837921
  0
ARC
  5
10F7B
  8
0
 10
534.8958042629471947
 20
73.5402643602564012
 30
0.0
 40
0.0888229203147584
 50
87.4751387416815618
 51
144.0591337738476909
  0
ARC
  5
10F7C
  8
0
 10
534.8705231144482468
 20
73.5631251290930948
 30
0.0
 40
0.0550590270005809
 50
147.8808925358235058
 51
214.0633334873600973
  0
ARC
  5
10F7D
  8
0
 10
534.4571600229998012
 20
73.7633677775108936
 30
0.0
 40
0.0201111964834572
 50
358.1936767116688998
 51
95.6852527123070757
  0
ARC
  5
10F7E
  8
0
 10
534.4544755382667063
 20
73.7611314608281816
 30
0.0
 40
0.0222593534004068
 50
88.2179923327679489
 51
170.4731942620788914
  0
ARC
  5
10F7F
  8
0
 10
534.4552813435187772
 20
73.7669504949893735
 30
0.0
 40
0.022858080891165
 50
185.359150587955213
 51
269.7152287973416946
  0
ARC
  5
10F80
  8
0
 10
534.456356105614077
 20
73.7650974167262063
 30
0.0
 40
0.0210383102902863
 50
266.7618650140822183
 51
353.5494422035275193
  0
ARC
  5
10F81
  8
0
 10
534.4531063201316101
 20
73.754245089295722
 30
0.0
 40
0.0781015297921497
 50
9.3422463410056267
 51
88.4875573863873655
  0
ARC
  5
10F82
  8
0
 10
534.4542312689737855
 20
73.7580341182516293
 30
0.0
 40
0.0742911940381561
 50
89.2777479896246149
 51
173.8925737958246884
  0
ARC
  5
10F83
  8
0
 10
534.4518784429933476
 20
73.7766308995902733
 30
0.0
 40
0.0723116391904934
 50
188.5035101262978117
 51
272.6071542130865737
  0
ARC
  5
10F84
  8
0
 10
534.4603922710081179
 20
73.7743758531215121
 30
0.0
 40
0.0701764925088872
 50
265.7304636468629724
 51
353.9039482170599058
  0
LINE
  5
10F85
  8
0
 10
534.5301719340039881
 20
73.7669234217715371
 30
0.0
 11
534.5283526407074532
 21
73.8270882869685749
 31
0.0
  0
LINE
  5
10F86
  8
0
 10
534.3803617396648633
 20
73.765938177417496
 30
0.0
 11
534.3793417319650416
 21
73.826051073417176
 31
0.0
  0
ARC
  5
10F87
  8
0
 10
534.4861793314835268
 20
73.7957030918265673
 30
0.0
 40
0.0525701292085178
 50
326.8075533795977776
 51
36.6564641726198914
  0
ARC
  5
10F88
  8
0
 10
534.4506929524960697
 20
73.760363115379505
 30
0.0
 40
0.1023878688940399
 50
40.6691578682213475
 51
87.4951345724837921
  0
ARC
  5
10F89
  8
0
 10
534.4512548293198506
 20
73.7739164630122843
 30
0.0
 40
0.0888229203147584
 50
87.4751387416815618
 51
144.0591337738476909
  0
ARC
  5
10F8A
  8
0
 10
534.425973680820789
 20
73.7967772318489637
 30
0.0
 40
0.0550590270005809
 50
147.8808925358235058
 51
214.0633334873600973
  0
ARC
  5
10F8B
  8
0
 10
534.0098030940621356
 20
74.4481354666734632
 30
0.0
 40
0.0201111964834572
 50
358.1936767116688998
 51
95.6852527123070757
  0
ARC
  5
10F8C
  8
0
 10
534.0071186093291544
 20
74.4458991499907938
 30
0.0
 40
0.0222593534004068
 50
88.2179923327679489
 51
170.4731942620788914
  0
ARC
  5
10F8D
  8
0
 10
534.0079244145813391
 20
74.4517181841519573
 30
0.0
 40
0.022858080891165
 50
185.359150587955213
 51
269.7152287973416946
  0
ARC
  5
10F8E
  8
0
 10
534.0089991766766389
 20
74.4498651058888186
 30
0.0
 40
0.0210383102902863
 50
266.7618650140822183
 51
353.5494422035275193
  0
ARC
  5
10F8F
  8
0
 10
534.0057493911940583
 20
74.4390127784583342
 30
0.0
 40
0.0781015297921497
 50
9.3422463410056267
 51
88.4875573863873655
  0
ARC
  5
10F90
  8
0
 10
534.0068743400363473
 20
74.442801807414213
 30
0.0
 40
0.0742911940381561
 50
89.2777479896246149
 51
173.8925737958246884
  0
ARC
  5
10F91
  8
0
 10
534.0045215140555683
 20
74.4613985887528713
 30
0.0
 40
0.0723116391904934
 50
188.5035101262978117
 51
272.6071542130865737
  0
ARC
  5
10F92
  8
0
 10
534.0130353420704523
 20
74.4591435422840959
 30
0.0
 40
0.0701764925088872
 50
265.7304636468629724
 51
353.9039482170599058
  0
LINE
  5
10F93
  8
0
 10
534.0828150050664362
 20
74.4516911109341493
 30
0.0
 11
534.0809957117699014
 21
74.5118559761311587
 31
0.0
  0
LINE
  5
10F94
  8
0
 10
533.9330048107274251
 20
74.4507058665801082
 30
0.0
 11
533.9319848030274898
 21
74.5108187625797882
 31
0.0
  0
ARC
  5
10F95
  8
0
 10
534.0388224025458612
 20
74.4804707809891795
 30
0.0
 40
0.0525701292085178
 50
326.8075533795977776
 51
36.6564641726198914
  0
ARC
  5
10F96
  8
0
 10
534.0033360235586315
 20
74.4451308045420888
 30
0.0
 40
0.1023878688940399
 50
40.6691578682213475
 51
87.4951345724837921
  0
ARC
  5
10F97
  8
0
 10
534.0038979003821851
 20
74.4586841521748966
 30
0.0
 40
0.0888229203147584
 50
87.4751387416815618
 51
144.0591337738476909
  0
ARC
  5
10F98
  8
0
 10
533.9786167518832372
 20
74.4815449210115901
 30
0.0
 40
0.0550590270005809
 50
147.8808925358235058
 51
214.0633334873600973
  0
ARC
  5
10F99
  8
0
 10
534.0119244710929252
 20
74.8989305351034318
 30
0.0
 40
0.0201111964834572
 50
358.1936767116688998
 51
95.6852527123070757
  0
ARC
  5
10F9A
  8
0
 10
534.0092399863598303
 20
74.8966942184207483
 30
0.0
 40
0.0222593534004068
 50
88.2179923327679489
 51
170.4731942620788914
  0
ARC
  5
10F9B
  8
0
 10
534.0100457916120149
 20
74.9025132525819117
 30
0.0
 40
0.022858080891165
 50
185.359150587955213
 51
269.7152287973416946
  0
ARC
  5
10F9C
  8
0
 10
534.011120553707201
 20
74.900660174318773
 30
0.0
 40
0.0210383102902863
 50
266.7618650140822183
 51
353.5494422035275193
  0
ARC
  5
10F9D
  8
0
 10
534.0078707682248478
 20
74.8898078468882602
 30
0.0
 40
0.0781015297921497
 50
9.3422463410056267
 51
88.4875573863873655
  0
ARC
  5
10F9E
  8
0
 10
534.0089957170670232
 20
74.8935968758441675
 30
0.0
 40
0.0742911940381561
 50
89.2777479896246149
 51
173.8925737958246884
  0
ARC
  5
10F9F
  8
0
 10
534.0066428910862442
 20
74.9121936571828257
 30
0.0
 40
0.0723116391904934
 50
188.5035101262978117
 51
272.6071542130865737
  0
ARC
  5
10FA0
  8
0
 10
534.0151567191012418
 20
74.9099386107140504
 30
0.0
 40
0.0701764925088872
 50
265.7304636468629724
 51
353.9039482170599058
  0
LINE
  5
10FA1
  8
0
 10
534.0849363820971121
 20
74.9024861793640753
 30
0.0
 11
534.0831170888004635
 21
74.9626510445611132
 31
0.0
  0
LINE
  5
10FA2
  8
0
 10
533.9351261877579873
 20
74.9015009350100627
 30
0.0
 11
533.9341061800580519
 21
74.9616138310097426
 31
0.0
  0
ARC
  5
10FA3
  8
0
 10
534.0409437795766507
 20
74.9312658494191339
 30
0.0
 40
0.0525701292085178
 50
326.8075533795977776
 51
36.6564641726198914
  0
ARC
  5
10FA4
  8
0
 10
534.0054574005891936
 20
74.8959258729720432
 30
0.0
 40
0.1023878688940399
 50
40.6691578682213475
 51
87.4951345724837921
  0
ARC
  5
10FA5
  8
0
 10
534.0060192774129746
 20
74.909479220604851
 30
0.0
 40
0.0888229203147584
 50
87.4751387416815618
 51
144.0591337738476909
  0
ARC
  5
10FA6
  8
0
 10
533.980738128913913
 20
74.9323399894415445
 30
0.0
 40
0.0550590270005809
 50
147.8808925358235058
 51
214.0633334873600973
  0
ARC
  5
10FA7
  8
0
 10
534.0186576722928748
 20
75.3603976279534322
 30
0.0
 40
0.0201111964834572
 50
358.1936767116688998
 51
95.6852527123070757
  0
ARC
  5
10FA8
  8
0
 10
534.0159731875598936
 20
75.3581613112707487
 30
0.0
 40
0.0222593534004068
 50
88.2179923327679489
 51
170.4731942620788914
  0
ARC
  5
10FA9
  8
0
 10
534.0167789928120783
 20
75.3639803454319122
 30
0.0
 40
0.022858080891165
 50
185.359150587955213
 51
269.7152287973416946
  0
ARC
  5
10FAA
  8
0
 10
534.0178537549071507
 20
75.3621272671687734
 30
0.0
 40
0.0210383102902863
 50
266.7618650140822183
 51
353.5494422035275193
  0
ARC
  5
10FAB
  8
0
 10
534.0146039694246838
 20
75.3512749397382606
 30
0.0
 40
0.0781015297921497
 50
9.3422463410056267
 51
88.4875573863873655
  0
ARC
  5
10FAC
  8
0
 10
534.0157289182670866
 20
75.3550639686941679
 30
0.0
 40
0.0742911940381561
 50
89.2777479896246149
 51
173.8925737958246884
  0
ARC
  5
10FAD
  8
0
 10
534.0133760922864212
 20
75.3736607500328262
 30
0.0
 40
0.0723116391904934
 50
188.5035101262978117
 51
272.6071542130865737
  0
ARC
  5
10FAE
  8
0
 10
534.0218899203010778
 20
75.3714057035640508
 30
0.0
 40
0.0701764925088872
 50
265.7304636468629724
 51
353.9039482170599058
  0
LINE
  5
10FAF
  8
0
 10
534.0916695832969481
 20
75.3639532722140757
 30
0.0
 11
534.0898502900006406
 21
75.4241181374111136
 31
0.0
  0
LINE
  5
10FB0
  8
0
 10
533.9418593889581643
 20
75.3629680278600631
 30
0.0
 11
533.9408393812581153
 21
75.4230809238597431
 31
0.0
  0
ARC
  5
10FB1
  8
0
 10
534.0476769807764867
 20
75.3927329422691344
 30
0.0
 40
0.0525701292085178
 50
326.8075533795977776
 51
36.6564641726198914
  0
ARC
  5
10FB2
  8
0
 10
534.012190601789257
 20
75.3573929658220436
 30
0.0
 40
0.1023878688940399
 50
40.6691578682213475
 51
87.4951345724837921
  0
ARC
  5
10FB3
  8
0
 10
534.012752478613038
 20
75.3709463134548514
 30
0.0
 40
0.0888229203147584
 50
87.4751387416815618
 51
144.0591337738476909
  0
ARC
  5
10FB4
  8
0
 10
533.9874713301138627
 20
75.3938070822915449
 30
0.0
 40
0.0550590270005809
 50
147.8808925358235058
 51
214.0633334873600973
  0
ARC
  5
10FB5
  8
0
 10
534.4584720679928296
 20
76.0450299229534323
 30
0.0
 40
0.0201111964834572
 50
358.1936767116688998
 51
95.6852527123070757
  0
ARC
  5
10FB6
  8
0
 10
534.4557875832598484
 20
76.0427936062707346
 30
0.0
 40
0.0222593534004068
 50
88.2179923327679489
 51
170.4731942620788914
  0
ARC
  5
10FB7
  8
0
 10
534.456593388512033
 20
76.0486126404319123
 30
0.0
 40
0.022858080891165
 50
185.359150587955213
 51
269.7152287973416946
  0
ARC
  5
10FB8
  8
0
 10
534.4576681506073328
 20
76.0467595621687735
 30
0.0
 40
0.0210383102902863
 50
266.7618650140822183
 51
353.5494422035275193
  0
ARC
  5
10FB9
  8
0
 10
534.4544183651247522
 20
76.0359072347382607
 30
0.0
 40
0.0781015297921497
 50
9.3422463410056267
 51
88.4875573863873655
  0
ARC
  5
10FBA
  8
0
 10
534.4555433139670413
 20
76.0396962636941538
 30
0.0
 40
0.0742911940381561
 50
89.2777479896246149
 51
173.8925737958246884
  0
ARC
  5
10FBB
  8
0
 10
534.453190487986376
 20
76.0582930450328263
 30
0.0
 40
0.0723116391904934
 50
188.5035101262978117
 51
272.6071542130865737
  0
ARC
  5
10FBC
  8
0
 10
534.4617043160011463
 20
76.0560379985640509
 30
0.0
 40
0.0701764925088872
 50
265.7304636468629724
 51
353.9039482170599058
  0
LINE
  5
10FBD
  8
0
 10
534.5314839789971302
 20
76.0485855672140758
 30
0.0
 11
534.5296646857005953
 21
76.1087504324111137
 31
0.0
  0
LINE
  5
10FBE
  8
0
 10
534.3816737846581191
 20
76.0476003228600632
 30
0.0
 11
534.3806537769579563
 21
76.1077132188597432
 31
0.0
  0
ARC
  5
10FBF
  8
0
 10
534.4874913764765552
 20
76.0773652372691345
 30
0.0
 40
0.0525701292085178
 50
326.8075533795977776
 51
36.6564641726198914
  0
ARC
  5
10FC0
  8
0
 10
534.4520049974893254
 20
76.0420252608220437
 30
0.0
 40
0.1023878688940399
 50
40.6691578682213475
 51
87.4951345724837921
  0
ARC
  5
10FC1
  8
0
 10
534.4525668743129927
 20
76.0555786084548515
 30
0.0
 40
0.0888229203147584
 50
87.4751387416815618
 51
144.0591337738476909
  0
ARC
  5
10FC2
  8
0
 10
534.4272857258139311
 20
76.078439377291545
 30
0.0
 40
0.0550590270005809
 50
147.8808925358235058
 51
214.0633334873600973
  0
ARC
  5
10FC3
  8
0
 10
534.90108299939277
 20
76.2680940232534397
 30
0.0
 40
0.0201111964834572
 50
358.1936767116688998
 51
95.6852527123070757
  0
ARC
  5
10FC4
  8
0
 10
534.8983985146596751
 20
76.2658577065707561
 30
0.0
 40
0.0222593534004068
 50
88.2179923327679489
 51
170.4731942620788914
  0
ARC
  5
10FC5
  8
0
 10
534.8992043199119735
 20
76.2716767407319054
 30
0.0
 40
0.022858080891165
 50
185.359150587955213
 51
269.7152287973416946
  0
ARC
  5
10FC6
  8
0
 10
534.9002790820072732
 20
76.2698236624687809
 30
0.0
 40
0.0210383102902863
 50
266.7618650140822183
 51
353.5494422035275193
  0
ARC
  5
10FC7
  8
0
 10
534.8970292965248063
 20
76.2589713350382539
 30
0.0
 40
0.0781015297921497
 50
9.3422463410056267
 51
88.4875573863873655
  0
ARC
  5
10FC8
  8
0
 10
534.8981542453669817
 20
76.2627603639941753
 30
0.0
 40
0.0742911940381561
 50
89.2777479896246149
 51
173.8925737958246884
  0
ARC
  5
10FC9
  8
0
 10
534.8958014193863164
 20
76.2813571453328336
 30
0.0
 40
0.0723116391904934
 50
188.5035101262978117
 51
272.6071542130865737
  0
ARC
  5
10FCA
  8
0
 10
534.9043152474012004
 20
76.2791020988640582
 30
0.0
 40
0.0701764925088872
 50
265.7304636468629724
 51
353.9039482170599058
  0
LINE
  5
10FCB
  8
0
 10
534.9740949103970706
 20
76.2716496675140831
 30
0.0
 11
534.9722756171006495
 21
76.331814532711121
 31
0.0
  0
LINE
  5
10FCC
  8
0
 10
534.8242847160580595
 20
76.2706644231600706
 30
0.0
 11
534.8232647083581242
 21
76.3307773191597505
 31
0.0
  0
ARC
  5
10FCD
  8
0
 10
534.9301023078766093
 20
76.3004293375691418
 30
0.0
 40
0.0525701292085178
 50
326.8075533795977776
 51
36.6564641726198914
  0
ARC
  5
10FCE
  8
0
 10
534.8946159288892659
 20
76.2650893611220511
 30
0.0
 40
0.1023878688940399
 50
40.6691578682213475
 51
87.4951345724837921
  0
ARC
  5
10FCF
  8
0
 10
534.8951778057130468
 20
76.2786427087548304
 30
0.0
 40
0.0888229203147584
 50
87.4751387416815618
 51
144.0591337738476909
  0
ARC
  5
10FD0
  8
0
 10
534.8698966572139852
 20
76.3015034775915524
 30
0.0
 40
0.0550590270005809
 50
147.8808925358235058
 51
214.0633334873600973
  0
ARC
  5
10FD1
  8
0
 10
535.348740239142785
 20
76.5013741938534508
 30
0.0
 40
0.0201111964834572
 50
358.1936767116688998
 51
95.6852527123070757
  0
ARC
  5
10FD2
  8
0
 10
535.3460557544098037
 20
76.4991378771707389
 30
0.0
 40
0.0222593534004068
 50
88.2179923327679489
 51
170.4731942620788914
  0
ARC
  5
10FD3
  8
0
 10
535.3468615596619884
 20
76.5049569113319023
 30
0.0
 40
0.022858080891165
 50
185.359150587955213
 51
269.7152287973416946
  0
ARC
  5
10FD4
  8
0
 10
535.3479363217571745
 20
76.5031038330687636
 30
0.0
 40
0.0210383102902863
 50
266.7618650140822183
 51
353.5494422035275193
  0
ARC
  5
10FD5
  8
0
 10
535.3453357328256743
 20
76.5105952986902196
 30
0.0
 40
0.0733808322219834
 50
0.0
 51
91.1696596281900042
  0
ARC
  5
10FD6
  8
0
 10
535.3404237750156653
 20
76.5125659924420347
 30
0.0
 40
0.0714764297252481
 50
87.262254531508006
 51
180.4702595767641071
  0
ARC
  5
10FD7
  8
0
 10
535.3447156407316925
 20
76.5184118160129856
 30
0.0
 40
0.0760384533703567
 50
184.8527304431985954
 51
271.5315496877830128
  0
ARC
  5
10FD8
  8
0
 10
535.3465696609496263
 20
76.5146617178443336
 30
0.0
 40
0.0722614111104802
 50
270.141365607005298
 51
356.7740486098181236
  0
LINE
  5
10FD9
  8
0
 10
535.418716565047589
 20
76.5105952986902196
 30
0.0
 11
535.4200687494579824
 21
76.5733227708597326
 31
0.0
  0
LINE
  5
10FDA
  8
0
 10
535.2689497527579761
 20
76.5119793506600558
 30
0.0
 11
535.2669301381580453
 21
76.5731944432597231
 31
0.0
  0
ARC
  5
10FDB
  8
0
 10
535.3628675211933796
 20
76.5431775185609524
 30
0.0
 40
0.0646584623319817
 50
329.740798938393425
 51
27.7893912585485694
  0
ARC
  5
10FDC
  8
0
 10
535.3437539399028537
 20
76.5325682154739013
 30
0.0
 40
0.0865152237594968
 50
28.1036465524781889
 51
89.9444557425063067
  0
ARC
  5
10FDD
  8
0
 10
535.3416232833968706
 20
76.5354035895413034
 30
0.0
 40
0.0837091068548046
 50
88.4840615535042616
 51
153.1629579152163103
  0
ARC
  5
10FDE
  8
0
 10
535.341595021397552
 20
76.5450169327631897
 30
0.0
 40
0.0798048675642774
 50
159.3241761540191135
 51
204.4550694771893973
  0
LINE
  5
10FDF
  8
0
 10
535.2549331600210962
 20
75.036986891403302
 30
0.0
 11
535.2548640408989513
 21
75.1642239940789523
 31
0.0
  0
LINE
  5
10FE0
  8
0
 10
535.2451246411580996
 20
75.0638656475597372
 30
0.0
 11
535.2451246411580996
 21
75.1537389268875415
 31
0.0
  0
ARC
  5
10FE1
  8
0
 10
535.2553216063109858
 20
75.1530160590871645
 30
0.0
 40
0.0102225552671106
 50
116.2807086466936966
 51
175.9450580007676024
  0
LINE
  5
10FE2
  8
0
 10
535.2507953724581284
 20
75.1621819656597268
 30
0.0
 11
535.3371528501580769
 21
75.2055240138597298
 31
0.0
  0
LINE
  5
10FE3
  8
0
 10
535.3438378103580817
 20
74.9905096043712547
 30
0.0
 11
535.2549331600210962
 21
75.036986891403302
 31
0.0
  0
LINE
  5
10FE4
  8
0
 10
535.3438378103580817
 20
75.1753518184999621
 30
0.0
 11
535.2548826161531679
 21
75.1300299612686899
 31
0.0
  0
ARC
  5
10FE5
  8
0
 10
535.2553216063109858
 20
75.0645885153601
 30
0.0
 40
0.0102225552671106
 50
184.0549419992323976
 51
267.7693194683612887
  0
ARC
  5
10FE6
  8
0
 10
535.3450944120869508
 20
75.0766113995118758
 30
0.0
 40
0.0260821343565964
 50
354.8316461022272961
 51
92.7615016905783989
  0
ARC
  5
10FE7
  8
0
 10
535.3421625510344484
 20
75.0768592999454825
 30
0.0
 40
0.0258582695715078
 50
86.2854219048100362
 51
180.8046734183446063
  0
ARC
  5
10FE8
  8
0
 10
535.3426237086214314
 20
75.0797909263155532
 30
0.0
 40
0.0265223217029157
 50
187.1360848933418879
 51
272.6237229131830873
  0
ARC
  5
10FE9
  8
0
 10
535.3451020832964105
 20
75.0798236380361459
 30
0.0
 40
0.0265573403068198
 50
267.271379921147286
 51
347.9113163104635191
  0
LINE
  5
10FEA
  8
0
 10
535.4327424606949535
 20
75.036986891403302
 30
0.0
 11
535.4328115798172121
 21
75.1642239940789523
 31
0.0
  0
LINE
  5
10FEB
  8
0
 10
535.4425509795579501
 20
75.0638656475597372
 30
0.0
 11
535.4425509795579501
 21
75.1537389268875415
 31
0.0
  0
ARC
  5
10FEC
  8
0
 10
535.4323540144049502
 20
75.1530160590871645
 30
0.0
 40
0.0102225552671106
 50
4.0549419992324127
 51
63.7192913533063106
  0
LINE
  5
10FED
  8
0
 10
535.4368802482581486
 20
75.1621819656597268
 30
0.0
 11
535.3505227705579728
 21
75.2055240138597298
 31
0.0
  0
LINE
  5
10FEE
  8
0
 10
535.3438378103580817
 20
74.9905096043712547
 30
0.0
 11
535.4327424606949535
 21
75.036986891403302
 31
0.0
  0
LINE
  5
10FEF
  8
0
 10
535.3438378103580817
 20
75.1753518184999621
 30
0.0
 11
535.4327930045629955
 21
75.1300299612686899
 31
0.0
  0
ARC
  5
10FF0
  8
0
 10
535.4323540144049502
 20
75.0645885153601
 30
0.0
 40
0.0102225552671106
 50
272.230680531635528
 51
355.9450580007667782
  0
ARC
  5
10FF1
  8
0
 10
535.3438378103580817
 20
75.1924485028130931
 30
0.0
 40
0.0146852879442696
 50
62.921245250726237
 51
117.0787547492736991
  0
LINE
  5
10FF2
  8
0
 10
535.2549331600210962
 20
74.8057173435672098
 30
0.0
 11
535.2548640408989513
 21
74.9329544462428601
 31
0.0
  0
LINE
  5
10FF3
  8
0
 10
535.2451246411580996
 20
74.832596099723645
 30
0.0
 11
535.2451246411580996
 21
74.9224693790514635
 31
0.0
  0
ARC
  5
10FF4
  8
0
 10
535.2553216063109858
 20
74.921746511251115
 30
0.0
 40
0.0102225552671106
 50
116.2807086466936966
 51
175.9450580007676024
  0
LINE
  5
10FF5
  8
0
 10
535.2507953724581284
 20
74.930912417823663
 30
0.0
 11
535.3371528501580769
 21
74.9742544660236661
 31
0.0
  0
LINE
  5
10FF6
  8
0
 10
535.3438378103580817
 20
74.7592400565351625
 30
0.0
 11
535.2549331600210962
 21
74.8057173435672098
 31
0.0
  0
LINE
  5
10FF7
  8
0
 10
535.3438378103580817
 20
74.9440822706638556
 30
0.0
 11
535.2548826161531679
 21
74.8987604134325977
 31
0.0
  0
ARC
  5
10FF8
  8
0
 10
535.2553216063109858
 20
74.8333189675239936
 30
0.0
 40
0.0102225552671106
 50
184.0549419992323976
 51
267.7693194683612887
  0
ARC
  5
10FF9
  8
0
 10
535.3450944120869508
 20
74.8453418516757836
 30
0.0
 40
0.0260821343565964
 50
354.8316461022272961
 51
92.7615016905783989
  0
ARC
  5
10FFA
  8
0
 10
535.3421625510344484
 20
74.8455897521093902
 30
0.0
 40
0.0258582695715078
 50
86.2854219048100362
 51
180.8046734183446063
  0
ARC
  5
10FFB
  8
0
 10
535.3426237086214314
 20
74.848521378479461
 30
0.0
 40
0.0265223217029157
 50
187.1360848933418879
 51
272.6237229131830873
  0
ARC
  5
10FFC
  8
0
 10
535.3451020832964105
 20
74.8485540902000821
 30
0.0
 40
0.0265573403068198
 50
267.271379921147286
 51
347.9113163104635191
  0
LINE
  5
10FFD
  8
0
 10
535.4327424606949535
 20
74.8057173435672098
 30
0.0
 11
535.4328115798172121
 21
74.9329544462428601
 31
0.0
  0
LINE
  5
10FFE
  8
0
 10
535.4425509795579501
 20
74.832596099723645
 30
0.0
 11
535.4425509795579501
 21
74.9224693790514635
 31
0.0
  0
ARC
  5
10FFF
  8
0
 10
535.4323540144049502
 20
74.921746511251115
 30
0.0
 40
0.0102225552671106
 50
4.0549419992324127
 51
63.7192913533063106
  0
LINE
  5
11000
  8
0
 10
535.4368802482581486
 20
74.930912417823663
 30
0.0
 11
535.3505227705579728
 21
74.9742544660236661
 31
0.0
  0
LINE
  5
11001
  8
0
 10
535.3438378103580817
 20
74.7592400565351625
 30
0.0
 11
535.4327424606949535
 21
74.8057173435672098
 31
0.0
  0
LINE
  5
11002
  8
0
 10
535.3438378103580817
 20
74.9440822706638556
 30
0.0
 11
535.4327930045629955
 21
74.8987604134325977
 31
0.0
  0
ARC
  5
11003
  8
0
 10
535.4323540144049502
 20
74.8333189675239936
 30
0.0
 40
0.0102225552671106
 50
272.230680531635528
 51
355.9450580007667782
  0
ARC
  5
11004
  8
0
 10
535.3438378103580817
 20
74.9611789549770151
 30
0.0
 40
0.0146852879442696
 50
62.921245250726237
 51
117.0787547492736991
  0
LINE
  5
11005
  8
0
 10
535.2549331600210962
 20
74.579792730756111
 30
0.0
 11
535.2548640408989513
 21
74.7070298334317613
 31
0.0
  0
LINE
  5
11006
  8
0
 10
535.2451246411580996
 20
74.6066714869125462
 30
0.0
 11
535.2451246411580996
 21
74.6965447662403506
 31
0.0
  0
ARC
  5
11007
  8
0
 10
535.2553216063109858
 20
74.6958218984399878
 30
0.0
 40
0.0102225552671106
 50
116.2807086466936966
 51
175.9450580007676024
  0
LINE
  5
11008
  8
0
 10
535.2507953724581284
 20
74.7049878050125358
 30
0.0
 11
535.3371528501580769
 21
74.7483298532125389
 31
0.0
  0
LINE
  5
11009
  8
0
 10
535.3438378103580817
 20
74.5333154437240637
 30
0.0
 11
535.2549331600210962
 21
74.579792730756111
 31
0.0
  0
LINE
  5
1100A
  8
0
 10
535.3438378103580817
 20
74.7181576578527711
 30
0.0
 11
535.2548826161531679
 21
74.6728358006214989
 31
0.0
  0
ARC
  5
1100B
  8
0
 10
535.2553216063109858
 20
74.607394354712909
 30
0.0
 40
0.0102225552671106
 50
184.0549419992323976
 51
267.7693194683612887
  0
ARC
  5
1100C
  8
0
 10
535.3450944120869508
 20
74.6194172388646848
 30
0.0
 40
0.0260821343565964
 50
354.8316461022272961
 51
92.7615016905783989
  0
ARC
  5
1100D
  8
0
 10
535.3421625510344484
 20
74.6196651392982915
 30
0.0
 40
0.0258582695715078
 50
86.2854219048100362
 51
180.8046734183446063
  0
ARC
  5
1100E
  8
0
 10
535.3426237086214314
 20
74.6225967656683622
 30
0.0
 40
0.0265223217029157
 50
187.1360848933418879
 51
272.6237229131830873
  0
ARC
  5
1100F
  8
0
 10
535.3451020832964105
 20
74.6226294773889549
 30
0.0
 40
0.0265573403068198
 50
267.271379921147286
 51
347.9113163104635191
  0
LINE
  5
11010
  8
0
 10
535.4327424606949535
 20
74.579792730756111
 30
0.0
 11
535.4328115798172121
 21
74.7070298334317613
 31
0.0
  0
LINE
  5
11011
  8
0
 10
535.4425509795579501
 20
74.6066714869125462
 30
0.0
 11
535.4425509795579501
 21
74.6965447662403506
 31
0.0
  0
ARC
  5
11012
  8
0
 10
535.4323540144049502
 20
74.6958218984399878
 30
0.0
 40
0.0102225552671106
 50
4.0549419992324127
 51
63.7192913533063106
  0
LINE
  5
11013
  8
0
 10
535.4368802482581486
 20
74.7049878050125358
 30
0.0
 11
535.3505227705579728
 21
74.7483298532125389
 31
0.0
  0
LINE
  5
11014
  8
0
 10
535.3438378103580817
 20
74.5333154437240637
 30
0.0
 11
535.4327424606949535
 21
74.579792730756111
 31
0.0
  0
LINE
  5
11015
  8
0
 10
535.3438378103580817
 20
74.7181576578527711
 30
0.0
 11
535.4327930045629955
 21
74.6728358006214989
 31
0.0
  0
ARC
  5
11016
  8
0
 10
535.4323540144049502
 20
74.607394354712909
 30
0.0
 40
0.0102225552671106
 50
272.230680531635528
 51
355.9450580007667782
  0
ARC
  5
11017
  8
0
 10
535.3438378103580817
 20
74.7352543421659163
 30
0.0
 40
0.0146852879442696
 50
62.921245250726237
 51
117.0787547492736991
  0
LINE
  5
11018
  8
0
 10
535.4770107261210796
 20
74.4649597958917866
 30
0.0
 11
535.4769416069989347
 21
74.5921968985674368
 31
0.0
  0
LINE
  5
11019
  8
0
 10
535.4672022072579693
 20
74.4918385520482218
 30
0.0
 11
535.4672022072579693
 21
74.5817118313760545
 31
0.0
  0
ARC
  5
1101A
  8
0
 10
535.4773991724111966
 20
74.5809889635756917
 30
0.0
 40
0.0102225552671106
 50
116.2807086466936966
 51
175.9450580007676024
  0
LINE
  5
1101B
  8
0
 10
535.4728729385579982
 20
74.5901548701482255
 30
0.0
 11
535.5592304162580604
 21
74.6334969183482428
 31
0.0
  0
LINE
  5
1101C
  8
0
 10
535.5659153764579514
 20
74.4184825088597393
 30
0.0
 11
535.4770107261210796
 21
74.4649597958917866
 31
0.0
  0
LINE
  5
1101D
  8
0
 10
535.5659153764579514
 20
74.6033247229884466
 30
0.0
 11
535.4769601822531513
 21
74.5580028657571745
 31
0.0
  0
ARC
  5
1101E
  8
0
 10
535.4773991724111966
 20
74.4925614198485846
 30
0.0
 40
0.0102225552671106
 50
184.0549419992323976
 51
267.7693194683612887
  0
ARC
  5
1101F
  8
0
 10
535.5671719781869342
 20
74.5045843040003604
 30
0.0
 40
0.0260821343565964
 50
354.8316461022272961
 51
92.7615016905783989
  0
ARC
  5
11020
  8
0
 10
535.5642401171345455
 20
74.504832204433967
 30
0.0
 40
0.0258582695715078
 50
86.2854219048100362
 51
180.8046734183446063
  0
ARC
  5
11021
  8
0
 10
535.5647012747214148
 20
74.5077638308040378
 30
0.0
 40
0.0265223217029157
 50
187.1360848933418879
 51
272.6237229131830873
  0
ARC
  5
11022
  8
0
 10
535.5671796493963939
 20
74.5077965425246589
 30
0.0
 40
0.0265573403068198
 50
267.271379921147286
 51
347.9113163104635191
  0
LINE
  5
11023
  8
0
 10
535.6548200267950506
 20
74.4649597958917866
 30
0.0
 11
535.6548891459171955
 21
74.5921968985674368
 31
0.0
  0
LINE
  5
11024
  8
0
 10
535.6646285456580472
 20
74.4918385520482218
 30
0.0
 11
535.6646285456580472
 21
74.5817118313760545
 31
0.0
  0
ARC
  5
11025
  8
0
 10
535.6544315805050474
 20
74.5809889635756917
 30
0.0
 40
0.0102225552671106
 50
4.0549419992324127
 51
63.7192913533063106
  0
LINE
  5
11026
  8
0
 10
535.6589578143581321
 20
74.5901548701482255
 30
0.0
 11
535.5726003366579562
 21
74.6334969183482428
 31
0.0
  0
LINE
  5
11027
  8
0
 10
535.5659153764579514
 20
74.4184825088597393
 30
0.0
 11
535.6548200267950506
 21
74.4649597958917866
 31
0.0
  0
LINE
  5
11028
  8
0
 10
535.5659153764579514
 20
74.6033247229884466
 30
0.0
 11
535.6548705706629789
 21
74.5580028657571745
 31
0.0
  0
ARC
  5
11029
  8
0
 10
535.6544315805050474
 20
74.4925614198485846
 30
0.0
 40
0.0102225552671106
 50
272.230680531635528
 51
355.9450580007667782
  0
ARC
  5
1102A
  8
0
 10
535.5659153764579514
 20
74.6204214073015919
 30
0.0
 40
0.0146852879442696
 50
62.921245250726237
 51
117.0787547492736991
  0
LINE
  5
1102B
  8
0
 10
535.4770107261210796
 20
75.1494888244131118
 30
0.0
 11
535.4769416069989347
 21
75.2767259270887621
 31
0.0
  0
LINE
  5
1102C
  8
0
 10
535.4672022072579693
 20
75.176367580569547
 30
0.0
 11
535.4672022072579693
 21
75.2662408598973514
 31
0.0
  0
ARC
  5
1102D
  8
0
 10
535.4773991724111966
 20
75.2655179920969744
 30
0.0
 40
0.0102225552671106
 50
116.2807086466936966
 51
175.9450580007676024
  0
LINE
  5
1102E
  8
0
 10
535.4728729385579982
 20
75.2746838986695366
 30
0.0
 11
535.5592304162580604
 21
75.3180259468695397
 31
0.0
  0
LINE
  5
1102F
  8
0
 10
535.5659153764579514
 20
75.1030115373810645
 30
0.0
 11
535.4770107261210796
 21
75.1494888244131118
 31
0.0
  0
LINE
  5
11030
  8
0
 10
535.5659153764579514
 20
75.2878537515097719
 30
0.0
 11
535.4769601822531513
 21
75.2425318942784997
 31
0.0
  0
ARC
  5
11031
  8
0
 10
535.4773991724111966
 20
75.1770904483698956
 30
0.0
 40
0.0102225552671106
 50
184.0549419992323976
 51
267.7693194683612887
  0
ARC
  5
11032
  8
0
 10
535.5671719781869342
 20
75.1891133325216856
 30
0.0
 40
0.0260821343565964
 50
354.8316461022272961
 51
92.7615016905783989
  0
ARC
  5
11033
  8
0
 10
535.5642401171345455
 20
75.1893612329552923
 30
0.0
 40
0.0258582695715078
 50
86.2854219048100362
 51
180.8046734183446063
  0
ARC
  5
11034
  8
0
 10
535.5647012747214148
 20
75.192292859325363
 30
0.0
 40
0.0265223217029157
 50
187.1360848933418879
 51
272.6237229131830873
  0
ARC
  5
11035
  8
0
 10
535.5671796493963939
 20
75.1923255710459557
 30
0.0
 40
0.0265573403068198
 50
267.271379921147286
 51
347.9113163104635191
  0
LINE
  5
11036
  8
0
 10
535.6548200267950506
 20
75.1494888244131118
 30
0.0
 11
535.6548891459171955
 21
75.2767259270887621
 31
0.0
  0
LINE
  5
11037
  8
0
 10
535.6646285456580472
 20
75.176367580569547
 30
0.0
 11
535.6646285456580472
 21
75.2662408598973514
 31
0.0
  0
ARC
  5
11038
  8
0
 10
535.6544315805050474
 20
75.2655179920969744
 30
0.0
 40
0.0102225552671106
 50
4.0549419992324127
 51
63.7192913533063106
  0
LINE
  5
11039
  8
0
 10
535.6589578143581321
 20
75.2746838986695366
 30
0.0
 11
535.5726003366579562
 21
75.3180259468695397
 31
0.0
  0
LINE
  5
1103A
  8
0
 10
535.5659153764579514
 20
75.1030115373810645
 30
0.0
 11
535.6548200267950506
 21
75.1494888244131118
 31
0.0
  0
LINE
  5
1103B
  8
0
 10
535.5659153764579514
 20
75.2878537515097719
 30
0.0
 11
535.6548705706629789
 21
75.2425318942784997
 31
0.0
  0
ARC
  5
1103C
  8
0
 10
535.6544315805050474
 20
75.1770904483698956
 30
0.0
 40
0.0102225552671106
 50
272.230680531635528
 51
355.9450580007676876
  0
ARC
  5
1103D
  8
0
 10
535.5659153764579514
 20
75.3049504358229029
 30
0.0
 40
0.0146852879442696
 50
62.921245250726237
 51
117.0787547492736991
  0
LINE
  5
1103E
  8
0
 10
533.7373275725733492
 20
75.2051755648362246
 30
0.0
 11
533.9616153500700193
 21
75.3231652182738571
 31
0.0
  0
LINE
  5
1103F
  8
0
 10
534.1001430132440646
 20
75.3960395904392726
 30
0.0
 11
534.4054971903227624
 21
75.5566753323035982
 31
0.0
  0
LINE
  5
11040
  8
0
 10
534.5165446348194109
 20
75.6150933595252042
 30
0.0
 11
534.8453339432228404
 21
75.7880574727975613
 31
0.0
  0
LINE
  5
11041
  8
0
 10
534.9554446106565138
 20
75.8459826956308518
 30
0.0
 11
535.2880433377049485
 21
76.0209508056913421
 31
0.0
  0
LINE
  5
11042
  8
0
 10
535.3958142660486601
 20
76.077645176770659
 30
0.0
 11
535.7357383235168982
 21
76.2564668771032927
 31
0.0
  0
LINE
  5
11043
  8
0
 10
533.7347196357192161
 20
74.7446490095824743
 30
0.0
 11
533.9574380229653343
 21
74.8592044685156566
 31
0.0
  0
LINE
  5
11044
  8
0
 10
534.0934722668506538
 20
74.9291738384972064
 30
0.0
 11
534.4055481270180508
 21
75.0896904165197157
 31
0.0
  0
LINE
  5
11045
  8
0
 10
534.5168901328113407
 20
75.1469593054062557
 30
0.0
 11
534.8501181428413247
 21
75.3183555160666032
 31
0.0
  0
LINE
  5
11046
  8
0
 10
534.9614557786280784
 20
75.3756221572353411
 30
0.0
 11
535.294308858846307
 21
75.5468255223152454
 31
0.0
  0
LINE
  5
11047
  8
0
 10
535.4052274939014069
 20
75.6038766499751489
 30
0.0
 11
535.7369534905328692
 21
75.7745002983144502
 31
0.0
  0
LINE
  5
11048
  8
0
 10
535.0753488501550237
 20
76.6824986228852481
 30
0.0
 11
535.2684048244366295
 21
76.5759778651099339
 31
0.0
  0
LINE
  5
11049
  8
0
 10
534.6047369271707339
 20
76.4634786048390538
 30
0.0
 11
534.8290355895735502
 21
76.3379277694143354
 31
0.0
  0
LINE
  5
1104A
  8
0
 10
534.9713309447791971
 20
76.2582781605768929
 30
0.0
 11
535.2895473031080655
 21
76.0801570375794824
 31
0.0
  0
LINE
  5
1104B
  8
0
 10
535.3963266248085802
 20
76.0203874745246537
 30
0.0
 11
535.396334712214184
 21
76.0203829476116084
 31
0.0
  0
LINE
  5
1104C
  8
0
 10
535.3972715150956674
 20
76.0198585736222867
 30
0.0
 11
535.7339222874587676
 21
75.8314188153830457
 31
0.0
  0
LINE
  5
1104D
  8
0
 10
534.2464973288157353
 20
76.1884122482211836
 30
0.0
 11
534.3836069302095666
 21
76.1115610814487837
 31
0.0
  0
LINE
  5
1104E
  8
0
 10
534.5272751084241918
 20
76.031033773283724
 30
0.0
 11
534.8451248029573435
 21
75.8528761560579028
 31
0.0
  0
LINE
  5
1104F
  8
0
 10
534.9528163274618464
 20
75.7925140864032585
 30
0.0
 11
535.2800956932557028
 21
75.6090710534860335
 31
0.0
  0
LINE
  5
11050
  8
0
 10
535.3900934482560388
 20
75.547416320862169
 30
0.0
 11
535.689688525958104
 21
75.3794905808221642
 31
0.0
  0
LINE
  5
11051
  8
0
 10
533.9858832216100382
 20
75.8779738074335057
 30
0.0
 11
534.3976688381579834
 21
75.6293748048529437
 31
0.0
  0
LINE
  5
11052
  8
0
 10
534.5068924940611623
 20
75.5680358838775703
 30
0.0
 11
534.8377016485859485
 21
75.3822567463864459
 31
0.0
  0
LINE
  5
11053
  8
0
 10
534.9481061174873275
 20
75.3202546925523393
 30
0.0
 11
535.2451246411580996
 21
75.1534520379350113
 31
0.0
  0
LINE
  5
11054
  8
0
 10
533.8262906630644693
 20
74.3863619041107142
 30
0.0
 11
533.9362040392655899
 21
74.437698466375025
 31
0.0
  0
LINE
  5
11055
  8
0
 10
534.0842874978004602
 20
74.50686289341877
 30
0.0
 11
534.3999887311830435
 21
74.6543155200656656
 31
0.0
  0
LINE
  5
11056
  8
0
 10
534.5096335162230616
 20
74.7055266331140331
 30
0.0
 11
534.845579852933497
 21
74.8624350152244915
 31
0.0
  0
LINE
  5
11057
  8
0
 10
534.9590014389858652
 20
74.9154101354122872
 30
0.0
 11
535.2549241217323015
 21
75.0536249164817946
 31
0.0
  0
LINE
  5
11058
  8
0
 10
533.8026294892868009
 20
75.488031078557313
 30
0.0
 11
533.9364366087944518
 21
75.414469939647006
 31
0.0
  0
LINE
  5
11059
  8
0
 10
534.0816601252853388
 20
75.3346325789075735
 30
0.0
 11
534.3968872869530742
 21
75.16133485668567
 31
0.0
  0
LINE
  5
1105A
  8
0
 10
534.5068309073582213
 20
75.1008927967812383
 30
0.0
 11
534.8388977402373712
 21
74.9183373803667223
 31
0.0
  0
LINE
  5
1105B
  8
0
 10
534.949771368295842
 20
74.8573840440637071
 30
0.0
 11
535.2451246411580996
 21
74.6950120924621217
 31
0.0
  0
LINE
  5
1105C
  8
0
 10
534.0108504266924001
 20
74.0177246906689845
 30
0.0
 11
534.4006666521520401
 21
74.1999112303889632
 31
0.0
  0
LINE
  5
1105D
  8
0
 10
534.5130890507713275
 20
74.2524535476496652
 30
0.0
 11
534.8458443632117678
 21
74.4079718021181549
 31
0.0
  0
LINE
  5
1105E
  8
0
 10
534.958646136736661
 20
74.4606914260090207
 30
0.0
 11
535.2519162508767749
 21
74.5977556727202966
 31
0.0
  0
LINE
  5
1105F
  8
0
 10
533.7217068379649163
 20
75.0335861947035738
 30
0.0
 11
533.925806798665235
 21
74.9285922686191839
 31
0.0
  0
LINE
  5
11060
  8
0
 10
534.0625954421958568
 20
74.858224902164153
 30
0.0
 11
534.3920929198668546
 21
74.6887234789552963
 31
0.0
  0
LINE
  5
11061
  8
0
 10
534.5029886113276234
 20
74.6316760694782886
 30
0.0
 11
534.8388124938768442
 21
74.4589201915213437
 31
0.0
  0
LINE
  5
11062
  8
0
 10
534.9509774562546909
 20
74.4012198385729135
 30
0.0
 11
535.2821365209043734
 21
74.2308636550797871
 31
0.0
  0
LINE
  5
11063
  8
0
 10
535.3943037428313119
 20
74.1731621397650542
 30
0.0
 11
535.7292406587710047
 21
74.0008625387536654
 31
0.0
  0
LINE
  5
11064
  8
0
 10
533.7735326680925709
 20
74.5524665194438398
 30
0.0
 11
533.9237555396083508
 21
74.4768818917402768
 31
0.0
  0
LINE
  5
11065
  8
0
 10
534.0609374886605565
 20
74.4078588032975858
 30
0.0
 11
534.3917960552523709
 21
74.2413873377608411
 31
0.0
  0
LINE
  5
11066
  8
0
 10
534.5032766892829841
 20
74.1852958642433578
 30
0.0
 11
534.843341392759271
 21
74.014192331552124
 31
0.0
  0
LINE
  5
11067
  8
0
 10
534.8616138229575654
 20
74.0049985595263706
 30
0.0
 11
535.2859578132859042
 21
73.7914899093218537
 31
0.0
  0
LINE
  5
11068
  8
0
 10
535.3970093267944321
 20
73.7356143477661732
 30
0.0
 11
535.7301679137950714
 21
73.5679856271153483
 31
0.0
  0
LINE
  5
11069
  8
0
 10
534.0106536682651495
 20
74.018028830064992
 30
0.0
 11
534.3804379239375066
 21
73.8275306130596505
 31
0.0
  0
LINE
  5
1106A
  8
0
 10
534.5269276815498642
 20
73.7520648862022767
 30
0.0
 11
534.8276031183963823
 21
73.5971687981781599
 31
0.0
  0
LINE
  5
1106B
  8
0
 10
534.9726906010116636
 20
73.5224254679145304
 30
0.0
 11
535.2682909850617534
 21
73.3701438462828719
 31
0.0
  0
LINE
  5
1106C
  8
0
 10
535.4151519562296926
 20
73.2944868848898068
 30
0.0
 11
535.7284395528956793
 21
73.1330935111610358
 31
0.0
  0
LINE
  5
1106D
  8
0
 10
534.0067446858986386
 20
75.9099863928918239
 30
0.0
 11
534.392713543930995
 21
76.0186507393464126
 31
0.0
  0
LINE
  5
1106E
  8
0
 10
534.5361100139235759
 20
76.0973614013460917
 30
0.0
 11
534.8275894204247152
 21
76.2573551379152832
 31
0.0
  0
LINE
  5
1106F
  8
0
 10
534.9692929978157281
 20
76.335136567156411
 30
0.0
 11
535.2707863138546145
 21
76.5006269623879405
 31
0.0
  0
LINE
  5
11070
  8
0
 10
534.2803851694618515
 20
73.6896590448835838
 30
0.0
 11
534.388661852253108
 21
73.741521985941489
 31
0.0
  0
LINE
  5
11071
  8
0
 10
534.5361111141120318
 20
73.8121480171394637
 30
0.0
 11
534.8549105997972219
 21
73.9648482893418731
 31
0.0
  0
LINE
  5
11072
  8
0
 10
534.8819654689145864
 20
73.9778071743593557
 30
0.0
 11
535.2911099471931493
 21
74.1737813713345133
 31
0.0
  0
LINE
  5
11073
  8
0
 10
535.4044198142229334
 20
74.2280551337324255
 30
0.0
 11
535.6991681345282359
 21
74.3692352508994361
 31
0.0
  0
LINE
  5
11074
  8
0
 10
534.6235335597619951
 20
73.4266041729561749
 30
0.0
 11
534.8273196693647833
 21
73.5216943223915962
 31
0.0
  0
LINE
  5
11075
  8
0
 10
534.9748989376466852
 20
73.5905573803391917
 30
0.0
 11
535.288055966730667
 21
73.736681906443323
 31
0.0
  0
LINE
  5
11076
  8
0
 10
535.3994842987599441
 20
73.7886763076547254
 30
0.0
 11
535.7338513385667511
 21
73.9446977943177899
 31
0.0
  0
LINE
  5
11077
  8
0
 10
535.0943930062402387
 20
73.2178390228636147
 30
0.0
 11
535.2710797227367721
 21
73.3002643923539239
 31
0.0
  0
LINE
  5
11078
  8
0
 10
535.418331529564739
 20
73.3689582071837378
 30
0.0
 11
535.7302318592123811
 21
73.5144615049138679
 31
0.0
  0
LINE
  5
11079
  8
0
 10
534.0042936830025155
 20
75.4593655418503886
 30
0.0
 11
533.9703612148244929
 21
75.853088315971064
 31
0.0
  0
LINE
  5
1107A
  8
0
 10
534.0110842019581696
 20
75.30138544027119
 30
0.0
 11
534.008320952895474
 21
74.9982723141606868
 31
0.0
  0
LINE
  5
1107B
  8
0
 10
534.0099500264400376
 20
74.5473048260081725
 30
0.0
 11
534.0101376873031995
 21
74.839941829211881
 31
0.0
  0
LINE
  5
1107C
  8
0
 10
534.0073464007223265
 20
74.3891421483635611
 30
0.0
 11
533.9958117482174202
 21
74.0413507710021292
 31
0.0
  0
LINE
  5
1107D
  8
0
 10
535.4159172638827613
 20
76.5802896845869725
 30
0.0
 11
535.788400697858151
 21
76.7847467236869647
 31
0.0
  0
ARC
  5
1107E
  8
0
 10
535.788400697858151
 20
74.8681754376144113
 30
0.0
 40
1.9465028992468121
 50
70.113689385928609
 51
109.8863106140714052
  0
LINE
  5
1107F
  8
0
 10
535.4159769012408105
 20
76.4945533481730706
 30
0.0
 11
535.737860843817657
 21
76.3169503415497843
 31
0.0
  0
ARC
  5
11080
  8
0
 10
529.0918591884692432
 20
41.7924349245457094
 30
0.0
 40
6.4145982763747353
 50
180.0001173950211921
 51
0.4461767014120611
  0
ARC
  5
11081
  8
0
 10
529.0893005778286806
 20
41.7400590127334823
 30
0.0
 40
6.9831021312065209
 50
179.5703637562926076
 51
0.8396188113848873
  0
LINE
  5
11082
  8
0
 10
535.3594373559079713
 20
67.7323560228851136
 30
0.0
 11
535.3594373559079713
 21
66.4921820382851365
 31
0.0
  0
LINE
  5
11083
  8
0
 10
535.3594373559079713
 20
66.4921767064851252
 30
0.0
 11
535.3594373559079713
 21
67.7323560228851136
 31
0.0
  0
ARC
  5
11084
  8
0
 10
535.3117795821652862
 20
67.8969578866553576
 30
0.0
 40
0.0299861940714213
 50
180.8845635261127995
 51
269.4726723388944833
  0
ARC
  5
11085
  8
0
 10
535.4025745404079544
 20
67.8472879231851351
 30
0.0
 40
0.0196850393999988
 50
359.9999999999951115
 51
89.9999999998957776
  0
ARC
  5
11086
  8
0
 10
535.6386402242080749
 20
66.5891997818296062
 30
0.0
 40
1.4373720346678931
 50
104.3751044217977011
 51
126.907153311528802
  0
ARC
  5
11087
  8
0
 10
535.2464041208255594
 20
67.7539373077757716
 30
0.0
 40
0.0671793937990389
 50
59.4128443440740881
 51
88.3243914541680368
  0
ARC
  5
11088
  8
0
 10
535.2078167809329443
 20
67.693663678252463
 30
0.0
 40
0.1387248265762837
 50
40.0877724731037688
 51
58.360414518977997
  0
LINE
  5
11089
  8
0
 10
535.3139494367080715
 20
67.7829969692851364
 30
0.0
 11
535.3594373559079713
 21
67.7323560228851136
 31
0.0
  0
LINE
  5
1108A
  8
0
 10
535.3594373559079713
 20
67.6885172498851375
 30
0.0
 11
535.2793123467765781
 21
67.6885172470306458
 31
0.0
  0
LINE
  5
1108B
  8
0
 10
535.2793123467765781
 20
67.6885172470306458
 30
0.0
 11
535.2793142430081161
 21
67.5232256961851363
 31
0.0
  0
LINE
  5
1108C
  8
0
 10
535.2793142430081161
 20
67.5232256961851363
 30
0.0
 11
535.2109496087221032
 21
67.6447885625540692
 31
0.0
  0
LINE
  5
1108D
  8
0
 10
535.1822720016079984
 20
67.8210879755851295
 30
0.0
 11
535.4222595798081556
 21
67.8210879755851295
 31
0.0
  0
LINE
  5
1108E
  8
0
 10
535.4222595798081556
 20
67.8197288680851216
 30
0.0
 11
535.4222595798081556
 21
67.8472879231851351
 31
0.0
  0
ARC
  5
1108F
  8
0
 10
535.1822720016079984
 20
67.8014029361851129
 30
0.0
 40
0.0196850394000023
 50
90.0000000000032543
 51
179.9999999999845102
  0
LINE
  5
11090
  8
0
 10
535.1625869622081382
 20
67.8014029361851129
 30
0.0
 11
535.1625869622081382
 21
67.774506114785126
 31
0.0
  0
ARC
  5
11091
  8
0
 10
535.1508627943057945
 20
67.7540719859874798
 30
0.0
 40
0.0394570299943239
 50
90.126123758474364
 51
179.873876241519099
  0
LINE
  5
11092
  8
0
 10
535.1507759386081489
 20
67.7935289203851283
 30
0.0
 11
535.1625869622081382
 21
67.7935289204851301
 31
0.0
  0
LINE
  5
11093
  8
0
 10
535.1114058599081318
 20
67.7541588416851255
 30
0.0
 11
535.1114058599081318
 21
66.391954117285124
 31
0.0
  0
ARC
  5
11094
  8
0
 10
535.1507759386081489
 20
66.391954117285124
 30
0.0
 40
0.0393700786999958
 50
179.9999999999917861
 51
270.0000000000032969
  0
ARC
  5
11095
  8
0
 10
535.1543644398642527
 20
66.3475022461860817
 30
0.0
 40
0.1110017404861685
 50
279.528822238484679
 51
333.3814927780446737
  0
ARC
  5
11096
  8
0
 10
535.3038383772584439
 20
66.501851439372075
 30
0.0
 40
0.0564344476656323
 50
319.2809901043902983
 51
350.1288464325460836
  0
ARC
  5
11097
  8
0
 10
535.5097388674765853
 20
66.359412773450515
 30
0.0
 40
0.1943374379977889
 50
147.0773384625466917
 51
166.6376358127315882
  0
ARC
  5
11098
  8
0
 10
535.3551345133728319
 20
66.3944254265944238
 30
0.0
 40
0.0358655129576229
 50
163.975773260966605
 51
234.6115205711384135
  0
ARC
  5
11099
  8
0
 10
535.3750729703582465
 20
66.4338270351368294
 30
0.0
 40
0.0798045121678417
 50
239.329080672962391
 51
265.2802545041494113
  0
ARC
  5
1109A
  8
0
 10
535.3976963476090987
 20
66.6022327146343116
 30
0.0
 40
0.2496519246977454
 50
263.2854935580580218
 51
269.7077045816135978
  0
ARC
  5
1109B
  8
0
 10
535.3792196954783549
 20
67.548133500050497
 30
0.0
 40
1.1956732245380901
 50
270.824386110594105
 51
275.9365363015303956
  0
LINE
  5
1109C
  8
0
 10
535.1507759386081489
 20
66.3525840385851211
 30
0.0
 11
535.3964227494858505
 21
66.3525840385851353
 31
0.0
  0
ARC
  5
1109D
  8
0
 10
536.3174527240638554
 20
65.9088563616272438
 30
0.0
 40
1.1327103555628999
 50
158.2784026755105913
 51
159.9191260611233929
  0
ARC
  5
1109E
  8
0
 10
535.1634696042199266
 20
66.334624169891498
 30
0.0
 40
0.1019140126882171
 50
356.3121687532042188
 51
10.1499944286225894
  0
ARC
  5
1109F
  8
0
 10
535.1153428677081365
 20
67.3762060857851139
 30
0.0
 40
0.0118110236000141
 50
109.4712208060032026
 51
180.0000698549256981
  0
LINE
  5
110A0
  8
0
 10
535.1035318441081472
 20
67.376206071385127
 30
0.0
 11
535.1035318441081472
 21
66.7699068731851355
 31
0.0
  0
ARC
  5
110A1
  8
0
 10
535.1153428677081365
 20
66.7699068731851213
 30
0.0
 40
0.0118110235999929
 50
179.9999999999828901
 51
250.5287797085512977
  0
LINE
  5
110A2
  8
0
 10
535.1035318441081472
 20
67.2381603814851303
 30
0.0
 11
535.1024186113185124
 21
67.2344492627244961
 31
0.0
  0
LINE
  5
110A3
  8
0
 10
535.1024186113185124
 20
67.2344492627244961
 30
0.0
 11
535.1022500801079786
 21
67.2305367944851326
 31
0.0
  0
ARC
  5
110A4
  8
0
 10
551.8193307937606278
 20
67.0732757919497971
 30
0.0
 40
16.7178245223248112
 50
179.4610222729835982
 51
180.5404804358244064
  0
LINE
  5
110A5
  8
0
 10
535.1022478271762566
 20
66.9155761117771846
 30
0.0
 11
535.1024186113081669
 21
66.9116636964851352
 31
0.0
  0
LINE
  5
110A6
  8
0
 10
535.1024186113081669
 20
66.9116636964851352
 30
0.0
 11
535.1035318441081472
 21
66.9079525775851351
 31
0.0
  0
ARC
  5
110A7
  8
0
 10
542.4416234441760025
 20
67.5516639097636755
 30
0.0
 40
7.3421488858866617
 50
177.9357315398837045
 51
178.8205165501508134
  0
ARC
  5
110A8
  8
0
 10
541.8281345650576668
 20
67.5394912209627591
 30
0.0
 40
6.7290862558631801
 50
178.6093663354967873
 51
179.2878512702210969
  0
ARC
  5
110A9
  8
0
 10
654.4249811560214312
 20
67.095195574239952
 30
0.0
 40
119.3265809288513992
 50
179.7465078551499005
 51
180.0243756787565985
  0
ARC
  5
110AA
  8
0
 10
619.947299421408843
 20
66.9959551473921096
 30
0.0
 40
84.8489022423463837
 50
179.9672666189304948
 51
180.3580439388692014
  0
ARC
  5
110AB
  8
0
 10
525.132164483072188
 20
66.1540085767965707
 30
0.0
 40
9.9727624851647718
 50
0.7565653942576378
 51
1.791224583010866
  0
ARC
  5
110AC
  8
0
 10
535.1940157821287585
 20
66.2954706388057957
 30
0.0
 40
0.0904882908994188
 50
186.2046492185845921
 51
219.4023777995284092
  0
ARC
  5
110AD
  8
0
 10
535.1532240580105508
 20
67.7820303434567535
 30
0.0
 40
0.0596859696150754
 50
119.4000753454092063
 51
145.1558507463842034
  0
ARC
  5
110AE
  8
0
 10
535.697409029537539
 20
66.0432312744426753
 30
0.0
 40
1.880383775534731
 50
102.5716937024359936
 51
107.7571552111843971
  0
LINE
  5
110AF
  8
0
 10
535.1240948254079512
 20
66.2380320576851318
 30
0.0
 11
535.1727400819080458
 21
66.2380320576851318
 31
0.0
  0
ARC
  5
110B0
  8
0
 10
534.8605891798896437
 20
67.7308139735281998
 30
0.0
 40
0.1169937164014968
 50
209.6238051303195107
 51
253.1552854294830013
  0
ARC
  5
110B1
  8
0
 10
534.7359969999955638
 20
67.1572804034466913
 30
0.0
 40
0.4703848897162027
 50
71.9680954677039324
 51
78.8838063726707048
  0
ARC
  5
110B2
  8
0
 10
534.8024515965076944
 20
67.0716950242434535
 30
0.0
 40
0.5387134387151937
 50
73.6384012545984916
 51
81.5511310179055755
  0
ARC
  5
110B3
  8
0
 10
534.7027321274996439
 20
67.6643418851882643
 30
0.0
 40
0.0568140532496348
 50
8.7482853324489227
 51
28.5016191737401989
  0
ARC
  5
110B4
  8
0
 10
534.8126617294005882
 20
67.6914526191023498
 30
0.0
 40
0.0600012057925514
 50
128.3057889536486869
 51
179.9999997299705967
  0
ARC
  5
110B5
  8
0
 10
543.9604885122483893
 20
68.0486666926646109
 30
0.0
 40
9.2147543734240571
 50
182.2216531825650918
 51
184.3033315785598916
  0
ARC
  5
110B6
  8
0
 10
538.7972034062255489
 20
67.5688591723444034
 30
0.0
 40
4.031050276826206
 50
183.0095143216771874
 51
195.5731284011677928
  0
ARC
  5
110B7
  8
0
 10
536.1409900452918009
 20
66.8216762347675513
 30
0.0
 40
1.2717728659040211
 50
195.2737878428841043
 51
218.6516608605853094
  0
ARC
  5
110B8
  8
0
 10
535.6731893365397355
 20
66.4779192215066104
 30
0.0
 40
0.6921418077464943
 50
220.6156940318394959
 51
255.7578350364065045
  0
ARC
  5
110B9
  8
0
 10
523.7190192486698379
 20
67.0470109102704441
 30
0.0
 40
11.2482327053487001
 50
0.8654246583383812
 51
2.75975112647073
  0
ARC
  5
110BA
  8
0
 10
-803.6424291772124207
 20
-0.9304110531243595
 30
0.0
 40
1340.3419338992171106
 50
2.8720629427370512
 51
2.9143590927128749
  0
ARC
  5
110BB
  8
0
 10
535.0800559011456698
 20
67.6317835900401718
 30
0.0
 40
0.0196510363107431
 50
2.2448574469450091
 51
108.8197540428165979
  0
ARC
  5
110BC
  8
0
 10
535.0134673567578147
 20
67.5662644338479197
 30
0.0
 40
0.0633277011755805
 50
117.2034528912872986
 51
159.3551220933177035
  0
LINE
  5
110BD
  8
0
 10
534.9845170015081521
 20
67.6225873835851274
 30
0.0
 11
535.0737166329543015
 21
67.6503840445207203
 31
0.0
  0
ARC
  5
110BE
  8
0
 10
535.280987135232067
 20
67.7777005404946493
 30
0.0
 40
0.1184432578399436
 50
181.5454599129186022
 51
198.4091462507680035
  0
ARC
  5
110BF
  8
0
 10
535.7374955661778131
 20
67.9353800929708456
 30
0.0
 40
0.6014100787839913
 50
198.9278748740842957
 51
208.8935399485197024
  0
LINE
  5
110C0
  8
0
 10
535.2793142430081161
 20
67.5232256961851363
 30
0.0
 11
535.2817789197081311
 21
67.5141024476851328
 31
0.0
  0
LINE
  5
110C1
  8
0
 10
535.2817789197081311
 20
67.5141024476851328
 30
0.0
 11
535.3093719434081095
 21
67.5098515407851352
 31
0.0
  0
LINE
  5
110C2
  8
0
 10
535.3093719434081095
 20
67.5098515407851352
 30
0.0
 11
535.3594373559079713
 21
67.5098515407851352
 31
0.0
  0
LINE
  5
110C3
  8
0
 10
535.2234311624081329
 20
67.770263243685136
 30
0.0
 11
535.2720029899633118
 21
67.7122150858331793
 31
0.0
  0
ARC
  5
110C4
  8
0
 10
535.2399595434660569
 20
67.6893554436961864
 30
0.0
 40
0.0393617289006409
 50
358.7798106679430248
 51
35.5038796909412397
  0
ARC
  5
110C5
  8
0
 10
535.1112478980453488
 20
67.6851172382793891
 30
0.0
 40
0.1408365259428545
 50
37.1981442160923308
 51
47.8947589422756792
  0
ARC
  5
110C6
  8
0
 10
535.1811784542286432
 20
67.7758442644573904
 30
0.0
 40
0.0256045189300834
 50
61.019973154318528
 51
86.4899412151969358
  0
ARC
  5
110C7
  8
0
 10
535.1618431254495363
 20
67.7410109371283937
 30
0.0
 40
0.0654443869532775
 50
47.9480905851141728
 51
60.9872163561006175
  0
LINE
  5
110C8
  8
0
 10
535.1625869622081382
 20
67.8014029361851129
 30
0.0
 11
535.1827460594081458
 21
67.801400750985124
 31
0.0
  0
ARC
  5
110C9
  8
0
 10
535.3438543384036166
 20
67.8118548522957241
 30
0.0
 40
0.0078740156894013
 50
89.9999999671152153
 51
182.3859441130248058
  0
LINE
  5
110CA
  8
0
 10
535.3359871489042234
 20
67.8115270527224681
 30
0.0
 11
535.3383057123025992
 21
67.7558815314155396
 31
0.0
  0
ARC
  5
110CB
  8
0
 10
535.4135824344007233
 20
66.4220910727668183
 30
0.0
 40
0.0196850393816857
 50
182.3859439794676973
 51
270.0000000214369038
  0
LINE
  5
110CC
  8
0
 10
535.3939144605080855
 20
66.4212715738851358
 30
0.0
 11
535.3594373559079713
 21
67.2487220837851254
 31
0.0
  0
LINE
  5
110CD
  8
0
 10
536.0680988227422858
 20
67.7323560243123666
 30
0.0
 11
536.0680988227422858
 21
66.4921820397123753
 31
0.0
  0
LINE
  5
110CE
  8
0
 10
536.0680988227422858
 20
66.492176707912364
 30
0.0
 11
536.0680988227422858
 21
67.7323560243123666
 31
0.0
  0
ARC
  5
110CF
  8
0
 10
536.1742280838080887
 20
67.8472899073868803
 30
0.0
 40
0.0196850393999988
 50
90.0000000001009539
 51
180.0000000000048885
  0
ARC
  5
110D0
  8
0
 10
535.7888959544425234
 20
66.5891997832568592
 30
0.0
 40
1.4373720346678931
 50
53.0928466884711483
 51
69.3838694393134716
  0
ARC
  5
110D1
  8
0
 10
536.1808726282074531
 20
67.7545379868816013
 30
0.0
 40
0.0665303373170646
 50
91.4684323704219651
 51
120.6580514817375018
  0
ARC
  5
110D2
  8
0
 10
536.2197193977175402
 20
67.6936636796797018
 30
0.0
 40
0.1387248265762837
 50
121.6395854810219959
 51
139.9122275268962028
  0
LINE
  5
110D3
  8
0
 10
536.113586741942413
 20
67.7829969707123752
 30
0.0
 11
536.0680988227422858
 21
67.7323560243123666
 31
0.0
  0
LINE
  5
110D4
  8
0
 10
536.0680988227422858
 20
67.6885172513123763
 30
0.0
 11
536.148223831873679
 21
67.6885172484578845
 31
0.0
  0
LINE
  5
110D5
  8
0
 10
536.148223831873679
 20
67.6885172484578845
 30
0.0
 11
536.1482219356423684
 21
67.523225697612375
 31
0.0
  0
LINE
  5
110D6
  8
0
 10
536.1482219356423684
 20
67.523225697612375
 30
0.0
 11
536.2165865699283813
 21
67.644788563981308
 31
0.0
  0
LINE
  5
110D7
  8
0
 10
536.1545430444080012
 20
67.826776519484909
 30
0.0
 11
536.1545430444080012
 21
67.8472899073868803
 31
0.0
  0
ARC
  5
110D8
  8
0
 10
536.2452641770422588
 20
67.8014029376123659
 30
0.0
 40
0.0196850394000023
 50
0.0000000000154702
 51
89.9999999999934914
  0
LINE
  5
110D9
  8
0
 10
536.2649492164423464
 20
67.8014029376123659
 30
0.0
 11
536.2649492164423464
 21
67.774506116212379
 31
0.0
  0
ARC
  5
110DA
  8
0
 10
536.27667338434469
 20
67.7540719874147186
 30
0.0
 40
0.0394570299943239
 50
0.1261237584808835
 51
89.873876241525636
  0
LINE
  5
110DB
  8
0
 10
536.2767602400424494
 20
67.7935289218123529
 30
0.0
 11
536.2649492164423464
 21
67.7935289219123689
 31
0.0
  0
LINE
  5
110DC
  8
0
 10
536.3161303187423528
 20
67.7541588431123785
 30
0.0
 11
536.3161303187423528
 21
66.391954118712377
 31
0.0
  0
ARC
  5
110DD
  8
0
 10
536.2767602400424494
 20
66.3919541187123627
 30
0.0
 40
0.0393700786999958
 50
269.9999999999935199
 51
0.0000000000081422
  0
ARC
  5
110DE
  8
0
 10
536.2731717387862318
 20
66.3475022476133347
 30
0.0
 40
0.1110017404861699
 50
206.6185072219552978
 51
260.4711777615120241
  0
ARC
  5
110DF
  8
0
 10
536.1236978013921544
 20
66.501851440799328
 30
0.0
 40
0.0564344476656323
 50
189.8711535674538879
 51
220.7190098956097017
  0
ARC
  5
110E0
  8
0
 10
535.9177973111738993
 20
66.359412774877768
 30
0.0
 40
0.1943374379977889
 50
13.36236418726841
 51
32.9226615374532869
  0
ARC
  5
110E1
  8
0
 10
536.0724016652777664
 20
66.3944254280216626
 30
0.0
 40
0.0358655129576229
 50
305.3884794288616149
 51
16.0242267390333986
  0
ARC
  5
110E2
  8
0
 10
536.0524632082922381
 20
66.4338270365640824
 30
0.0
 40
0.0798045121678417
 50
285.5300333838187044
 51
300.670919327037609
  0
LINE
  5
110E3
  8
0
 10
536.2767602400424494
 20
66.3525840400123741
 30
0.0
 11
536.0738299576664758
 21
66.3525840400123741
 31
0.0
  0
ARC
  5
110E4
  8
0
 10
535.1100834545866292
 20
65.9088563630544826
 30
0.0
 40
1.1327103555628999
 50
20.0808739388766284
 51
21.7215973244893483
  0
ARC
  5
110E5
  8
0
 10
536.2640665744305579
 20
66.334624171318751
 30
0.0
 40
0.1019140126882171
 50
169.8500055713774088
 51
183.6878312467958096
  0
ARC
  5
110E6
  8
0
 10
536.312193310942348
 20
67.3762060872123527
 30
0.0
 40
0.0118110236000141
 50
359.9999301450743019
 51
70.5287791939967974
  0
LINE
  5
110E7
  8
0
 10
536.324004334542451
 20
67.3762060728123799
 30
0.0
 11
536.324004334542451
 21
66.7699068746123743
 31
0.0
  0
ARC
  5
110E8
  8
0
 10
536.312193310942348
 20
66.7699068746123743
 30
0.0
 40
0.0118110235999929
 50
289.471220291448617
 51
0.0000000000170987
  0
LINE
  5
110E9
  8
0
 10
536.324004334542451
 20
67.2381603829123691
 30
0.0
 11
536.3251175673317448
 21
67.234449264151749
 31
0.0
  0
LINE
  5
110EA
  8
0
 10
536.3251175673317448
 20
67.234449264151749
 30
0.0
 11
536.3252860985423922
 21
67.2305367959123714
 31
0.0
  0
ARC
  5
110EB
  8
0
 10
519.6082053848898568
 20
67.0732757933770358
 30
0.0
 40
16.7178245223248112
 50
359.4595195641755936
 51
0.5389777270164093
  0
LINE
  5
110EC
  8
0
 10
536.325288351474228
 20
66.9155761132044233
 30
0.0
 11
536.3251175673424314
 21
66.911663697912374
 31
0.0
  0
LINE
  5
110ED
  8
0
 10
536.3251175673424314
 20
66.911663697912374
 30
0.0
 11
536.324004334542451
 21
66.9079525790123739
 31
0.0
  0
ARC
  5
110EE
  8
0
 10
528.9859127344745957
 20
67.5516639111909143
 30
0.0
 40
7.3421488858866617
 50
1.179483449849192
 51
2.0642684601162489
  0
ARC
  5
110EF
  8
0
 10
529.5994016135927041
 20
67.5394912223900121
 30
0.0
 40
6.7290862558631801
 50
0.7121487297788651
 51
1.3906336645031541
  0
ARC
  5
110F0
  8
0
 10
417.0025550226289965
 20
67.0951955756671907
 30
0.0
 40
119.3265809288513992
 50
359.9756243212434015
 51
0.2534921448500992
  0
ARC
  5
110F1
  8
0
 10
451.4802367572415847
 20
66.9959551488193625
 30
0.0
 40
84.8489022423463837
 50
359.6419560611307134
 51
0.0327333810695108
  0
ARC
  5
110F2
  8
0
 10
546.2953716955782966
 20
66.1540085782238094
 30
0.0
 40
9.9727624851647718
 50
178.2087754169891127
 51
179.2434346057424079
  0
ARC
  5
110F3
  8
0
 10
536.2335203965217261
 20
66.2954706402330487
 30
0.0
 40
0.0904882908994188
 50
320.5976222004716192
 51
353.7953507814153795
  0
ARC
  5
110F4
  8
0
 10
536.2743121206399337
 20
67.7820303448840065
 30
0.0
 40
0.0596859696150754
 50
34.8441492536157327
 51
60.5999246545907511
  0
ARC
  5
110F5
  8
0
 10
535.7301271491129455
 20
66.0432312758699283
 30
0.0
 40
1.880383775534731
 50
72.2428447888155745
 51
75.9012614198033759
  0
LINE
  5
110F6
  8
0
 10
536.3034413532424196
 20
66.2380320591123706
 30
0.0
 11
536.2547960967424387
 21
66.2380320591123706
 31
0.0
  0
ARC
  5
110F7
  8
0
 10
536.5669469987608409
 20
67.7308139749554385
 30
0.0
 40
0.1169937164014968
 50
286.844714570516885
 51
330.3761948696782156
  0
ARC
  5
110F8
  8
0
 10
536.6915391786546934
 20
67.1572804048739442
 30
0.0
 40
0.4703848897162027
 50
101.1161936273292952
 51
108.0319045322929981
  0
ARC
  5
110F9
  8
0
 10
536.6250845821426765
 20
67.0716950256707207
 30
0.0
 40
0.5387134387151937
 50
98.4488689820944529
 51
106.3615987454014942
  0
ARC
  5
110FA
  8
0
 10
536.7248040511508407
 20
67.6643418866155031
 30
0.0
 40
0.0568140532496348
 50
151.4983808262597904
 51
171.2517146675511128
  0
ARC
  5
110FB
  8
0
 10
536.6148744492496689
 20
67.6914526205295743
 30
0.0
 40
0.0600012057925514
 50
0.0000002700293978
 51
51.6942110463512066
  0
ARC
  5
110FC
  8
0
 10
527.4670476663992531
 20
68.0486666940919918
 30
0.0
 40
9.2147543734268655
 50
355.6966684214409042
 51
357.7783468174349082
  0
ARC
  5
110FD
  8
0
 10
532.6303327724249357
 20
67.5688591737716564
 30
0.0
 40
4.031050276826206
 50
344.4268715988321219
 51
356.9904856783227274
  0
ARC
  5
110FE
  8
0
 10
535.2865461333585699
 20
66.8216762361948042
 30
0.0
 40
1.2717728659040211
 50
321.3483391394145769
 51
344.7262121571159241
  0
ARC
  5
110FF
  8
0
 10
535.7543468421107491
 20
66.4779192229338491
 30
0.0
 40
0.6921418077464943
 50
297.4854600003325231
 51
319.3843059681605041
  0
ARC
  5
11100
  8
0
 10
547.7085169299806466
 20
67.0470109116976829
 30
0.0
 40
11.2482327053487001
 50
177.2402488735293105
 51
179.1345753416615878
  0
ARC
  5
11101
  8
0
 10
1875.0699653558619957
 20
-0.9304110516971135
 30
0.0
 40
1340.3419338992171106
 50
177.0856409072870861
 51
177.1279370572628977
  0
ARC
  5
11102
  8
0
 10
536.3474802775048147
 20
67.6317835914674248
 30
0.0
 40
0.0196510363107431
 50
71.1802459571833595
 51
177.7551425530550091
  0
ARC
  5
11103
  8
0
 10
536.4140688218926698
 20
67.5662644352751443
 30
0.0
 40
0.0633277011755805
 50
20.6448779066823214
 51
62.7965471087127085
  0
LINE
  5
11104
  8
0
 10
536.4430191771423324
 20
67.6225873850123804
 30
0.0
 11
536.353819545696183
 21
67.6503840459479733
 31
0.0
  0
ARC
  5
11105
  8
0
 10
536.1465490434181902
 20
67.7777005419218739
 30
0.0
 40
0.1184432578399436
 50
341.5908537492319965
 51
358.4545400870815115
  0
ARC
  5
11106
  8
0
 10
535.6900406124726715
 20
67.9353800943980843
 30
0.0
 40
0.6014100787839913
 50
331.106460051480326
 51
341.0721251259157043
  0
LINE
  5
11107
  8
0
 10
536.1482219356423684
 20
67.523225697612375
 30
0.0
 11
536.1457572589423535
 21
67.5141024491123716
 31
0.0
  0
LINE
  5
11108
  8
0
 10
536.1457572589423535
 20
67.5141024491123716
 30
0.0
 11
536.1181642352422614
 21
67.5098515422123739
 31
0.0
  0
LINE
  5
11109
  8
0
 10
536.1181642352422614
 20
67.5098515422123739
 30
0.0
 11
536.0680988227422858
 21
67.5098515422123739
 31
0.0
  0
LINE
  5
1110A
  8
0
 10
536.2041047548424331
 20
67.7702650197123688
 30
0.0
 11
536.155533188687059
 21
67.7122150872604323
 31
0.0
  0
ARC
  5
1110B
  8
0
 10
536.1875766351842003
 20
67.6893554451234252
 30
0.0
 40
0.0393617289006409
 50
144.4961203090587105
 51
181.2201893320570036
  0
ARC
  5
1110C
  8
0
 10
536.3163921490954635
 20
67.6850125678292471
 30
0.0
 40
0.1409838269456661
 50
132.1080369343779068
 51
142.7929817484225055
  0
ARC
  5
1110D
  8
0
 10
536.2463577244217277
 20
67.7758442658846292
 30
0.0
 40
0.0256045189300834
 50
93.5100587848030642
 51
118.9800268456813939
  0
ARC
  5
1110E
  8
0
 10
536.2656930532009483
 20
67.7410109385556609
 30
0.0
 40
0.0654443869532775
 50
119.0127836438993967
 51
132.051909414885813
  0
LINE
  5
1110F
  8
0
 10
536.2649492164423464
 20
67.8014029376123659
 30
0.0
 11
536.2447901192424524
 21
67.801400752412377
 31
0.0
  0
LINE
  5
11110
  8
0
 10
535.3115036050080562
 20
67.8669729625851232
 30
0.0
 11
536.2615662587080578
 21
67.8669729625851232
 31
0.0
  0
ARC
  5
11111
  8
0
 10
536.2647345603386384
 20
67.8970832050159885
 30
0.0
 40
0.0302764732831663
 50
263.9932478999107843
 51
358.8994159316034143
  0
LINE
  5
11112
  8
0
 10
536.1682157966780551
 20
67.8198633370614914
 30
0.0
 11
536.1545430444080012
 21
67.8270704097519967
 31
0.0
  0
LINE
  5
11113
  8
0
 10
536.1659869307244435
 20
67.8210381991980711
 30
0.0
 11
536.2452641770422588
 21
67.8210879770123682
 31
0.0
  0
LINE
  5
11114
  8
0
 10
536.1675474440626203
 20
67.8197288680851216
 30
0.0
 11
535.3438548413081435
 21
67.8197288680851216
 31
0.0
  0
ARC
  5
11115
  8
0
 10
536.0754352130109055
 20
68.1970207973162701
 30
0.0
 40
0.377382042129899
 50
271.2521384041999113
 51
273.7199297488618868
  0
ARC
  5
11116
  8
0
 10
536.0369466692495735
 20
68.9597508167802857
 30
0.0
 40
1.1410559656679631
 50
273.163660614307787
 51
274.4847921248949092
  0
ARC
  5
11117
  8
0
 10
536.1231435989360534
 20
67.9309322655038841
 30
0.0
 40
0.108785773907829
 50
271.5946654283214912
 51
286.7762880991969041
  0
LINE
  5
11118
  8
0
 10
535.4135856392081223
 20
66.4024060333851338
 30
0.0
 11
536.0738343776993133
 21
66.4023473894001768
 31
0.0
  0
LINE
  5
1111A
  8
0
 10
518.2973395876081213
 20
56.2855255191851285
 30
0.0
 11
518.2500955578079811
 21
56.2855255191851285
 31
0.0
  0
LINE
  5
1111B
  8
0
 10
518.297339629856765
 20
54.6674152829622884
 30
0.0
 11
518.2500955578079811
 21
54.6674256251913633
 31
0.0
  0
ARC
  5
1111C
  8
0
 10
535.931330832859544
 20
67.1518479504403842
 30
0.0
 40
1.187652901011544
 50
230.3027400588113096
 51
248.8605259979750031
  0
ARC
  5
1111D
  8
0
 10
535.4432040220423232
 20
67.2269683950261054
 30
0.0
 40
1.2793266870531581
 50
299.5326356811057167
 51
309.3747576026805746
  0
ENDSEC
  0
EOF
