  0
SECTION
  2
HEADER
  9
$ACADVER
  1
AC1009
  9
$INSBASE
 10
552.6777101824873171
 20
90.1906996258462641
 30
0.0
  9
$EXTMIN
 10
546.4692225694809622
 20
85.7608813034461264
 30
0.0
  9
$EXTMAX
 10
568.2373421082853611
 20
90.1964950403474433
 30
0.0
  9
$LIMMIN
 10
0.0
 20
0.0
  9
$LIMMAX
 10
11.6929133858000007
 20
8.2677165353999982
  9
$ORTHOMODE
 70
     0
  9
$REGENMODE
 70
     1
  9
$FILLMODE
 70
     1
  9
$QTEXTMODE
 70
     0
  9
$MIRRTEXT
 70
     0
  9
$DRAGMODE
 70
     2
  9
$LTSCALE
 40
0.6431102362
  9
$OSMODE
 70
  4095
  9
$ATTMODE
 70
     1
  9
$TEXTSIZE
 40
0.2
  9
$TRACEWID
 40
0.05
  9
$TEXTSTYLE
  7
STANDARD
  9
$CLAYER
  8
0
  9
$CELTYPE
  6
BYLAYER
  9
$CECOLOR
 62
   256
  9
$DIMSCALE
 40
1.0
  9
$DIMASZ
 40
0.1875
  9
$DIMEXO
 40
0.0625
  9
$DIMDLI
 40
0.4443307087
  9
$DIMRND
 40
0.0
  9
$DIMDLE
 40
0.0
  9
$DIMEXE
 40
0.125
  9
$DIMTP
 40
0.01
  9
$DIMTM
 40
0.01
  9
$DIMTXT
 40
1.0
  9
$DIMCEN
 40
0.1052362205
  9
$DIMTSZ
 40
0.0
  9
$DIMTOL
 70
     1
  9
$DIMLIM
 70
     0
  9
$DIMTIH
 70
     0
  9
$DIMTOH
 70
     1
  9
$DIMSE1
 70
     0
  9
$DIMSE2
 70
     0
  9
$DIMTAD
 70
     0
  9
$DIMZIN
 70
     0
  9
$DIMBLK
  1

  9
$DIMASO
 70
     1
  9
$DIMSHO
 70
     1
  9
$DIMPOST
  1
\X
  9
$DIMAPOST
  1

  9
$DIMALT
 70
     1
  9
$DIMALTD
 70
     2
  9
$DIMALTF
 40
25.3999999999999986
  9
$DIMLFAC
 40
1.0
  9
$DIMTOFL
 70
     0
  9
$DIMTVP
 40
0.0
  9
$DIMTIX
 70
     0
  9
$DIMSOXD
 70
     0
  9
$DIMSAH
 70
     0
  9
$DIMBLK1
  1

  9
$DIMBLK2
  1

  9
$DIMSTYLE
  2
STANDARD
  9
$DIMCLRD
 70
     0
  9
$DIMCLRE
 70
     0
  9
$DIMCLRT
 70
     0
  9
$DIMTFAC
 40
1.0
  9
$DIMGAP
 40
0.09
  9
$LUNITS
 70
     2
  9
$LUPREC
 70
     4
  9
$SKETCHINC
 40
0.1
  9
$FILLETRAD
 40
0.0
  9
$AUNITS
 70
     0
  9
$AUPREC
 70
     0
  9
$MENU
  1
.
  9
$ELEVATION
 40
0.0
  9
$PELEVATION
 40
0.0
  9
$THICKNESS
 40
0.0
  9
$LIMCHECK
 70
     0
  9
$BLIPMODE
 70
     0
  9
$CHAMFERA
 40
0.0
  9
$CHAMFERB
 40
0.0
  9
$SKPOLY
 70
     0
  9
$TDCREATE
 40
2458172.5207638889551163
  9
$TDUPDATE
 40
2459123.3226851858198643
  9
$TDINDWG
 40
0.2781453472
  9
$TDUSRTIMER
 40
0.2781453472
  9
$USRTIMER
 70
     1
  9
$ANGBASE
 50
0.0
  9
$ANGDIR
 70
     0
  9
$PDMODE
 70
     0
  9
$PDSIZE
 40
0.3125
  9
$PLINEWID
 40
0.0
  9
$COORDS
 70
     1
  9
$SPLFRAME
 70
     0
  9
$SPLINETYPE
 70
     6
  9
$SPLINESEGS
 70
     8
  9
$ATTDIA
 70
     1
  9
$ATTREQ
 70
     1
  9
$HANDLING
 70
     1
  9
$HANDSEED
  5
10A56
  9
$SURFTAB1
 70
     6
  9
$SURFTAB2
 70
     6
  9
$SURFTYPE
 70
     6
  9
$SURFU
 70
     6
  9
$SURFV
 70
     6
  9
$UCSNAME
  2

  9
$UCSORG
 10
0.0
 20
0.0
 30
0.0
  9
$UCSXDIR
 10
1.0
 20
0.0
 30
0.0
  9
$UCSYDIR
 10
0.0
 20
1.0
 30
0.0
  9
$PUCSNAME
  2

  9
$PUCSORG
 10
0.0
 20
0.0
 30
0.0
  9
$PUCSXDIR
 10
1.0
 20
0.0
 30
0.0
  9
$PUCSYDIR
 10
0.0
 20
1.0
 30
0.0
  9
$USERI1
 70
     0
  9
$USERI2
 70
     0
  9
$USERI3
 70
     0
  9
$USERI4
 70
     0
  9
$USERI5
 70
     0
  9
$USERR1
 40
0.0
  9
$USERR2
 40
0.0
  9
$USERR3
 40
0.0
  9
$USERR4
 40
0.0
  9
$USERR5
 40
0.0
  9
$WORLDVIEW
 70
     1
  9
$SHADEDGE
 70
     3
  9
$SHADEDIF
 70
    70
  9
$TILEMODE
 70
     1
  9
$MAXACTVP
 70
    64
  9
$PLIMCHECK
 70
     0
  9
$PEXTMIN
 10
1.0000000000000000E+20
 20
1.0000000000000000E+20
 30
1.0000000000000000E+20
  9
$PEXTMAX
 10
-1.0000000000000000E+20
 20
-1.0000000000000000E+20
 30
-1.0000000000000000E+20
  9
$PLIMMIN
 10
0.0
 20
0.0
  9
$PLIMMAX
 10
12.0
 20
9.0
  9
$UNITMODE
 70
     0
  9
$VISRETAIN
 70
     1
  9
$PLINEGEN
 70
     0
  9
$PSLTSCALE
 70
     1
  0
ENDSEC
  0
SECTION
  2
TABLES
  0
TABLE
  2
VPORT
 70
     1
  0
VPORT
  2
*ACTIVE
 70
     0
 10
0.0
 20
0.0
 11
1.0
 21
1.0
 12
144.2252286944425066
 22
13.5546048714494507
 13
0.0
 23
0.0
 14
1.0
 24
1.0
 15
0.0
 25
0.0
 16
0.0
 26
0.0
 36
14.6338572656650907
 17
429.6292891080536833
 27
69.7025415122186871
 37
0.0
 40
142.3718574953626899
 41
2.005224660397074
 42
50.0
 43
0.0
 44
0.0
 50
0.0
 51
0.0
 71
     0
 72
   100
 73
     1
 74
     1
 75
     0
 76
     0
 77
     0
 78
     0
  0
ENDTAB
  0
TABLE
  2
LTYPE
 70
     2
  0
LTYPE
  2
CONTINUOUS
 70
     0
  3
Solid line
 72
    65
 73
     0
 40
0.0
  0
LTYPE
  2
PHANTOM2
 70
     0
  3
___ _ _ ___ _ _ ___ _ _ ___ _ _
 72
    65
 73
     6
 40
1.25
 49
0.625
 49
-0.125
 49
0.125
 49
-0.125
 49
0.125
 49
-0.125
  0
ENDTAB
  0
TABLE
  2
LAYER
 70
     2
  0
LAYER
  2
0
 70
     0
 62
   255
  6
CONTINUOUS
  0
LAYER
  2
DEFPOINTS
 70
     0
 62
     7
  6
CONTINUOUS
  0
ENDTAB
  0
TABLE
  2
STYLE
 70
     1
  0
STYLE
  2
STANDARD
 70
     0
 40
0.0
 41
0.8
 50
0.0
 71
     0
 42
0.2
  3
txt
  4

  0
ENDTAB
  0
TABLE
  2
VIEW
 70
     0
  0
ENDTAB
  0
TABLE
  2
UCS
 70
     0
  0
ENDTAB
  0
TABLE
  2
APPID
 70
    10
  0
APPID
  2
ACAD
 70
     0
  0
APPID
  2
ACAD_MLEADERVER
 70
     0
  0
APPID
  2
ACAD_EXEMPT_FROM_CAD_STANDARDS
 70
     0
  0
APPID
  2
ACAD_DSTYLE_DIMJAG
 70
     0
  0
APPID
  2
ACAD_DSTYLE_DIMTALN
 70
     0
  0
APPID
  2
ACAD_NAV_VCDISPLAY
 70
     0
  0
APPID
  2
ACAECLAYERSTANDARD
 70
     0
  0
APPID
  2
ACCMTRANSPARENCY
 70
     0
  0
APPID
  2
DCO15
 70
     0
  0
APPID
  2
ACDBATTR
 70
     0
  0
ENDTAB
  0
TABLE
  2
DIMSTYLE
 70
     1
  0
DIMSTYLE
  2
STANDARD
 70
     0
  3

  4

  5

  6

  7

 40
1.0
 41
0.1875
 42
0.0625
 43
0.38
 44
0.125
 45
0.0
 46
0.0
 47
0.01
 48
0.01
140
0.15625
141
0.09
142
0.0
143
25.3999999999999986
144
1.0
145
0.0
146
1.0
147
0.09
 71
     1
 72
     0
 73
     1
 74
     1
 75
     0
 76
     0
 77
     0
 78
     4
170
     0
171
     2
172
     0
173
     0
174
     0
175
     0
176
     0
177
     0
178
     0
  0
ENDTAB
  0
ENDSEC
  0
SECTION
  2
BLOCKS
  0
BLOCK
  8
0
  2
$MODEL_SPACE
 70
     0
 10
0.0
 20
0.0
 30
0.0
  3
$MODEL_SPACE
  1

  0
ENDBLK
  5
21
  8
0
  0
BLOCK
 67
     1
  8
0
  2
$PAPER_SPACE
 70
     0
 10
0.0
 20
0.0
 30
0.0
  3
$PAPER_SPACE
  1

  0
ENDBLK
  5
1D
 67
     1
  8
0
  0
BLOCK
  8
0
  2
_FILLED
 70
     0
 10
0.0
 20
0.0
 30
0.0
  3
_FILLED
  1

  0
SOLID
  5
87E2
  8
0
  6
BYBLOCK
 62
     0
 10
0.0
 20
0.0
 30
0.0
 11
-1.0
 21
0.1666666667
 31
0.0
 12
-1.0
 22
-0.1666666667
 32
0.0
 13
-1.0
 23
-0.1666666667
 33
0.0
  0
ENDBLK
  5
87E3
  8
0
  6
BYBLOCK
 62
     0
  0
ENDSEC
  0
SECTION
  2
ENTITIES
  0
ATTDEF
  5
C848
  8
DEFPOINTS
 10
552.6794043755430721
 20
90.1954950403474243
 30
0.0
 40
0.001
  1
K-72352T-9
  3

  2
MODELNUMBER
 70
     0
1001
ACDBATTR
1070
     0
1070
     1
  0
ATTDEF
  5
C849
  8
DEFPOINTS
 10
552.6794043755430721
 20
90.1938283736807449
 30
0.0
 40
0.001
  1
ALEO
  3

  2
TRADENAME
 70
     0
1001
ACDBATTR
1070
     0
1070
     1
  0
ATTDEF
  5
C84A
  8
DEFPOINTS
 10
552.6794043755430721
 20
90.192161707014094
 30
0.0
 40
0.001
  1
BATH AND SHOWER FAUCET
  3

  2
PRODUCT
 70
     0
1001
ACDBATTR
1070
     0
1070
     1
  0
LINE
  5
108E7
  8
0
 10
568.2317927578717445
 20
87.795281106956196
 30
0.0
 11
568.2373421082852474
 21
87.002013284027484
 31
0.0
  0
ARC
  5
108E8
  8
0
 10
566.2591180614989526
 20
85.3957910561116904
 30
0.0
 40
3.365378591641317
 50
73.0595708148215408
 51
86.8686894785036685
  0
ARC
  5
108E9
  8
0
 10
566.7809232346851331
 20
86.7629726958451357
 30
0.0
 40
1.908143397306217
 50
50.0492067585339768
 51
76.0876234205638724
  0
ARC
  5
108EA
  8
0
 10
567.6052403114679237
 20
87.7412714954820387
 30
0.0
 40
0.6288759863647224
 50
4.926789482516595
 51
50.388481234233879
  0
ARC
  5
108EB
  8
0
 10
566.6994273182065172
 20
88.1666115782425805
 30
0.0
 40
2.046018242376149
 50
281.0670476314743951
 51
310.2557967986411995
  0
ARC
  5
108EC
  8
0
 10
567.6036232625934872
 20
87.0894865869648243
 30
0.0
 40
0.6397274060971156
 50
310.7920049433641907
 51
352.1410255637921978
  0
ARC
  5
108ED
  8
0
 10
566.4651266715269458
 20
89.5225591983441262
 30
0.0
 40
2.684500414906271
 50
278.2382305410803269
 51
300.9755559744028801
  0
ARC
  5
108EE
  8
0
 10
567.4391094817527801
 20
87.9104095507487244
 30
0.0
 40
0.8010002089941187
 50
300.5927710110843805
 51
351.7362073597890912
  0
LINE
  5
108EF
  8
0
 10
563.9167782359414787
 20
87.795281106956196
 30
0.0
 11
563.9112280184932615
 21
87.002013284027484
 31
0.0
  0
ARC
  5
108F0
  8
0
 10
565.8854461681709154
 20
85.3871663224587962
 30
0.0
 40
3.37246757333001
 50
93.3475167438777191
 51
106.8326159483403046
  0
ARC
  5
108F1
  8
0
 10
565.36764775912809
 20
86.7629726958451357
 30
0.0
 40
1.908143397306217
 50
103.9123765794392966
 51
129.9507932414659876
  0
ARC
  5
108F2
  8
0
 10
564.5433306823454132
 20
87.7412714954820387
 30
0.0
 40
0.6288759863647224
 50
129.6115187657661068
 51
175.0732105174834032
  0
ARC
  5
108F3
  8
0
 10
565.449143675606706
 20
88.1666115782425805
 30
0.0
 40
2.046018242376149
 50
229.7442032013562994
 51
258.9329523685254912
  0
ARC
  5
108F4
  8
0
 10
564.5449530088085339
 20
87.0894908409934345
 30
0.0
 40
0.6397340746924595
 50
187.85927660778259
 51
229.2078861163377042
  0
ARC
  5
108F5
  8
0
 10
565.6834443222861637
 20
89.5225591983441262
 30
0.0
 40
2.684500414906271
 50
239.0244440255970915
 51
261.7617694589196731
  0
ARC
  5
108F6
  8
0
 10
564.7094615120604431
 20
87.9104095507487244
 30
0.0
 40
0.8010002089941187
 50
188.2637926402107951
 51
239.4072289889155911
  0
ARC
  5
108F7
  8
0
 10
566.0742854969066684
 20
91.3782568225753948
 30
0.0
 40
4.578648809753151
 50
260.2486092431706766
 51
279.7513907568293234
  0
ARC
  5
108F8
  8
0
 10
566.0742854969066684
 20
90.5546710306058458
 30
0.0
 40
4.512334915559574
 50
256.963039563877885
 51
283.0369604361220013
  0
LINE
  5
108F9
  8
0
 10
550.9159011817065448
 20
90.1906996258462641
 30
0.0
 11
548.5359799219064598
 21
90.1906996258462641
 31
0.0
  0
LINE
  5
108FA
  8
0
 10
550.8468725623065438
 20
89.5607783659462484
 30
0.0
 11
548.6030400374064584
 21
89.5607783659462484
 31
0.0
  0
LINE
  5
108FB
  8
0
 10
550.4729877959066471
 20
88.9505421455462368
 30
0.0
 11
548.9769248038064688
 21
88.9505421455462368
 31
0.0
  0
LINE
  5
108FC
  8
0
 10
550.4139326778065424
 20
88.517471279446255
 30
0.0
 11
549.0359799219064598
 21
88.517471279446255
 31
0.0
  0
LINE
  5
108FD
  8
0
 10
548.5359799219064598
 20
90.1906996258462641
 30
0.0
 11
548.5440067138065388
 21
89.6188028301462509
 31
0.0
  0
ARC
  5
108FE
  8
0
 10
548.6030541606522775
 20
89.6198348287652351
 30
0.0
 40
0.0590564645077592
 50
181.0012820035109087
 51
269.9862978186847045
  0
ARC
  5
108FF
  8
0
 10
548.9082397880195003
 20
89.5017232478778624
 30
0.0
 40
0.0590551180683932
 50
1.000000044307511
 51
90.0000000125455131
  0
LINE
  5
10900
  8
0
 10
548.96728591170654
 20
89.5027539018462761
 30
0.0
 11
548.9769248041940273
 21
88.9505421455530154
 31
0.0
  0
LINE
  5
10901
  8
0
 10
549.3017262498065065
 20
88.517471279446255
 30
0.0
 11
549.3017262498065065
 21
88.5548728542462413
 31
0.0
  0
LINE
  5
10902
  8
0
 10
549.0359799219064598
 20
88.517471279446255
 30
0.0
 11
549.0359799306064588
 21
87.9283542274462491
 31
0.0
  0
ARC
  5
10903
  8
0
 10
548.8391257215339465
 20
87.9283544526972776
 30
0.0
 40
0.1968542090726903
 50
269.3201954736176731
 51
359.9999344391337104
  0
LINE
  5
10904
  8
0
 10
550.9159011818064755
 20
90.1906996258462641
 30
0.0
 11
550.9059058859064635
 21
89.6188028301462509
 31
0.0
  0
ARC
  5
10905
  8
0
 10
550.8468584390608385
 20
89.6198348287652351
 30
0.0
 40
0.0590564645077592
 50
270.0137021813151819
 51
358.9987179964891197
  0
ARC
  5
10906
  8
0
 10
550.5416728116935019
 20
89.5017232478778624
 30
0.0
 40
0.0590551180683932
 50
89.9999999874544727
 51
178.9999999556924877
  0
LINE
  5
10907
  8
0
 10
550.4826266880065759
 20
89.5027539018462761
 30
0.0
 11
550.4729877955192023
 21
88.9505421455530154
 31
0.0
  0
LINE
  5
10908
  8
0
 10
550.1481829427066259
 20
88.517471279446255
 30
0.0
 11
550.1481829427066259
 21
88.5548728542462413
 31
0.0
  0
LINE
  5
10909
  8
0
 10
550.4139292706064452
 20
88.517471279446255
 30
0.0
 11
550.4139037249781268
 21
88.1611781828291754
 31
0.0
  0
ARC
  5
1090A
  8
0
 10
550.6113083003023121
 20
88.1616773317738733
 30
0.0
 40
0.1974052063866899
 50
180.1448754005882904
 51
269.4729504591211935
  0
ARC
  5
1090B
  8
0
 10
549.641362379674888
 20
88.4707091589808385
 30
0.0
 40
1.092586762090445
 50
222.5750232223716125
 51
332.385941244824096
  0
LINE
  5
1090C
  8
0
 10
565.038544887706621
 20
90.1906996258462641
 30
0.0
 11
566.9607600191409347
 21
90.1906996258462641
 31
0.0
  0
ARC
  5
1090D
  8
0
 10
569.0898781407961451
 20
89.1814675253088893
 30
0.0
 40
4.0446972777605108
 50
180.34721962890751
 51
187.3328415226106927
  0
LINE
  5
1090E
  8
0
 10
565.045255133813157
 20
89.156956301207174
 30
0.0
 11
565.038544887706621
 21
90.1906996258462641
 31
0.0
  0
ARC
  5
1090F
  8
0
 10
562.9191782790306888
 20
89.1827149068984113
 30
0.0
 40
4.0351644224719747
 50
353.0538897121135733
 51
359.6377416973519985
  0
LINE
  5
10910
  8
0
 10
566.9542620483731525
 20
89.1572023458003571
 30
0.0
 11
566.9607600191409347
 21
90.1906996258462641
 31
0.0
  0
LINE
  5
10911
  8
0
 10
565.8913847008066114
 20
90.0804634053462365
 30
0.0
 11
566.1079201339066458
 21
90.0804634053462365
 31
0.0
  0
ARC
  5
10912
  8
0
 10
566.1079201339066458
 20
90.0706208857462656
 30
0.0
 40
0.0098425195999994
 50
359.9999994178642737
 51
90.0
  0
LINE
  5
10913
  8
0
 10
566.1177626535064746
 20
90.0706208856462638
 30
0.0
 11
566.1177626517065846
 21
89.8934555313462624
 31
0.0
  0
ARC
  5
10914
  8
0
 10
566.1079201319065533
 20
89.89345553144625
 30
0.0
 40
0.0098425198000029
 50
270.000011642710092
 51
359.9999994178634211
  0
LINE
  5
10915
  8
0
 10
566.1079201339066458
 20
89.8836130116462471
 30
0.0
 11
565.8913847008066114
 21
89.8836129676454618
 31
0.0
  0
ARC
  5
10916
  8
0
 10
565.8913846988066325
 20
89.8934554853455552
 30
0.0
 40
0.0098425177000794
 50
179.999732218273806
 51
270.0000116427232228
  0
LINE
  5
10917
  8
0
 10
565.8815421811066244
 20
89.8934555313462624
 30
0.0
 11
565.8815430091193548
 21
90.0706208856443311
 31
0.0
  0
ARC
  5
10918
  8
0
 10
565.8913855748610331
 20
90.0706208396433965
 30
0.0
 40
0.0098425657416615
 50
90.0050880667124034
 51
179.999732218276705
  0
LINE
  5
10919
  8
0
 10
549.1344051187064679
 20
88.9505421455462368
 30
0.0
 11
549.1344051187064679
 21
88.5568413581462437
 31
0.0
  0
LINE
  5
1091A
  8
0
 10
549.1344051187064679
 20
88.5568413581462437
 30
0.0
 11
550.3155074809066036
 21
88.5568413581462437
 31
0.0
  0
LINE
  5
1091B
  8
0
 10
550.3155074809066036
 20
88.5568413581462437
 30
0.0
 11
550.3155074809066036
 21
88.9505421455462368
 31
0.0
  0
LINE
  5
1091C
  8
0
 10
548.8367901351481351
 20
87.7315140994516156
 30
0.0
 11
548.5832240163065308
 21
87.7302040491462662
 31
0.0
  0
LINE
  5
1091D
  8
0
 10
548.5832240163065308
 20
87.7302040491462662
 30
0.0
 11
548.5832240163065308
 21
85.7616308753462562
 31
0.0
  0
LINE
  5
1091E
  8
0
 10
548.5832240163065308
 20
85.7616308753462562
 30
0.0
 11
556.772200430476687
 21
85.7616164049462668
 31
0.0
  0
LINE
  5
1091F
  8
0
 10
556.772200430476687
 20
85.7616164049462668
 30
0.0
 11
556.772200430476687
 21
87.7302040164462653
 31
0.0
  0
LINE
  5
10920
  8
0
 10
556.772200430476687
 20
87.7302040164462653
 30
0.0
 11
556.5186342754650468
 21
87.7315140994516156
 31
0.0
  0
LINE
  5
10921
  8
0
 10
554.4395232289066371
 20
90.1906996258462641
 30
0.0
 11
556.8194404430679469
 21
90.1906996258462641
 31
0.0
  0
LINE
  5
10922
  8
0
 10
554.508551848306638
 20
89.5607783659462484
 30
0.0
 11
556.7523843732064961
 21
89.5607783659462484
 31
0.0
  0
LINE
  5
10923
  8
0
 10
554.8824366147066485
 20
88.9505421455462368
 30
0.0
 11
556.3784996068065993
 21
88.9505421455462368
 31
0.0
  0
LINE
  5
10924
  8
0
 10
554.9414917328066394
 20
88.517471279446255
 30
0.0
 11
556.3194444887066084
 21
88.517471279446255
 31
0.0
  0
LINE
  5
10925
  8
0
 10
556.8194404430679469
 20
90.1906996258462641
 30
0.0
 11
556.8114176968066431
 21
89.6188028301462509
 31
0.0
  0
ARC
  5
10926
  8
0
 10
556.7523702499607907
 20
89.6198348287652351
 30
0.0
 40
0.0590564645077592
 50
270.0137021813151819
 51
358.9987179964891197
  0
ARC
  5
10927
  8
0
 10
556.4471846225935678
 20
89.5017232478778624
 30
0.0
 40
0.0590551180683932
 50
89.9999999874544727
 51
178.9999999556924877
  0
LINE
  5
10928
  8
0
 10
556.3881384989066419
 20
89.5027539018462761
 30
0.0
 11
556.3784996064191546
 21
88.9505421455530154
 31
0.0
  0
LINE
  5
10929
  8
0
 10
556.053698160806448
 20
88.517471279446255
 30
0.0
 11
556.053698160806448
 21
88.5548728542462413
 31
0.0
  0
LINE
  5
1092A
  8
0
 10
556.3194444887066084
 20
88.517471279446255
 30
0.0
 11
556.3194444800066094
 21
87.9283542274462491
 31
0.0
  0
ARC
  5
1092B
  8
0
 10
556.5162986890791217
 20
87.9283544526972776
 30
0.0
 40
0.1968542090726903
 50
180.0000655608662044
 51
270.6798045263823269
  0
LINE
  5
1092C
  8
0
 10
554.439523228806479
 20
90.1906996258462641
 30
0.0
 11
554.4495185247066047
 21
89.6188028301462509
 31
0.0
  0
ARC
  5
1092D
  8
0
 10
554.5085659715523434
 20
89.6198348287652351
 30
0.0
 40
0.0590564645077592
 50
181.0012820035109087
 51
269.9862978186847045
  0
ARC
  5
1092E
  8
0
 10
554.8137515989194526
 20
89.5017232478778624
 30
0.0
 40
0.0590551180683932
 50
1.000000044307511
 51
90.0000000125455131
  0
LINE
  5
1092F
  8
0
 10
554.8727977226064922
 20
89.5027539018462761
 30
0.0
 11
554.8824366150938658
 21
88.9505421455530154
 31
0.0
  0
LINE
  5
10930
  8
0
 10
555.207241467906556
 20
88.517471279446255
 30
0.0
 11
555.207241467906556
 21
88.5548728542462413
 31
0.0
  0
LINE
  5
10931
  8
0
 10
554.9414951400065092
 20
88.517471279446255
 30
0.0
 11
554.9415206856350551
 21
88.1611781828291754
 31
0.0
  0
ARC
  5
10932
  8
0
 10
554.7441160088834522
 20
88.161677373728196
 30
0.0
 40
0.1974053079197659
 50
270.5331879186811079
 51
359.8551124968838053
  0
ARC
  5
10933
  8
0
 10
555.7140705280238535
 20
88.470686033260904
 30
0.0
 40
1.092564859140094
 50
207.6132828967741943
 51
317.4255683627907274
  0
LINE
  5
10934
  8
0
 10
556.2210192919064866
 20
88.9505421455462368
 30
0.0
 11
556.2210192919064866
 21
88.5568413581462437
 31
0.0
  0
LINE
  5
10935
  8
0
 10
556.2210192919064866
 20
88.5568413581462437
 30
0.0
 11
555.0399169297064645
 21
88.5568413581462437
 31
0.0
  0
LINE
  5
10936
  8
0
 10
555.0399169297064645
 20
88.5568413581462437
 30
0.0
 11
555.0399169297064645
 21
88.9505421455462368
 31
0.0
  0
ARC
  5
10937
  8
0
 10
552.8964647446364324
 20
-56.0509284251493796
 30
0.0
 40
144.033366403416494
 50
90.087018740120655
 51
90.9097847980279141
  0
ARC
  5
10938
  8
0
 10
552.488996886761015
 20
-52.6016697006782721
 30
0.0
 40
140.584068224825586
 50
89.0801260933657062
 51
89.9230880521111544
  0
LINE
  5
10939
  8
0
 10
551.8706255911065455
 20
87.9977862400462527
 30
0.0
 11
552.1068460636065538
 21
87.9977862400462527
 31
0.0
  0
LINE
  5
1093A
  8
0
 10
552.1068460636065538
 20
87.9977862400462527
 30
0.0
 11
552.1068460636065538
 21
87.9802735410891898
 31
0.0
  0
LINE
  5
1093B
  8
0
 10
551.8706255911065455
 20
87.9977862400462527
 30
0.0
 11
551.8706255911065455
 21
87.9787847993513452
 31
0.0
  0
ARC
  5
1093C
  8
0
 10
546.4889076101327419
 20
87.6852013717991667
 30
0.0
 40
0.0196850406516529
 50
90.5000003496448073
 51
179.9999963701530987
  0
ARC
  5
1093D
  8
0
 10
547.1269514400537446
 20
87.8363583826217535
 30
0.0
 40
0.0197101048330332
 50
87.7997793106144542
 51
179.4705708269524109
  0
ARC
  5
1093E
  8
0
 10
547.5411759736324484
 20
87.8363689352711532
 30
0.0
 40
0.019685020875096
 50
0.4938098551345212
 51
90.0000221964635756
  0
LINE
  5
1093F
  8
0
 10
546.4692225694809622
 20
87.6852013730462545
 30
0.0
 11
546.4692225694809622
 21
85.8007648092447681
 31
0.0
  0
ARC
  5
10940
  8
0
 10
546.4889076101327419
 20
85.8007648097933782
 30
0.0
 40
0.0196850406516536
 50
180.0000015967775937
 51
269.4999996503617012
  0
ARC
  5
10941
  8
0
 10
21550.0612733820817084
 20
2406810.6309008868411183
 30
0.0
 40
2406816.4975340799428523
 50
269.4999904075446011
 51
269.5000095959637747
  0
ARC
  5
10942
  8
0
 10
550.6891300333720665
 20
347.2804091824066859
 30
0.0
 40
261.5283914175225277
 50
269.2563366906384772
 51
269.5282813958423276
  0
LINE
  5
10943
  8
0
 10
548.5359799219064598
 20
87.7307538987462436
 30
0.0
 11
548.5359799219064598
 21
85.7608813034461974
 31
0.0
  0
LINE
  5
10944
  8
0
 10
548.5359799219064598
 20
85.9367626179462434
 30
0.0
 11
548.5832240163065308
 21
85.9367626179462434
 31
0.0
  0
LINE
  5
10945
  8
0
 10
548.5359799219064598
 20
87.5548728542462555
 30
0.0
 11
548.5832240163065308
 21
87.5548728542462555
 31
0.0
  0
ARC
  5
10946
  8
0
 10
547.1074213282189476
 20
87.7475627865882473
 30
0.0
 40
0.0484147119162938
 50
246.8298954813633941
 51
268.3690366428775746
  0
ARC
  5
10947
  8
0
 10
547.1357587690611126
 20
87.9473677565572132
 30
0.0
 40
0.2499725575890737
 50
263.1728372987852254
 51
269.544779237544617
  0
ARC
  5
10948
  8
0
 10
547.1725117831113039
 20
102.9040031444974943
 30
0.0
 40
15.2066493999382697
 50
269.8540384253656725
 51
271.3632680205839733
  0
ARC
  5
10949
  8
0
 10
547.5268034030870012
 20
87.9400758068342299
 30
0.0
 40
0.2385355286904743
 50
271.8003144054575841
 51
278.4889184358527245
  0
ARC
  5
1094A
  8
0
 10
547.5573351682145358
 20
87.7648662058414146
 30
0.0
 40
0.0608927769344043
 50
274.408273767551691
 51
286.60698703318252
  0
ARC
  5
1094B
  8
0
 10
547.5646104418613049
 20
87.7360887758902948
 30
0.0
 40
0.0312615260462203
 50
288.9039668043653251
 51
298.3424030706619874
  0
LINE
  5
1094C
  8
0
 10
547.5794515292565166
 20
87.7085746861500724
 30
0.0
 11
547.5881096538065549
 21
87.7161850510462671
 31
0.0
  0
LINE
  5
1094D
  8
0
 10
547.5881096538065549
 20
87.7161850510462671
 30
0.0
 11
547.5804942998064462
 21
87.7132152074462539
 31
0.0
  0
LINE
  5
1094E
  8
0
 10
547.5804942998064462
 20
87.7132152074462539
 30
0.0
 11
547.5719675289179804
 21
87.7058233370754152
 31
0.0
  0
LINE
  5
1094F
  8
0
 10
547.0884807183124394
 20
87.7030552592930661
 30
0.0
 11
547.0796882214489187
 21
87.710042821805871
 31
0.0
  0
LINE
  5
10950
  8
0
 10
547.0796882214489187
 20
87.710042821805871
 30
0.0
 11
547.0871193696066257
 21
87.7074925506462648
 31
0.0
  0
LINE
  5
10951
  8
0
 10
547.0871193696066257
 20
87.7074925506462648
 30
0.0
 11
547.0958309018405998
 21
87.7005559110665871
 31
0.0
  0
LINE
  5
10952
  8
0
 10
547.1277081436576282
 20
87.8560539565455088
 30
0.0
 11
547.541175966006449
 21
87.856053956146269
 31
0.0
  0
LINE
  5
10953
  8
0
 10
547.1072421742064762
 20
87.8365385777462535
 30
0.0
 11
547.1060433584066232
 21
87.6991678997462571
 31
0.0
  0
LINE
  5
10954
  8
0
 10
547.5608602634066528
 20
87.8365385906385967
 30
0.0
 11
547.5620155701066096
 21
87.704153570193796
 31
0.0
  0
LINE
  5
10955
  8
0
 10
546.4887358281694105
 20
87.7048856629068894
 30
0.0
 11
547.0796882214489187
 21
87.710042821805871
 31
0.0
  0
LINE
  5
10956
  8
0
 10
547.5881096538065549
 20
87.7161850510462671
 30
0.0
 11
548.2802442522064439
 21
87.7285235890462758
 31
0.0
  0
LINE
  5
10957
  8
0
 10
548.2802442522064439
 20
87.7285235890462758
 30
0.0
 11
548.5359799219064598
 21
87.7307538987462436
 31
0.0
  0
ARC
  5
10958
  8
0
 10
558.8665171646684939
 20
87.6852022350039988
 30
0.0
 40
0.0196841743048071
 50
359.9974910534875221
 51
89.5010377460155269
  0
ARC
  5
10959
  8
0
 10
558.228472970559551
 20
87.8363583826217535
 30
0.0
 40
0.0197101048330332
 50
0.5294291730476071
 51
92.2002206893855458
  0
ARC
  5
1095A
  8
0
 10
557.8142484369806198
 20
87.8363689352711532
 30
0.0
 40
0.019685020875096
 50
89.9999778035331843
 51
179.5061901448655135
  0
LINE
  5
1095B
  8
0
 10
558.8862013389546064
 20
87.6852013730462545
 30
0.0
 11
558.8862013389546064
 21
85.8007648092447681
 31
0.0
  0
ARC
  5
1095C
  8
0
 10
558.8665171646687213
 20
85.8007639465884608
 30
0.0
 40
0.0196841743047452
 50
270.4989622539616789
 51
0.0025048716123463
  0
ARC
  5
1095D
  8
0
 10
-20444.705848971469095
 20
2406810.6309008868411183
 30
0.0
 40
2406816.4975340799428523
 50
270.4999904040329284
 51
270.5000095924553989
  0
ARC
  5
1095E
  8
0
 10
554.6663641359922394
 20
347.2744936720686155
 30
0.0
 40
261.5224755000422192
 50
270.4717131051555725
 51
270.7436648481523775
  0
LINE
  5
1095F
  8
0
 10
556.8194404430679469
 20
87.7307538987069648
 30
0.0
 11
556.8194404430679469
 21
85.7608813034461974
 31
0.0
  0
ARC
  5
10960
  8
0
 10
558.2480030823942343
 20
87.7475627865882473
 30
0.0
 40
0.0484147119162938
 50
271.6309633571224254
 51
293.1701045186364922
  0
ARC
  5
10961
  8
0
 10
558.2196656415519556
 20
87.9473677565572132
 30
0.0
 40
0.2499725575890737
 50
270.4552207624521998
 51
276.8271627012147746
  0
ARC
  5
10962
  8
0
 10
558.182912627501878
 20
102.9040031444974943
 30
0.0
 40
15.2066493999382697
 50
268.6367319794160267
 51
270.1459615746343275
  0
ARC
  5
10963
  8
0
 10
557.8286210075260669
 20
87.9400758068342299
 30
0.0
 40
0.2385355286904743
 50
261.5110815641472755
 51
268.1996855945424159
  0
ARC
  5
10964
  8
0
 10
557.7980892423986461
 20
87.7648662058414146
 30
0.0
 40
0.0608927769344043
 50
253.3930129668175084
 51
265.591726232448309
  0
ARC
  5
10965
  8
0
 10
557.7908139687518769
 20
87.7360887758902948
 30
0.0
 40
0.0312615260462203
 50
241.6575969293380126
 51
251.0960331956347034
  0
LINE
  5
10966
  8
0
 10
557.7759728813566653
 20
87.7085746861500724
 30
0.0
 11
557.767314756806627
 21
87.7161850510462671
 31
0.0
  0
LINE
  5
10967
  8
0
 10
557.767314756806627
 20
87.7161850510462671
 30
0.0
 11
557.774930110806622
 21
87.7132152074462539
 31
0.0
  0
LINE
  5
10968
  8
0
 10
557.774930110806622
 20
87.7132152074462539
 30
0.0
 11
557.7834568816950878
 21
87.7058233370754152
 31
0.0
  0
LINE
  5
10969
  8
0
 10
558.2669436923007424
 20
87.7030552592930661
 30
0.0
 11
558.2757361891641494
 21
87.710042821805871
 31
0.0
  0
LINE
  5
1096A
  8
0
 10
558.2757361891641494
 20
87.710042821805871
 30
0.0
 11
558.2683050410065562
 21
87.7074925506462648
 31
0.0
  0
LINE
  5
1096B
  8
0
 10
558.2683050410065562
 20
87.7074925506462648
 30
0.0
 11
558.2595935087724683
 21
87.7005559110665871
 31
0.0
  0
LINE
  5
1096C
  8
0
 10
558.2277162669555537
 20
87.8560539565455088
 30
0.0
 11
557.8142484446066192
 21
87.856053956146269
 31
0.0
  0
LINE
  5
1096D
  8
0
 10
558.248182236406592
 20
87.8365385777462535
 30
0.0
 11
558.249381052206445
 21
87.6991678997462571
 31
0.0
  0
LINE
  5
1096E
  8
0
 10
557.794564147206529
 20
87.8365385906385967
 30
0.0
 11
557.7934088405064585
 21
87.704153570193796
 31
0.0
  0
LINE
  5
1096F
  8
0
 10
558.866688582443544
 20
87.7048856629068894
 30
0.0
 11
558.2757361891641494
 21
87.710042821805871
 31
0.0
  0
LINE
  5
10970
  8
0
 10
557.767314756806627
 20
87.7161850510462671
 30
0.0
 11
557.0751801584066243
 21
87.7285235890462758
 31
0.0
  0
LINE
  5
10971
  8
0
 10
557.0751801584066243
 20
87.7285235890462758
 30
0.0
 11
556.8194404430679469
 21
87.7307538987069648
 31
0.0
  0
ARC
  5
10972
  8
0
 10
3918.2368885089158539
 20
-26887.0360820355599571
 30
0.0
 40
27183.2184713301685406
 50
97.0866748493532867
 51
97.1002162402780868
  0
LINE
  5
10973
  8
0
 10
558.8862013389546064
 20
87.2311385935943662
 30
0.0
 11
563.9253295672114064
 21
87.8577173108614033
 31
0.0
  0
ARC
  5
10974
  8
0
 10
565.4097981519205405
 20
88.960699183723861
 30
0.0
 40
0.0196747733120345
 50
89.9711618826764976
 51
179.7304916911851933
  0
ARC
  5
10975
  8
0
 10
566.5893881940918391
 20
88.9604223376017558
 30
0.0
 40
0.0199519108540368
 50
0.1256417365700757
 51
89.6890054744488054
  0
LINE
  5
10976
  8
0
 10
565.390123596268154
 20
88.9607917297259121
 30
0.0
 11
565.3888560207387854
 21
88.7228725083564314
 31
0.0
  0
LINE
  5
10977
  8
0
 10
565.4098080546289111
 20
88.9803739545437793
 30
0.0
 11
566.589496490106626
 21
88.980373954546252
 31
0.0
  0
LINE
  5
10978
  8
0
 10
566.6093400569751566
 20
88.9604660893534458
 30
0.0
 11
566.6103228247646939
 21
88.7427939362026592
 31
0.0
  0
LINE
  5
10979
  8
0
 10
566.6020146334066112
 20
88.9758706959921568
 30
0.0
 11
566.6020146334066112
 21
88.7436553015750178
 31
0.0
  0
ARC
  5
1097A
  8
0
 10
566.5977878388622457
 20
88.9185997028778559
 30
0.0
 40
0.012329182141412
 50
18.0260571989522695
 51
69.9507067869638917
  0
LINE
  5
1097B
  8
0
 10
565.3973207446963443
 20
88.7241216868771119
 30
0.0
 11
565.397290222705692
 21
88.9758862970649886
 31
0.0
  0
ARC
  5
1097C
  8
0
 10
566.0719623981715358
 20
88.4182491502702277
 30
0.0
 40
0.5018022586984385
 50
42.3272811337996515
 51
137.5798343973804947
  0
ARC
  5
1097D
  8
0
 10
565.7345566678601472
 20
88.7403183480703746
 30
0.0
 40
0.0338803496105067
 50
91.2210460444609055
 51
148.7232898545780984
  0
ARC
  5
1097E
  8
0
 10
565.6653436986778161
 20
88.8899295794356021
 30
0.0
 40
0.1380101497128975
 50
279.6680966481292785
 51
285.1976282561548146
  0
ARC
  5
1097F
  8
0
 10
565.6982028827136446
 20
88.7761292446646593
 30
0.0
 40
0.0196654737043577
 50
279.7197956040361078
 51
292.0957252198866172
  0
ARC
  5
10980
  8
0
 10
566.4152741738919303
 20
88.7461914067427386
 30
0.0
 40
0.0280047729659478
 50
59.2890482181632379
 51
91.0997678864048908
  0
LINE
  5
10981
  8
0
 10
565.733834689002947
 20
88.7741910042430789
 30
0.0
 11
566.4147366673065562
 21
88.7741910209462475
 31
0.0
  0
ARC
  5
10982
  8
0
 10
565.9996524287056445
 20
88.3796760038482319
 30
0.0
 40
0.531495414397825
 50
92.6549074921689595
 51
135.9877929804505072
  0
ARC
  5
10983
  8
0
 10
565.9983868650883778
 20
88.363111816508038
 30
0.0
 40
0.5784179152965149
 50
67.8011473771231152
 51
138.786903881687806
  0
LINE
  5
10984
  8
0
 10
565.9012272318066152
 20
90.0804634053462365
 30
0.0
 11
565.9012272718073291
 21
89.8836129696454975
 31
0.0
  0
LINE
  5
10985
  8
0
 10
566.0980776255064484
 20
90.0804634053462365
 30
0.0
 11
566.0980776655072759
 21
89.8836130096462114
 31
0.0
  0
LINE
  5
10986
  8
0
 10
565.9012272350065587
 20
90.0647153739462567
 30
0.0
 11
566.0980776287066192
 21
90.0647154139469706
 31
0.0
  0
LINE
  5
10987
  8
0
 10
566.0980776301172455
 20
90.0577733053462453
 30
0.0
 11
565.9012272364171849
 21
90.0577732653455456
 31
0.0
  0
LINE
  5
10988
  8
0
 10
565.9012272451490162
 20
90.0148029007462611
 30
0.0
 11
566.098077638848963
 21
90.0148029007462611
 31
0.0
  0
LINE
  5
10989
  8
0
 10
565.9012272673513735
 20
89.9055407352462481
 30
0.0
 11
566.0980776255064484
 21
89.9055407352462481
 31
0.0
  0
ARC
  5
1098B
  8
0
 10
565.4014951006151932
 20
88.91861340146977
 30
0.0
 40
0.0123042089261323
 50
109.9556519396460033
 51
160.1612613627252983
  0
LINE
  5
1098C
  8
0
 10
556.8194404430679469
 20
85.9367626179462434
 30
0.0
 11
556.772200430476687
 21
85.9367626179462434
 31
0.0
  0
LINE
  5
1098D
  8
0
 10
556.8194404430679469
 20
87.5548728542462555
 30
0.0
 11
556.772200430476687
 21
87.5548728542462555
 31
0.0
  0
ENDSEC
  0
EOF
