  0
SECTION
  2
HEADER
  9
$ACADVER
  1
AC1009
  9
$INSBASE
 10
35.2951957543924379
 20
4.6357496133300229
 30
0.0
  9
$EXTMIN
 10
32.8702061898302205
 20
4.2814189046300264
 30
0.0
  9
$EXTMAX
 10
35.8624640222302631
 20
14.1534029679617905
 30
0.0
  9
$LIMMIN
 10
0.0
 20
0.0
  9
$LIMMAX
 10
11.6929133858000007
 20
8.2677165353999982
  9
$ORTHOMODE
 70
     0
  9
$REGENMODE
 70
     1
  9
$FILLMODE
 70
     1
  9
$QTEXTMODE
 70
     0
  9
$MIRRTEXT
 70
     0
  9
$DRAGMODE
 70
     2
  9
$LTSCALE
 40
0.6431102362
  9
$OSMODE
 70
  4095
  9
$ATTMODE
 70
     1
  9
$TEXTSIZE
 40
0.2
  9
$TRACEWID
 40
0.05
  9
$TEXTSTYLE
  7
STANDARD
  9
$CLAYER
  8
DEFPOINTS
  9
$CELTYPE
  6
BYLAYER
  9
$CECOLOR
 62
   256
  9
$DIMSCALE
 40
1.0
  9
$DIMASZ
 40
0.1875
  9
$DIMEXO
 40
0.0625
  9
$DIMDLI
 40
0.4443307087
  9
$DIMRND
 40
0.0
  9
$DIMDLE
 40
0.0
  9
$DIMEXE
 40
0.125
  9
$DIMTP
 40
0.0
  9
$DIMTM
 40
0.0
  9
$DIMTXT
 40
1.0
  9
$DIMCEN
 40
0.1052362205
  9
$DIMTSZ
 40
0.0
  9
$DIMTOL
 70
     0
  9
$DIMLIM
 70
     0
  9
$DIMTIH
 70
     1
  9
$DIMTOH
 70
     1
  9
$DIMSE1
 70
     0
  9
$DIMSE2
 70
     0
  9
$DIMTAD
 70
     0
  9
$DIMZIN
 70
     0
  9
$DIMBLK
  1

  9
$DIMASO
 70
     1
  9
$DIMSHO
 70
     1
  9
$DIMPOST
  1
\X
  9
$DIMAPOST
  1

  9
$DIMALT
 70
     1
  9
$DIMALTD
 70
     2
  9
$DIMALTF
 40
25.3999999999999986
  9
$DIMLFAC
 40
1.0
  9
$DIMTOFL
 70
     0
  9
$DIMTVP
 40
0.0
  9
$DIMTIX
 70
     0
  9
$DIMSOXD
 70
     0
  9
$DIMSAH
 70
     0
  9
$DIMBLK1
  1

  9
$DIMBLK2
  1

  9
$DIMSTYLE
  2
STANDARD
  9
$DIMCLRD
 70
     0
  9
$DIMCLRE
 70
     0
  9
$DIMCLRT
 70
     0
  9
$DIMTFAC
 40
1.0
  9
$DIMGAP
 40
0.09
  9
$LUNITS
 70
     2
  9
$LUPREC
 70
     4
  9
$SKETCHINC
 40
0.1
  9
$FILLETRAD
 40
0.0
  9
$AUNITS
 70
     0
  9
$AUPREC
 70
     0
  9
$MENU
  1
.
  9
$ELEVATION
 40
0.0
  9
$PELEVATION
 40
0.0
  9
$THICKNESS
 40
0.0
  9
$LIMCHECK
 70
     0
  9
$BLIPMODE
 70
     0
  9
$CHAMFERA
 40
0.0
  9
$CHAMFERB
 40
0.0
  9
$SKPOLY
 70
     0
  9
$TDCREATE
 40
2457865.4813194437883794
  9
$TDUPDATE
 40
2459919.4870949080213904
  9
$TDINDWG
 40
0.1404618866
  9
$TDUSRTIMER
 40
0.1404618866
  9
$USRTIMER
 70
     1
  9
$ANGBASE
 50
0.0
  9
$ANGDIR
 70
     0
  9
$PDMODE
 70
     3
  9
$PDSIZE
 40
0.3125
  9
$PLINEWID
 40
0.0
  9
$COORDS
 70
     1
  9
$SPLFRAME
 70
     0
  9
$SPLINETYPE
 70
     6
  9
$SPLINESEGS
 70
     8
  9
$ATTDIA
 70
     1
  9
$ATTREQ
 70
     1
  9
$HANDLING
 70
     1
  9
$HANDSEED
  5
4FEF
  9
$SURFTAB1
 70
     6
  9
$SURFTAB2
 70
     6
  9
$SURFTYPE
 70
     6
  9
$SURFU
 70
     6
  9
$SURFV
 70
     6
  9
$UCSNAME
  2

  9
$UCSORG
 10
0.0
 20
0.0
 30
0.0
  9
$UCSXDIR
 10
1.0
 20
0.0
 30
0.0
  9
$UCSYDIR
 10
0.0
 20
1.0
 30
0.0
  9
$PUCSNAME
  2

  9
$PUCSORG
 10
0.0
 20
0.0
 30
0.0
  9
$PUCSXDIR
 10
1.0
 20
0.0
 30
0.0
  9
$PUCSYDIR
 10
0.0
 20
1.0
 30
0.0
  9
$USERI1
 70
     0
  9
$USERI2
 70
     0
  9
$USERI3
 70
     0
  9
$USERI4
 70
     0
  9
$USERI5
 70
     0
  9
$USERR1
 40
0.0
  9
$USERR2
 40
0.0
  9
$USERR3
 40
0.0
  9
$USERR4
 40
0.0
  9
$USERR5
 40
0.0
  9
$WORLDVIEW
 70
     1
  9
$SHADEDGE
 70
     3
  9
$SHADEDIF
 70
    70
  9
$TILEMODE
 70
     1
  9
$MAXACTVP
 70
    48
  9
$PLIMCHECK
 70
     0
  9
$PEXTMIN
 10
1.0000000000000000E+20
 20
1.0000000000000000E+20
 30
1.0000000000000000E+20
  9
$PEXTMAX
 10
-1.0000000000000000E+20
 20
-1.0000000000000000E+20
 30
-1.0000000000000000E+20
  9
$PLIMMIN
 10
0.0
 20
0.0
  9
$PLIMMAX
 10
12.0
 20
9.0
  9
$UNITMODE
 70
     0
  9
$VISRETAIN
 70
     1
  9
$PLINEGEN
 70
     0
  9
$PSLTSCALE
 70
     1
  0
ENDSEC
  0
SECTION
  2
TABLES
  0
TABLE
  2
VPORT
 70
     1
  0
VPORT
  2
*ACTIVE
 70
     0
 10
0.0
 20
0.0
 11
1.0
 21
1.0
 12
35.293776992318918
 22
4.6340840192232866
 13
0.0
 23
0.0
 14
1.0
 24
1.0
 15
0.0
 25
0.0
 16
0.0
 26
0.0
 36
1.0
 17
0.0
 27
0.0
 37
0.0
 40
0.0268425351768395
 41
2.5251322751322749
 42
50.0
 43
0.0
 44
0.0
 50
0.0
 51
0.0
 71
     0
 72
   100
 73
     1
 74
     1
 75
     0
 76
     0
 77
     0
 78
     0
  0
ENDTAB
  0
TABLE
  2
LTYPE
 70
     2
  0
LTYPE
  2
CONTINUOUS
 70
     0
  3
Solid line
 72
    65
 73
     0
 40
0.0
  0
LTYPE
  2
PHANTOM2
 70
     0
  3
___ _ _ ___ _ _ ___ _ _ ___ _ _
 72
    65
 73
     6
 40
1.25
 49
0.625
 49
-0.125
 49
0.125
 49
-0.125
 49
0.125
 49
-0.125
  0
ENDTAB
  0
TABLE
  2
LAYER
 70
     2
  0
LAYER
  2
0
 70
     0
 62
     7
  6
CONTINUOUS
  0
LAYER
  2
DEFPOINTS
 70
     0
 62
     7
  6
CONTINUOUS
  0
ENDTAB
  0
TABLE
  2
STYLE
 70
     1
  0
STYLE
  2
STANDARD
 70
     0
 40
0.0
 41
0.8
 50
0.0
 71
     0
 42
0.2
  3
txt
  4

  0
ENDTAB
  0
TABLE
  2
VIEW
 70
     0
  0
ENDTAB
  0
TABLE
  2
UCS
 70
     0
  0
ENDTAB
  0
TABLE
  2
APPID
 70
     7
  0
APPID
  2
ACAD
 70
     0
  0
APPID
  2
ACAD_MLEADERVER
 70
     0
  0
APPID
  2
ACAD_NAV_VCDISPLAY
 70
     0
  0
APPID
  2
ACAD_EXEMPT_FROM_CAD_STANDARDS
 70
     0
  0
APPID
  2
ACAD_DSTYLE_DIMJAG
 70
     0
  0
APPID
  2
ACAD_DSTYLE_DIMTALN
 70
     0
  0
APPID
  2
ACDBATTR
 70
     0
  0
ENDTAB
  0
TABLE
  2
DIMSTYLE
 70
     1
  0
DIMSTYLE
  2
STANDARD
 70
     0
  3

  4

  5

  6

  7

 40
1.0
 41
0.1875
 42
0.0625
 43
0.38
 44
0.125
 45
0.0
 46
0.0
 47
1.5
 48
1.5
140
0.15625
141
0.09
142
0.0
143
25.3999999999999986
144
1.0
145
0.0
146
1.0
147
0.09
 71
     0
 72
     0
 73
     1
 74
     1
 75
     0
 76
     0
 77
     0
 78
     4
170
     0
171
     2
172
     0
173
     0
174
     0
175
     0
176
     0
177
     0
178
     0
  0
ENDTAB
  0
ENDSEC
  0
SECTION
  2
BLOCKS
  0
BLOCK
  8
0
  2
$MODEL_SPACE
 70
     0
 10
0.0
 20
0.0
 30
0.0
  3
$MODEL_SPACE
  1

  0
ENDBLK
  5
21
  8
0
  0
BLOCK
 67
     1
  8
0
  2
$PAPER_SPACE
 70
     0
 10
0.0
 20
0.0
 30
0.0
  3
$PAPER_SPACE
  1

  0
ENDBLK
  5
1D
 67
     1
  8
0
  0
BLOCK
  8
0
  2
_FILLED
 70
     0
 10
0.0
 20
0.0
 30
0.0
  3
_FILLED
  1

  0
SOLID
  5
3EAA
  8
0
  6
BYBLOCK
 62
     0
 10
0.0
 20
0.0
 30
0.0
 11
-1.0
 21
0.1666666667
 31
0.0
 12
-1.0
 22
-0.1666666667
 32
0.0
 13
-1.0
 23
-0.1666666667
 33
0.0
  0
ENDBLK
  5
3EAB
  8
0
  6
BYBLOCK
 62
     0
  0
ENDSEC
  0
SECTION
  2
ENTITIES
  0
ATTDEF
  5
25F6
  8
DEFPOINTS
 10
35.2927900527759633
 20
4.6366216113727878
 30
0.0
 40
0.001
  1
HANDSHOWER 
  3

  2
PRODUCT
 70
     0
1001
ACDBATTR
1070
     0
1070
     1
  0
ATTDEF
  5
25F7
  8
DEFPOINTS
 10
35.2927900527759633
 20
4.638288278039453
 30
0.0
 40
0.001
  1
AWAKEN 
  3

  2
TRADENAME
 70
     0
1001
ACDBATTR
1070
     0
1070
     1
  0
ATTDEF
  5
25F8
  8
DEFPOINTS
 10
35.2927900527759633
 20
4.639954944706119
 30
0.0
 40
0.001
  1
K-72415-Y
  3

  2
MODELNUMBER
 70
     0
1001
ACDBATTR
1070
     0
1070
     1
  0
LINE
  5
4B12
  8
0
 10
33.8696196076573131
 20
14.1534029679617905
 30
0.0
 11
32.8788958100302011
 21
13.65911441693002
 31
0.0
  0
LINE
  5
4B13
  8
0
 10
34.8082863628302235
 20
4.6357496133300229
 30
0.0
 11
35.7821051460301973
 21
4.6357496133300229
 31
0.0
  0
LINE
  5
4B14
  8
0
 10
35.8267952630302204
 20
10.3119264998300206
 30
0.0
 11
35.8187530654302009
 21
10.3077398365300201
 31
0.0
  0
POLYLINE
  5
4B15
  8
0
 66
     1
 10
0.0
 20
0.0
 30
0.0
  0
VERTEX
  5
4FEA
  8
0
 10
34.4981613588302096
 20
9.5665512541744526
 30
0.0
  0
VERTEX
  5
4FEB
  8
0
 10
34.4981436489302098
 20
9.7957618497300238
 30
0.0
  0
VERTEX
  5
4FEC
  8
0
 10
34.4980969508302167
 20
10.0329056943300206
 30
0.0
  0
VERTEX
  5
4FED
  8
0
 10
34.4980417075061609
 20
10.2441283250558897
 30
0.0
  0
SEQEND
  5
4FEE
  8
0
  0
LINE
  5
4B16
  8
0
 10
35.8268782650302171
 20
10.3120357340300206
 30
0.0
 11
35.8267952630302204
 21
10.3119264998300206
 31
0.0
  0
LINE
  5
4B17
  8
0
 10
35.2983474442302168
 20
4.3702386260582742
 30
0.0
 11
35.2983474442302168
 21
4.3107084554480997
 31
0.0
  0
LINE
  5
4B18
  8
0
 10
35.3410948845302073
 20
4.3351627885355368
 30
0.0
 11
35.3410948845302073
 21
4.3481677820678248
 31
0.0
  0
LINE
  5
4B19
  8
0
 10
35.8624640222302276
 20
10.4138613383300207
 30
0.0
 11
35.8268782650302171
 21
10.3120357340300206
 31
0.0
  0
LINE
  5
4B1A
  8
0
 10
35.8018000981302009
 20
10.2798117542300194
 30
0.0
 11
35.8018000981302009
 21
4.6554496133300241
 31
0.0
  0
LINE
  5
4B1B
  8
0
 10
33.972997865730207
 20
14.1223194262703196
 30
0.0
 11
33.8696196076573131
 21
14.1534029679617905
 31
0.0
  0
ARC
  5
4B1C
  8
0
 10
-3.6340009160207032
 20
-7.3740872819999641
 30
0.0
 40
43.3172235806726604
 50
24.2452827464162617
 51
29.7525678549619492
  0
ARC
  5
4B1D
  8
0
 10
35.8332977466531588
 20
10.2798013403421304
 30
0.0
 40
0.0314978556979114
 50
117.659355759399304
 51
180.003952790449091
  0
ARC
  5
4B1E
  8
0
 10
32.9245677057666626
 20
13.6294680323769892
 30
0.0
 40
0.0544502541520907
 50
147.0117295863281868
 51
176.7284616219641862
  0
ARC
  5
4B1F
  8
0
 10
34.1103768887364822
 20
14.1289288373117596
 30
0.0
 40
1.33581064996525
 50
201.8127655250970918
 51
205.6537593324059969
  0
LINE
  5
4B20
  8
0
 10
34.8383428646302207
 20
9.5668257448744534
 30
0.0
 11
34.8383085100802177
 21
9.50449322737445
 31
0.0
  0
ARC
  5
4B21
  8
0
 10
34.8264696713876631
 20
9.5049606530727608
 30
0.0
 40
0.0118480626421361
 50
269.6241803862926076
 51
357.7389998092314158
  0
ARC
  5
4B22
  8
0
 10
34.9580139610619867
 20
42.1007902006371921
 30
0.0
 40
32.6079430026068096
 50
269.2301863084214233
 51
269.7687248840450138
  0
ARC
  5
4B23
  8
0
 10
34.5202054260321418
 20
9.5174883926313552
 30
0.0
 40
0.0217
 50
180.401175113671087
 51
269.2301863083673084
  0
LINE
  5
4B24
  8
0
 10
34.4985059579574695
 20
9.5173364542353909
 30
0.0
 11
34.4981613588302096
 21
9.5665512541744526
 31
0.0
  0
ARC
  5
4B25
  8
0
 10
34.0431015630057274
 20
9.5588024301099104
 30
0.0
 40
0.7952817388943627
 50
0.577803114898668
 51
22.9546558621925207
  0
ARC
  5
4B26
  8
0
 10
34.794739443967643
 20
9.8779185824224278
 30
0.0
 40
0.0213045873973345
 50
136.717183207632786
 51
204.853399696487088
  0
ARC
  5
4B27
  8
0
 10
-2.9876773857271379
 20
-5.9687718778554064
 30
0.0
 40
40.8656411892291729
 50
25.9545443957731798
 51
28.6627731317314804
  0
ARC
  5
4B28
  8
0
 10
-2613.622297874576816
 20
5.0259666836724044
 30
0.0
 40
2648.4874673333779356
 50
0.0123655470295836
 51
0.0995073558401195
  0
ARC
  5
4B29
  8
0
 10
34.319351737738117
 20
5.6046549345286918
 30
0.0
 40
0.545802130889237
 50
329.5180864407884087
 51
359.2553898850266023
  0
ARC
  5
4B2A
  8
0
 10
34.8088196464863415
 20
5.321120602882476
 30
0.0
 40
0.0202316136060697
 50
160.7586878187711079
 51
179.9569178324344136
  0
LINE
  5
4B2B
  8
0
 10
34.78858803859967
 20
5.321135815550714
 30
0.0
 11
34.7885914106549308
 21
4.6554495135390432
 31
0.0
  0
ARC
  5
4B2C
  8
0
 10
-45.462328837604133
 20
-29.4505835277239605
 30
0.0
 40
89.3690184959866372
 50
26.5798259564956183
 51
27.5729991377636914
  0
ARC
  5
4B2D
  8
0
 10
-1.1738240511759339
 20
-7.433289179862907
 30
0.0
 40
39.9099729984029921
 50
25.7294654444847701
 51
26.7611582867748012
  0
ARC
  5
4B2E
  8
0
 10
-72.717312070598183
 20
-42.5761727007666622
 30
0.0
 40
120.7435457780647994
 50
25.9776810521282684
 51
28.0235888588537989
  0
ARC
  5
4B2F
  8
0
 10
34.1897077896219415
 20
9.5654859039808535
 30
0.0
 40
0.6741596298356402
 50
5.1221664835989698
 51
29.0194391908774705
  0
LINE
  5
4B30
  8
0
 10
34.9537193765302234
 20
4.2814189046300264
 30
0.0
 11
35.6366721324302205
 21
4.2814189046300264
 31
0.0
  0
LINE
  5
4B31
  8
0
 10
34.8082914106546824
 20
4.6357496133300229
 30
0.0
 11
35.7821000981302006
 21
4.6357496133300229
 31
0.0
  0
ARC
  5
4B32
  8
0
 10
35.7821000981302006
 20
4.6554496133300241
 30
0.0
 40
0.0197
 50
270.0
 51
0.0
  0
ARC
  5
4B33
  8
0
 10
34.8082914106546824
 20
4.6554496133300241
 30
0.0
 40
0.0197
 50
180.0002902336040052
 51
270.0
  0
LINE
  5
4B34
  8
0
 10
34.8899359329302285
 20
4.3868465440300239
 30
0.0
 11
34.9339393116302119
 21
4.3642361458300227
 31
0.0
  0
LINE
  5
4B35
  8
0
 10
34.8899200968302168
 20
4.5296881938300224
 30
0.0
 11
34.9339393116302119
 21
4.5070904110300241
 31
0.0
  0
LINE
  5
4B36
  8
0
 10
34.8899359312302195
 20
4.6011322649300261
 30
0.0
 11
34.9339393116302119
 21
4.578520580830026
 31
0.0
  0
LINE
  5
4B37
  8
0
 10
34.8898214119302281
 20
4.4582790103300196
 30
0.0
 11
34.9339393116302119
 21
4.4356012893300258
 31
0.0
  0
LINE
  5
4B38
  8
0
 10
35.7003830126302333
 20
4.5796034715300236
 30
0.0
 11
35.6564002326301974
 21
4.6025380985300224
 31
0.0
  0
LINE
  5
4B39
  8
0
 10
35.7002895467301968
 20
4.4367461436300211
 30
0.0
 11
35.6562621463302207
 21
4.4593898633300197
 31
0.0
  0
LINE
  5
4B3A
  8
0
 10
35.7002876724302212
 20
4.508193481630026
 30
0.0
 11
35.6562621463302207
 21
4.5308164722300246
 31
0.0
  0
LINE
  5
4B3B
  8
0
 10
34.9537193765302234
 20
4.2814189046300264
 30
0.0
 11
34.9340343371302211
 21
4.3011039440300207
 31
0.0
  0
LINE
  5
4B3C
  8
0
 10
34.889937121030222
 20
4.3868459248300233
 30
0.0
 11
34.8893574077302233
 21
4.387448346630026
 31
0.0
  0
LINE
  5
4B3D
  8
0
 10
34.8898215740302078
 20
4.4582789257300242
 30
0.0
 11
34.8892555165302269
 21
4.4588677009300239
 31
0.0
  0
LINE
  5
4B3E
  8
0
 10
34.8899371189302201
 20
4.601131646030022
 30
0.0
 11
34.8893574045302231
 21
4.6017340670300264
 31
0.0
  0
LINE
  5
4B3F
  8
0
 10
34.8893428328302093
 20
4.4004537680300224
 30
0.0
 11
34.8893573511302293
 21
4.3874483760300249
 31
0.0
  0
LINE
  5
4B40
  8
0
 10
34.8893428331302289
 20
4.6147394748300199
 30
0.0
 11
34.8893573507302293
 21
4.6017340949300261
 31
0.0
  0
LINE
  5
4B41
  8
0
 10
34.8893361480302175
 20
4.5432888202300212
 30
0.0
 11
34.8893496472302118
 21
4.530283273430026
 31
0.0
  0
LINE
  5
4B42
  8
0
 10
34.8892552980302071
 20
4.471875046830025
 30
0.0
 11
34.8892548349302274
 21
4.4588680554300204
 31
0.0
  0
LINE
  5
4B43
  8
0
 10
34.9339393116302119
 20
4.578520580830026
 30
0.0
 11
34.9339393116302119
 21
4.566861971230022
 31
0.0
  0
LINE
  5
4B44
  8
0
 10
34.9339393116302119
 20
4.507088184430021
 30
0.0
 11
34.9339393116302119
 21
4.4954672735300214
 31
0.0
  0
LINE
  5
4B45
  8
0
 10
34.9339393116302119
 20
4.4356012893300258
 30
0.0
 11
34.9339393116302119
 21
4.4240234183300258
 31
0.0
  0
LINE
  5
4B46
  8
0
 10
34.9339393116302119
 20
4.3642348307300232
 30
0.0
 11
34.9340343371302211
 21
4.3011039440300207
 31
0.0
  0
LINE
  5
4B47
  8
0
 10
35.6562621463302207
 20
4.6138872390300243
 30
0.0
 11
35.6562621463302207
 21
4.6022733222300216
 31
0.0
  0
LINE
  5
4B48
  8
0
 10
35.6562621463302207
 20
4.5424147218300241
 30
0.0
 11
35.6562621463302207
 21
4.5308177440300197
 31
0.0
  0
LINE
  5
4B49
  8
0
 10
35.6562621463302207
 20
4.4710541503300218
 30
0.0
 11
35.6562621463302207
 21
4.459392214730026
 31
0.0
  0
LINE
  5
4B4A
  8
0
 10
35.6562621463302207
 20
4.3996014855300229
 30
0.0
 11
35.6562621463302207
 21
4.387928498532804
 31
0.0
  0
LINE
  5
4B4B
  8
0
 10
35.7009533825302015
 20
4.3517200135800236
 30
0.0
 11
35.7009533825302015
 21
4.364725290680024
 31
0.0
  0
LINE
  5
4B4C
  8
0
 10
35.7009466231302213
 20
4.5660109155300246
 30
0.0
 11
35.7009461599302327
 21
4.579017900730026
 31
0.0
  0
LINE
  5
4B4D
  8
0
 10
35.7008518108302226
 20
4.4231404123300244
 30
0.0
 11
35.700865309930208
 21
4.4361459651300272
 31
0.0
  0
LINE
  5
4B4E
  8
0
 10
35.7008441070302069
 20
4.4945912355300273
 30
0.0
 11
35.7008586250302073
 21
4.5075966214300207
 31
0.0
  0
LINE
  5
4B4F
  8
0
 10
34.8899192489302266
 20
4.5438928261300218
 30
0.0
 11
34.889340605530208
 21
4.543291140430024
 31
0.0
  0
LINE
  5
4B50
  8
0
 10
35.6366721324302205
 20
4.2814189046300264
 30
0.0
 11
35.6563571718302299
 21
4.3011039440300207
 31
0.0
  0
LINE
  5
4B51
  8
0
 10
34.9290341891609728
 20
4.6357496133300229
 30
0.0
 11
34.8899137857302222
 21
4.6153363345300242
 31
0.0
  0
LINE
  5
4B52
  8
0
 10
34.9339393116302119
 20
4.566861971230022
 30
0.0
 11
34.8899192502616131
 21
4.5438928275144512
 31
0.0
  0
LINE
  5
4B53
  8
0
 10
34.9339393116302119
 20
4.4240234183300258
 30
0.0
 11
34.8899137853302079
 21
4.4010506286300197
 31
0.0
  0
LINE
  5
4B54
  8
0
 10
34.9339393116302119
 20
4.4954672735300214
 30
0.0
 11
34.8898184433302276
 21
4.4724606157300251
 31
0.0
  0
LINE
  5
4B55
  8
0
 10
35.6562621463302207
 20
4.5424147218300241
 30
0.0
 11
35.7003800442302293
 21
4.5654218687300228
 31
0.0
  0
LINE
  5
4B56
  8
0
 10
35.6562621463302207
 20
4.6138872390300243
 30
0.0
 11
35.6982065438792802
 21
4.6357496133300229
 31
0.0
  0
LINE
  5
4B57
  8
0
 10
35.6562621463302207
 20
4.4710541503300218
 30
0.0
 11
35.7002655259302131
 21
4.4939894045300219
 31
0.0
  0
LINE
  5
4B58
  8
0
 10
35.6562621463302207
 20
4.3996014855300229
 30
0.0
 11
35.700281361530223
 21
4.4225453325300244
 31
0.0
  0
ARC
  5
4B59
  8
0
 10
35.0148668755315668
 20
3.1067934877276322
 30
0.0
 40
1.4328590069692579
 50
61.3918748817228916
 51
63.4080660059108467
  0
ARC
  5
4B5A
  8
0
 10
35.5547488397568827
 20
4.5746995801717993
 30
0.0
 40
0.2666376857179267
 50
292.4001414802415866
 51
303.2522881464608986
  0
LINE
  5
4B5B
  8
0
 10
34.8899137857302222
 20
4.6153363345300242
 30
0.0
 11
34.8893477342302276
 21
4.614742026430025
 31
0.0
  0
ARC
  5
4B5C
  8
0
 10
34.9093363725842778
 20
4.5410800467420422
 30
0.0
 40
0.0768099961288308
 50
94.7323461516309635
 51
104.4419272603097966
  0
ARC
  5
4B5D
  8
0
 10
35.1565722792099677
 20
1.485924922197309
 30
0.0
 40
3.1419523492987218
 50
90.5248798833134032
 51
94.6291187431952636
  0
ARC
  5
4B5E
  8
0
 10
39.4412525633383098
 20
-141.4537429426698907
 30
0.0
 40
146.1451580061882964
 50
91.5814376113608546
 51
91.691326083895305
  0
ARC
  5
4B5F
  8
0
 10
34.9085136561842901
 20
4.5273512241420413
 30
0.0
 40
0.0768099961288308
 50
94.7323461516309635
 51
104.4419272603097966
  0
ARC
  5
4B60
  8
0
 10
35.155749562809973
 20
1.472196099597308
 30
0.0
 40
3.1419523492987218
 50
90.5248798833134032
 51
94.6291187431952636
  0
ARC
  5
4B61
  8
0
 10
39.4404298469383221
 20
-141.4674717652698916
 30
0.0
 40
146.1451580061882964
 50
91.5637717042241377
 51
91.691326083895305
  0
ARC
  5
4B62
  8
0
 10
35.117645475579252
 20
15.7529723766335703
 30
0.0
 40
11.1347418134487892
 50
271.7217188237008827
 51
272.6905230184981974
  0
ARC
  5
4B63
  8
0
 10
35.6379800384843293
 20
4.9191512672965301
 30
0.0
 40
0.2886558704492275
 50
270.4652505101886959
 51
280.9486957888130974
  0
ARC
  5
4B64
  8
0
 10
34.9084924534842784
 20
4.4689059494420418
 30
0.0
 40
0.0768099961288308
 50
94.7323461516309635
 51
104.4419272603097966
  0
ARC
  5
4B65
  8
0
 10
35.1557283601099826
 20
1.413750824897309
 30
0.0
 40
3.1419523492987218
 50
90.5248798833134032
 51
94.6291187431952636
  0
ARC
  5
4B66
  8
0
 10
39.4404086442383175
 20
-141.5259170399698974
 30
0.0
 40
146.1451580061882964
 50
91.5637717042241377
 51
91.691326083895305
  0
ARC
  5
4B67
  8
0
 10
35.1176242728792332
 20
15.6945271019335699
 30
0.0
 40
11.1347418134487892
 50
271.7217188237008827
 51
272.6905230184981974
  0
ARC
  5
4B68
  8
0
 10
35.62511895134611
 20
5.0831167962901587
 30
0.0
 40
0.5112826672511199
 50
271.7017884344328991
 51
278.1108188394367176
  0
ARC
  5
4B69
  8
0
 10
35.6955022263505271
 20
4.5844015256952018
 30
0.0
 40
0.0076563588334063
 50
283.2332439464083222
 51
315.3191295002434913
  0
ARC
  5
4B6A
  8
0
 10
34.6997134080617968
 20
4.3474942076546581
 30
0.0
 40
0.2633889628913332
 50
43.7667688400429924
 51
43.9467151204875393
  0
ARC
  5
4B6B
  8
0
 10
34.8920992482255201
 20
4.4697035766526731
 30
0.0
 40
0.0035781748761658
 50
129.5998002821208104
 51
142.6368126000303107
  0
ARC
  5
4B6C
  8
0
 10
34.8624028758250688
 20
4.426795849361131
 30
0.0
 40
0.0376784624459911
 50
315.6428867261981281
 51
316.8989263808481951
  0
ARC
  5
4B6D
  8
0
 10
35.6992501533738107
 20
4.5779498112523491
 30
0.0
 40
0.0020043087017052
 50
32.2013824007934915
 51
55.6285211467208924
  0
ARC
  5
4B6E
  8
0
 10
36.1913615029374682
 20
4.093668081752579
 30
0.0
 40
0.6808924342047551
 50
136.0753799841401133
 51
136.1441690765674934
  0
ARC
  5
4B6F
  8
0
 10
35.6997974585940767
 20
4.507153780251687
 30
0.0
 40
0.0011498619545093
 50
22.6515326572386506
 51
65.2596214161237782
  0
ARC
  5
4B70
  8
0
 10
35.6999166910327119
 20
4.4949035398141781
 30
0.0
 40
0.0009785879614666
 50
290.8089250443968012
 51
341.3892170174081002
  0
ARC
  5
4B71
  8
0
 10
35.6891035832574914
 20
4.4254389660631723
 30
0.0
 40
0.0159052835039596
 50
42.3123927159076629
 51
45.3087602914332379
  0
ARC
  5
4B72
  8
0
 10
35.8906624918428818
 20
4.240184288301843
 30
0.0
 40
0.2636304950985489
 50
136.0534546634507933
 51
136.2332354861775059
  0
ARC
  5
4B73
  8
0
 10
34.9084118219842594
 20
4.3844848301420392
 30
0.0
 40
0.0768099961288308
 50
94.7323461516309635
 51
104.4419272603097966
  0
ARC
  5
4B74
  8
0
 10
35.1556477286099778
 20
1.3293297055973059
 30
0.0
 40
3.1419523492987218
 50
90.5248798833134032
 51
94.6291187431952636
  0
ARC
  5
4B75
  8
0
 10
39.4403280127383198
 20
-141.6103381592699009
 30
0.0
 40
146.1451580061882964
 50
91.5637717042241377
 51
91.691326083895305
  0
ARC
  5
4B76
  8
0
 10
35.1175436413792283
 20
15.61010598263357
 30
0.0
 40
11.1347418134487892
 50
271.7217188237008827
 51
272.6905230184981974
  0
ARC
  5
4B77
  8
0
 10
35.6379300423221466
 20
4.7753869415656602
 30
0.0
 40
0.2877575508412243
 50
270.4563810842948897
 51
282.6289119225259014
  0
ARC
  5
4B78
  8
0
 10
34.9090790938886926
 20
4.455303920116239
 30
0.0
 40
0.0768099961288308
 50
94.7323461516309635
 51
104.4419272603097966
  0
ARC
  5
4B79
  8
0
 10
35.1563150005144109
 20
1.4001487955715071
 30
0.0
 40
3.1419523492987218
 50
90.5248798833134032
 51
94.6291187431952636
  0
ARC
  5
4B7A
  8
0
 10
39.4409952846427316
 20
-141.539519069295693
 30
0.0
 40
146.1451580061882964
 50
91.5637717042241377
 51
91.691326083895305
  0
ARC
  5
4B7B
  8
0
 10
35.1182109132836615
 20
15.6809250726077707
 30
0.0
 40
11.1347418134487892
 50
271.7217188237008827
 51
272.6905230184981974
  0
ARC
  5
4B7C
  8
0
 10
35.641477138248149
 20
4.7963220954175974
 30
0.0
 40
0.2378652122807027
 50
269.8584236771479823
 51
284.4783037413690749
  0
ARC
  5
4B7D
  8
0
 10
34.908411603484268
 20
4.3974921760420393
 30
0.0
 40
0.0768099961288308
 50
94.7323461516309635
 51
104.4419272603097966
  0
ARC
  5
4B7E
  8
0
 10
35.1556475101099934
 20
1.3423370514973061
 30
0.0
 40
3.1419523492987218
 50
90.5248798833134032
 51
94.6291187431952636
  0
ARC
  5
4B7F
  8
0
 10
39.4403277942382999
 20
-141.5973308133698936
 30
0.0
 40
146.1451580061882964
 50
91.5637717042241377
 51
91.691326083895305
  0
ARC
  5
4B80
  8
0
 10
35.1175434228792369
 20
15.6231133285335702
 30
0.0
 40
11.1347418134487892
 50
271.7217188237008827
 51
272.6905230184981974
  0
ARC
  5
4B81
  8
0
 10
35.6250381013461208
 20
5.0117030228901562
 30
0.0
 40
0.5112826672511199
 50
271.7017884344328991
 51
278.1108188394367176
  0
ARC
  5
4B82
  8
0
 10
35.6954213763505095
 20
4.5129877522951993
 30
0.0
 40
0.0076563588334063
 50
283.2332439464083222
 51
315.3191295002434913
  0
ARC
  5
4B83
  8
0
 10
34.9085137131842771
 20
4.3130654758420413
 30
0.0
 40
0.0768099961288308
 50
94.7323461516309635
 51
104.4419272603097966
  0
ARC
  5
4B84
  8
0
 10
35.155749619809967
 20
1.257910351297308
 30
0.0
 40
3.1419523492987218
 50
90.5248798833134032
 51
94.6291187431952636
  0
ARC
  5
4B85
  8
0
 10
39.4404299039383091
 20
-141.6817575135698917
 30
0.0
 40
146.1451580061882964
 50
91.5637717042241377
 51
91.691326083895305
  0
ARC
  5
4B86
  8
0
 10
35.1176455325792531
 20
15.5386866283335703
 30
0.0
 40
11.1347418134487892
 50
271.7217188237008827
 51
272.6905230184981974
  0
ARC
  5
4B87
  8
0
 10
35.6379828180403067
 20
4.704818359236401
 30
0.0
 40
0.2886086901460297
 50
270.4647860579063945
 51
282.5818873563018769
  0
ARC
  5
4B88
  8
0
 10
34.9084991382842702
 20
4.3260708972420359
 30
0.0
 40
0.0768099961288308
 50
94.7323461516309635
 51
104.4419272603097966
  0
ARC
  5
4B89
  8
0
 10
35.1557350449099886
 20
1.270915772697311
 30
0.0
 40
3.1419523492987218
 50
90.5248798833134032
 51
94.6291187431952636
  0
ARC
  5
4B8A
  8
0
 10
39.4404153290383022
 20
-141.6687520921699104
 30
0.0
 40
146.1451580061882964
 50
91.5637717042241377
 51
91.691326083895305
  0
ARC
  5
4B8B
  8
0
 10
35.1176309576792391
 20
15.5516920497335693
 30
0.0
 40
11.1347418134487892
 50
271.7217188237008827
 51
272.6905230184981974
  0
ARC
  5
4B8C
  8
0
 10
35.6251256361461301
 20
4.9402817440901527
 30
0.0
 40
0.5112826672511199
 50
271.7017884344328991
 51
278.1108188394367176
  0
ARC
  5
4B8D
  8
0
 10
35.6955089111505117
 20
4.4415664734952029
 30
0.0
 40
0.0076563588334063
 50
283.2332439464083222
 51
314.3944805156681923
  0
ARC
  5
4B8E
  8
0
 10
34.8012983583141065
 20
3.355107123185721
 30
0.0
 40
1.130287468715065
 50
61.4728886646897621
 51
63.9117768646980622
  0
ARC
  5
4B8F
  8
0
 10
34.5036745543674215
 20
5.7494273451067981
 30
0.0
 40
1.6435988091209179
 50
298.9139590349508921
 51
300.6308036625929958
  0
LINE
  5
4B90
  8
0
 10
35.6563571717302068
 20
4.3281810163300243
 30
0.0
 11
35.6563571717302068
 21
4.3011039439300189
 31
0.0
  0
ARC
  5
4B91
  8
0
 10
35.0071205308048619
 20
18.3717014702082793
 30
0.0
 40
14.0275099704600699
 50
271.364257037226082
 51
272.6024830519403963
  0
ARC
  5
4B92
  8
0
 10
35.6397530990692033
 20
4.6689604831144642
 30
0.0
 40
0.3103309052461428
 50
270.7947549111910917
 51
281.3751162921398077
  0
ARC
  5
4B93
  8
0
 10
35.6784014045772366
 20
4.4148512330714063
 30
0.0
 40
0.0670416716232343
 50
268.7308607473710254
 51
289.6462629270387197
  0
ARC
  5
4B94
  8
0
 10
35.0381089707582021
 20
16.8294170740072317
 30
0.0
 40
12.4979274527408108
 50
271.3891515270835271
 51
272.9298403048387058
  0
ARC
  5
4B95
  8
0
 10
28.1581049550850402
 20
11.7818352255586998
 30
0.0
 40
5.0668904614680219
 50
18.2388929361641097
 51
20.4314001796879197
  0
ARC
  5
4B96
  8
0
 10
34.1719757600669496
 20
11.8785261620574296
 30
0.0
 40
0.4760028772711133
 50
202.8174304105770034
 51
207.2785554224018938
  0
ARC
  5
4B97
  8
0
 10
33.8750660624684485
 20
11.7536105179513708
 30
0.0
 40
0.1538859937173968
 50
192.7241543678024982
 51
202.817430410580414
  0
ARC
  5
4B98
  8
0
 10
33.7403459844183331
 20
11.7231903526613106
 30
0.0
 40
0.0157741336685405
 50
165.1730301040828977
 51
192.7241543678007076
  0
ARC
  5
4B99
  8
0
 10
33.7393845172279896
 20
11.7234448674795804
 30
0.0
 40
0.0147795498609997
 50
121.3603418572020018
 51
165.1730301040786912
  0
LINE
  5
4B9A
  8
0
 10
33.7316929629702997
 20
11.7360652908955192
 30
0.0
 11
33.7818864737603022
 21
11.7630425918672294
 31
0.0
  0
ARC
  5
4B9B
  8
0
 10
33.5843240694786971
 20
11.5779235861838696
 30
0.0
 40
0.2655356843020727
 50
26.8942715706395497
 51
37.1441290410292027
  0
ARC
  5
4B9C
  8
0
 10
33.5146129814895275
 20
11.5945629319275092
 30
0.0
 40
0.3159438486253768
 50
27.0532288994008887
 51
32.225866319861197
  0
ARC
  5
4B9D
  8
0
 10
33.6333109879990104
 20
11.6021418419565894
 30
0.0
 40
0.1399908709702603
 50
26.7943874702261908
 51
34.298589926750978
  0
ARC
  5
4B9E
  8
0
 10
33.7304576444628026
 20
11.6684069960124699
 30
0.0
 40
0.0223960432619965
 50
34.2992209983453478
 51
44.4208353857403395
  0
ARC
  5
4B9F
  8
0
 10
33.7424629000504197
 20
11.6801719661438401
 30
0.0
 40
0.0055870967181137
 50
44.4208353857769822
 51
57.1120041808978698
  0
ARC
  5
4BA0
  8
0
 10
33.7451070788726781
 20
11.6842611225913906
 30
0.0
 40
0.0007175092511611
 50
57.1120041807121623
 51
111.4145415186495995
  0
ARC
  5
4BA1
  8
0
 10
33.7452102847998674
 20
11.6844611672119694
 30
0.0
 40
0.0005935600035988
 50
127.9688808631328953
 51
172.1845316094104135
  0
ARC
  5
4BA2
  8
0
 10
33.7539799016301174
 20
11.6842624788200293
 30
0.0
 40
0.0093618336440673
 50
178.2897623024888105
 51
199.0765573487337008
  0
ARC
  5
4BA3
  8
0
 10
33.8618806393744478
 20
11.7205410937938108
 30
0.0
 40
0.1231978308978852
 50
198.6212289034912999
 51
208.0618676327796095
  0
ARC
  5
4BA4
  8
0
 10
34.1699353557202983
 20
11.8824383857499392
 30
0.0
 40
0.4760028772711133
 50
207.8096643211962089
 51
212.2707893330012894
  0
ARC
  5
4BA5
  8
0
 10
33.8975745309919319
 20
11.71045330551412
 30
0.0
 40
0.1538859937173968
 50
212.2707893330006073
 51
222.3640653758218946
  0
ARC
  5
4BA6
  8
0
 10
33.7955267018853434
 20
11.6173881323247894
 30
0.0
 40
0.0157741336685405
 50
222.3640653758218946
 51
249.9151896395165124
  0
ARC
  5
4BA7
  8
0
 10
33.795185151144068
 20
11.6164540338068107
 30
0.0
 40
0.0147795498609997
 50
249.9151896395165124
 51
293.7278778863973798
  0
LINE
  5
4BA8
  8
0
 10
33.8011323423149577
 20
11.6029238449217509
 30
0.0
 11
33.8519811257858407
 21
11.6286447413423293
 31
0.0
  0
ARC
  5
4BA9
  8
0
 10
33.5871093795460425
 20
11.5725830976407202
 30
0.0
 40
0.2655356843020727
 50
17.9440907025890084
 51
28.1939481729762313
  0
ARC
  5
4BAA
  8
0
 10
33.5608575468670267
 20
11.5058946811321707
 30
0.0
 40
0.3159438486253768
 50
22.8623534237760708
 51
28.0349908441896609
  0
ARC
  5
4BAB
  8
0
 10
33.8041194150293691
 20
11.60760226170283
 30
0.0
 40
0.0522831646512264
 50
6.7672037043330011
 51
23.7327702081825009
  0
ARC
  5
4BAC
  8
0
 10
33.8487719953634212
 20
11.6130435298764603
 30
0.0
 40
0.0073018735138627
 50
337.3990057139557166
 51
5.6552755292312957
  0
ARC
  5
4BAD
  8
0
 10
33.8538042616466797
 20
11.6112381028787706
 30
0.0
 40
0.0019803277503879
 50
275.3840623160502901
 51
329.6451698796112737
  0
ARC
  5
4BAE
  8
0
 10
33.8735852707306719
 20
11.6471637281211802
 30
0.0
 40
0.0426634566966164
 50
216.040925497265988
 51
242.6582547743830105
  0
ARC
  5
4BAF
  8
0
 10
33.6350051011479323
 20
11.5988935885868401
 30
0.0
 40
0.1399908711282217
 50
20.7896298189597388
 51
28.2938322882823314
  0
ARC
  5
4BB0
  8
0
 10
33.7449432343680371
 20
11.6406326638687894
 30
0.0
 40
0.0223960432619965
 50
10.6673843578739191
 51
20.7889987452889287
  0
ARC
  5
4BB1
  8
0
 10
33.7614616942130112
 20
11.6437441214475097
 30
0.0
 40
0.0055870967181137
 50
357.9762155627199718
 51
10.6673843578300005
  0
ARC
  5
4BB2
  8
0
 10
33.7663282442919979
 20
11.6435721550945495
 30
0.0
 40
0.0007175092511611
 50
303.6736782249748785
 51
357.976215562882885
  0
ARC
  5
4BB3
  8
0
 10
33.7665513539738811
 20
11.6435422990520401
 30
0.0
 40
0.0005935600035988
 50
242.9036881341785943
 51
287.1193388804617825
  0
ARC
  5
4BB4
  8
0
 10
33.7714074014599817
 20
11.6508473972202609
 30
0.0
 40
0.0093618336440673
 50
216.0116623948887877
 51
236.7984574411036931
  0
ARC
  5
4BB5
  8
0
 10
33.8629102627826128
 20
11.7185669178909198
 30
0.0
 40
0.1231978308978852
 50
207.0263521108448117
 51
216.4669908401104124
  0
ARC
  5
4BB6
  8
0
 10
33.2294463176737906
 20
11.3854228748605006
 30
0.0
 40
0.5596021019569619
 50
28.0252228263436507
 51
31.7678821773288185
  0
ARC
  5
4BB7
  8
0
 10
33.4600678301091818
 20
11.5627546556546399
 30
0.0
 40
0.2717582853553022
 50
25.5682698031893096
 51
29.6599070398664395
  0
ARC
  5
4BB8
  8
0
 10
31.7752189804871001
 20
10.7171278375085208
 30
0.0
 40
2.1593320493211352
 50
24.0505340180992988
 51
25.5474394847936885
  0
ARC
  5
4BB9
  8
0
 10
33.7046565282809922
 20
11.5747364245039908
 30
0.0
 40
0.0479891457032359
 50
6.5122351368431532
 51
27.8389998523097795
  0
ARC
  5
4BBA
  8
0
 10
34.0408664395419933
 20
11.7904518860151608
 30
0.0
 40
0.3591323464650185
 50
213.2088652144466892
 51
215.8189468223528138
  0
LINE
  5
4BBB
  8
0
 10
33.7470915692117401
 20
11.5971468106340403
 30
0.0
 11
33.7052453508469796
 21
11.5762517827476508
 31
0.0
  0
LINE
  5
4BBC
  8
0
 10
33.6962198016746868
 20
11.6972344384653102
 30
0.0
 11
33.6548556117492979
 21
11.6750012191486192
 31
0.0
  0
ARC
  5
4BBD
  8
0
 10
33.6622928665299028
 20
11.6624301458686901
 30
0.0
 40
0.0146063219902665
 50
120.6092606995500063
 51
142.636946314289105
  0
ARC
  5
4BBE
  8
0
 10
33.6617691451922099
 20
11.6638748982605396
 30
0.0
 40
0.0133391744862587
 50
146.2063769733381946
 51
186.2828526067555117
  0
ARC
  5
4BBF
  8
0
 10
33.752799069982963
 20
11.6937171720514996
 30
0.0
 40
0.1088853120153429
 50
196.7069941921415932
 51
206.0396990665560111
  0
ARC
  5
4BC0
  8
0
 10
34.3870364751275872
 20
11.9877884454102492
 30
0.0
 40
0.8079617027680566
 50
205.0322317140320934
 51
207.1662372258658138
  0
ARC
  5
4BC1
  8
0
 10
34.4315874993337374
 20
12.0085420111584291
 30
0.0
 40
0.8570756940478911
 50
207.0407804984131133
 51
208.9384346958730134
  0
ARC
  5
4BC2
  8
0
 10
33.8593111152638073
 20
11.6924155537066206
 30
0.0
 40
0.2032898508357634
 50
209.009504965205906
 51
213.1678235615397909
  0
ARC
  5
4BC3
  8
0
 10
33.700991924551289
 20
11.5888364889502604
 30
0.0
 40
0.014098207834788
 50
212.811217740579707
 51
246.6017034434302957
  0
ARC
  5
4BC4
  8
0
 10
33.6999169297712129
 20
11.5872678935577493
 30
0.0
 40
0.0122371062162519
 50
248.3047181652451059
 51
295.8127517861236129
  0
ARC
  5
4BC5
  8
0
 10
34.415253351274913
 20
11.4308928917757608
 30
0.0
 40
0.4760028772711133
 50
207.8096645919993932
 51
212.2707896038276942
  0
ARC
  5
4BC6
  8
0
 10
34.1428925273591801
 20
11.2589078102527207
 30
0.0
 40
0.1538859937173968
 50
212.2707896037896944
 51
222.36406564660561
  0
ARC
  5
4BC7
  8
0
 10
34.0408446986923181
 20
11.1658426365810701
 30
0.0
 40
0.0157741336685405
 50
222.36406564660561
 51
249.9151899103086123
  0
ARC
  5
4BC8
  8
0
 10
34.0405031479555973
 20
11.1649085380614803
 30
0.0
 40
0.0147795498609997
 50
249.9151899103086123
 51
293.7278781572039179
  0
LINE
  5
4BC9
  8
0
 10
34.0464503391906206
 20
11.1513783492044993
 30
0.0
 11
34.097299122540079
 21
11.1770992458654401
 31
0.0
  0
ARC
  5
4BCA
  8
0
 10
33.8324273765649366
 20
11.1210376009119702
 30
0.0
 40
0.2655356843020727
 50
17.9440909733833003
 51
28.1939484437585293
  0
ARC
  5
4BCB
  8
0
 10
33.8061755442010679
 20
11.0543491842793298
 30
0.0
 40
0.3159438486253768
 50
22.862353694572171
 51
28.0349911149880704
  0
ARC
  5
4BCC
  8
0
 10
34.0494374118827423
 20
11.1560567659997307
 30
0.0
 40
0.0522831646512264
 50
6.7672039751187842
 51
23.7327704789796208
  0
ARC
  5
4BCD
  8
0
 10
34.0940899921908667
 20
11.1614980343843904
 30
0.0
 40
0.0073018735138627
 50
337.3990059847434964
 51
5.6552758000241887
  0
ARC
  5
4BCE
  8
0
 10
34.0991222584832201
 20
11.1596926074104807
 30
0.0
 40
0.0019803277503879
 50
275.3840625868371035
 51
329.6451701504344101
  0
ARC
  5
4BCF
  8
0
 10
34.1189032673971369
 20
11.19561823274638
 30
0.0
 40
0.0426634566966164
 50
216.0409257680639996
 51
242.6582550451759914
  0
ARC
  5
4BD0
  8
0
 10
33.8803230981881995
 20
11.1473480921453696
 30
0.0
 40
0.1399908709702603
 50
20.7896300876324815
 51
28.2938325441653404
  0
ARC
  5
4BD1
  8
0
 10
33.9902612310649772
 20
11.1890871678860009
 30
0.0
 40
0.0223960432619965
 50
10.6673846286541707
 51
20.7889990160591687
  0
ARC
  5
4BD2
  8
0
 10
34.0067796908953994
 20
11.1921986255427495
 30
0.0
 40
0.0055870967181137
 50
357.9762158335150843
 51
10.6673846286285396
  0
ARC
  5
4BD3
  8
0
 10
34.0116462409753026
 20
11.1920266592128499
 30
0.0
 40
0.0007175092511611
 50
303.6736784957608961
 51
357.9762158336781113
  0
ARC
  5
4BD4
  8
0
 10
34.0118693506576335
 20
11.1919968031713601
 30
0.0
 40
0.0005935600035988
 50
242.9036884049901062
 51
287.1193391512654784
  0
ARC
  5
4BD5
  8
0
 10
34.0167253981091733
 20
11.1993019013625403
 30
0.0
 40
0.0093618336440673
 50
216.0116626656607934
 51
236.7984577119148923
  0
ARC
  5
4BD6
  8
0
 10
34.1082282591116623
 20
11.2670214224656693
 30
0.0
 40
0.1231978308978852
 50
207.0263523816508098
 51
216.466991110894611
  0
ARC
  5
4BD7
  8
0
 10
34.4172937556397471
 20
11.4269806680929502
 30
0.0
 40
0.4760028772711133
 50
202.8174306813911869
 51
207.2785556931858935
  0
ARC
  5
4BD8
  8
0
 10
34.12038405863197
 20
11.3020650225835606
 30
0.0
 40
0.1538859937173968
 50
192.7241546385943138
 51
202.8174306813947112
  0
ARC
  5
4BD9
  8
0
 10
33.9856639807250929
 20
11.2716448566567706
 30
0.0
 40
0.0157741336685405
 50
165.1730303748869062
 51
192.7241546385920117
  0
ARC
  5
4BDA
  8
0
 10
33.984702513533847
 20
11.2718993714705196
 30
0.0
 40
0.0147795498609997
 50
121.360342128001804
 51
165.1730303748834956
  0
LINE
  5
4BDB
  8
0
 10
33.97701095921704
 20
11.2845197948500804
 30
0.0
 11
34.0272044698792513
 21
11.3114970960590497
 31
0.0
  0
ARC
  5
4BDC
  8
0
 10
33.8296420664721325
 20
11.1263780894419497
 30
0.0
 40
0.2655356843020727
 50
26.8942718414246897
 51
37.1441293118391229
  0
ARC
  5
4BDD
  8
0
 10
33.7599309784042987
 20
11.1430174348561
 30
0.0
 40
0.3159438486253768
 50
27.0532291701953902
 51
32.2258665906475414
  0
ARC
  5
4BDE
  8
0
 10
33.9825569660785902
 20
11.2842917710230601
 30
0.0
 40
0.0522831646512264
 50
31.3554498062207898
 51
48.3210163100594272
  0
ARC
  5
4BDF
  8
0
 10
34.0125743106934522
 20
11.3177942985708295
 30
0.0
 40
0.0073018735138627
 50
49.4329444851660327
 51
77.6892143004294411
  0
ARC
  5
4BE0
  8
0
 10
34.0139738376462617
 20
11.3229542011767208
 30
0.0
 40
0.0019803277503879
 50
85.4430501347730456
 51
139.7041576983712048
  0
ARC
  5
4BE1
  8
0
 10
34.0547550379321606
 20
11.3186145499625308
 30
0.0
 40
0.0426634566966164
 50
172.4299652400119101
 51
199.0472945171466108
  0
ARC
  5
4BE2
  8
0
 10
33.8786289847446085
 20
11.1505963453614996
 30
0.0
 40
0.1399908711282217
 50
26.7943877261052883
 51
34.2985901954345209
  0
ARC
  5
4BE3
  8
0
 10
33.9757756410287826
 20
11.2168614999612295
 30
0.0
 40
0.0223960432619965
 50
34.2992212691151721
 51
44.4208356565209783
  0
ARC
  5
4BE4
  8
0
 10
33.9877808965604515
 20
11.2286264701493295
 30
0.0
 40
0.0055870967181137
 50
44.4208356565576992
 51
57.1120044516775991
  0
ARC
  5
4BE5
  8
0
 10
33.9904250753640724
 20
11.2327156266093908
 30
0.0
 40
0.0007175092511611
 50
57.1120044515225018
 51
111.4145417894261954
  0
ARC
  5
4BE6
  8
0
 10
33.9905282812898974
 20
11.2329156712304208
 30
0.0
 40
0.0005935600035988
 50
127.9688811339146071
 51
172.1845318802151894
  0
ARC
  5
4BE7
  8
0
 10
33.9992978981215117
 20
11.2327169828799391
 30
0.0
 40
0.0093618336440673
 50
178.2897625732827862
 51
199.076557619533105
  0
ARC
  5
4BE8
  8
0
 10
34.1071986356939476
 20
11.26899559836367
 30
0.0
 40
0.1231978308978852
 50
198.6212291742693026
 51
208.0618679035679008
  0
ARC
  5
4BE9
  8
0
 10
33.371193786405648
 20
11.1667588402119495
 30
0.0
 40
0.5110278861040093
 50
22.5481420979445097
 51
28.2010871823164209
  0
ARC
  5
4BEA
  8
0
 10
33.7040614708728015
 20
11.3448578720024909
 30
0.0
 40
0.1399908709702603
 50
20.7896300876324815
 51
28.2938325441653404
  0
ARC
  5
4BEB
  8
0
 10
33.8139996037495791
 20
11.3865969477431399
 30
0.0
 40
0.0223960432619965
 50
10.6673846286541707
 51
20.7889990160591687
  0
ARC
  5
4BEC
  8
0
 10
33.8305180635800014
 20
11.3897084053998991
 30
0.0
 40
0.0055870967181137
 50
357.9762158335150843
 51
10.6673846286285396
  0
ARC
  5
4BED
  8
0
 10
33.8353846136594427
 20
11.3895364390699907
 30
0.0
 40
0.0007175092511611
 50
303.6736784957608961
 51
357.9762158336781113
  0
ARC
  5
4BEE
  8
0
 10
33.8356077233422425
 20
11.3895065830284992
 30
0.0
 40
0.0005935600035988
 50
242.9036884049901062
 51
287.1193391512654784
  0
ARC
  5
4BEF
  8
0
 10
33.8404637707933205
 20
11.3968116812196794
 30
0.0
 40
0.0093618336440673
 50
216.0116626656607934
 51
236.7984577119148923
  0
ARC
  5
4BF0
  8
0
 10
33.9319666317962572
 20
11.4645312023228101
 30
0.0
 40
0.1231978308978852
 50
207.0263523816508098
 51
216.466991110894611
  0
ARC
  5
4BF1
  8
0
 10
33.7023673574292104
 20
11.3481061252186102
 30
0.0
 40
0.1399908711282217
 50
26.7943877261052883
 51
34.2985901954345209
  0
ARC
  5
4BF2
  8
0
 10
33.7995140137129226
 20
11.4143712798183792
 30
0.0
 40
0.0223960432619965
 50
34.2992212691151721
 51
44.4208356565209783
  0
ARC
  5
4BF3
  8
0
 10
33.8115192692450606
 20
11.4261362500064401
 30
0.0
 40
0.0055870967181137
 50
44.4208356565576992
 51
57.1120044516775991
  0
ARC
  5
4BF4
  8
0
 10
33.8141634480482196
 20
11.4302254064664996
 30
0.0
 40
0.0007175092511611
 50
57.1120044515225018
 51
111.4145417894261954
  0
ARC
  5
4BF5
  8
0
 10
33.8142666539740375
 20
11.4304254510875705
 30
0.0
 40
0.0005935600035988
 50
127.9688811339146071
 51
172.1845318802151894
  0
ARC
  5
4BF6
  8
0
 10
33.8230362708056589
 20
11.4302267627370604
 30
0.0
 40
0.0093618336440673
 50
178.2897625732827862
 51
199.076557619533105
  0
ARC
  5
4BF7
  8
0
 10
33.9309370083780877
 20
11.4665053782208108
 30
0.0
 40
0.1231978308978852
 50
198.6212291742693026
 51
208.0618679035679008
  0
ARC
  5
4BF8
  8
0
 10
33.6396104131647178
 20
10.7050468327322594
 30
0.0
 40
0.5754752159633983
 50
26.1304595962940702
 51
30.1210437872343704
  0
ARC
  5
4BF9
  8
0
 10
33.9860249736727624
 20
10.85430756731947
 30
0.0
 40
0.1995944934806548
 50
22.200288928880159
 51
31.4664126149093093
  0
ARC
  5
4BFA
  8
0
 10
34.1599011820801195
 20
10.9240289800799903
 30
0.0
 40
0.0123174160695262
 50
355.647174192755017
 51
27.5362419474790485
  0
ARC
  5
4BFB
  8
0
 10
34.1707888663388317
 20
10.9232002352596602
 30
0.0
 40
0.0013982363158355
 50
271.4637643447886717
 51
355.6471741930488975
  0
ARC
  5
4BFC
  8
0
 10
34.1758289912242788
 20
10.9324106145200304
 30
0.0
 40
0.011729328046824
 50
225.3205775391402028
 51
244.7443687558566126
  0
ARC
  5
4BFD
  8
0
 10
34.3579917420436018
 20
11.1122039658287797
 30
0.0
 40
0.2676755994166819
 50
220.2418211867311015
 51
224.6554231186918003
  0
ARC
  5
4BFE
  8
0
 10
33.6118738540974107
 20
10.6807485500730799
 30
0.0
 40
0.6117011841006881
 50
30.7859228168105687
 51
36.045491563411133
  0
ARC
  5
4BFF
  8
0
 10
34.0475248790332614
 20
11.0002103882449997
 30
0.0
 40
0.0715020705897464
 50
34.4812221985006389
 51
49.8182445234916926
  0
ARC
  5
4C00
  8
0
 10
34.0885814190012013
 20
11.0491482821731903
 30
0.0
 40
0.0076260146396362
 50
48.253975158679637
 51
74.6367782325600615
  0
ARC
  5
4C01
  8
0
 10
34.0893242771055327
 20
11.05185198909391
 30
0.0
 40
0.0048221121313219
 50
74.6367782325600615
 51
93.4880884989368042
  0
ARC
  5
4C02
  8
0
 10
34.0895886809473367
 20
11.0544263340539803
 30
0.0
 40
0.0023072718272709
 50
103.9899304771358999
 51
129.1311690286480029
  0
ARC
  5
4C03
  8
0
 10
34.0891042612813422
 20
11.0556469000772299
 30
0.0
 40
0.0011261306639196
 50
149.6393972963001886
 51
182.0798351809683879
  0
ARC
  5
4C04
  8
0
 10
34.2253939234830966
 20
11.0916845878022698
 30
0.0
 40
0.1420723707693409
 50
194.7110758860291071
 51
203.7419295331636135
  0
LINE
  5
4C05
  8
0
 10
34.1065117570967402
 20
11.0406258980275496
 30
0.0
 11
34.0606463993760613
 21
11.0153972009731103
 31
0.0
  0
LINE
  5
4C06
  8
0
 10
34.1640600759612596
 20
10.94453762983151
 30
0.0
 11
34.1152053144380432
 21
10.9198269564886701
 31
0.0
  0
ARC
  5
4C07
  8
0
 10
34.1091530527293969
 20
10.9331203672734993
 30
0.0
 40
0.0146063219902665
 50
272.4512737001173832
 51
294.4789593148503855
  0
ARC
  5
4C08
  8
0
 10
34.1100380658315032
 20
10.9318640451321407
 30
0.0
 40
0.0133391744862587
 50
228.8053674076587924
 51
268.8818430410532869
  0
ARC
  5
4C09
  8
0
 10
34.1588224604367667
 20
10.9781602720429792
 30
0.0
 40
0.080546660450082
 50
211.89393444129729
 51
224.3781984023898985
  0
ARC
  5
4C0A
  8
0
 10
34.4974378630206218
 20
11.2049800087854798
 30
0.0
 40
0.4880718031401406
 50
210.0063388425494963
 51
213.4988119620869043
  0
ARC
  5
4C0B
  8
0
 10
34.48910250611263
 20
11.2032359562666208
 30
0.0
 40
0.4799888006447148
 50
206.8627841883258043
 51
210.3236447029555052
  0
ARC
  5
4C0C
  8
0
 10
34.1472901233498476
 20
11.0315682325678601
 30
0.0
 40
0.0975007498520388
 50
199.1264439622945872
 51
207.6305576778445072
  0
ARC
  5
4C0D
  8
0
 10
34.0685415944392105
 20
11.0043184984925908
 30
0.0
 40
0.0141709434811737
 50
163.2961415005406991
 51
199.356021689142608
  0
ARC
  5
4C0E
  8
0
 10
34.0668607165373203
 20
11.0045571227736101
 30
0.0
 40
0.012495000326272
 50
119.8244551330835037
 51
162.1287250163690885
  0
ARC
  5
4C0F
  8
0
 10
33.8233921107346021
 20
10.8138573008494099
 30
0.0
 40
0.2960478481578903
 50
28.0872171922143501
 51
30.2805790892736688
  0
ARC
  5
4C10
  8
0
 10
33.9399513914761073
 20
10.8760607460296601
 30
0.0
 40
0.1639292101115726
 50
25.7815349400619702
 51
28.0872171922158991
  0
ARC
  5
4C11
  8
0
 10
34.0442044535445518
 20
10.9264172018496097
 30
0.0
 40
0.0481515197156614
 50
20.8077040975171101
 51
25.7815349400641516
  0
ARC
  5
4C12
  8
0
 10
34.0825774622378219
 20
10.9409996449866291
 30
0.0
 40
0.0071011184508354
 50
8.7357867734478454
 51
20.8077040974918503
  0
ARC
  5
4C13
  8
0
 10
34.0892745055900477
 20
10.9420287179352798
 30
0.0
 40
0.0003254722975166
 50
312.652097526563125
 51
8.7357867739380026
  0
ARC
  5
4C14
  8
0
 10
34.0894138283167365
 20
10.9419590698909204
 30
0.0
 40
0.0001881538474914
 50
265.3603377238999883
 51
295.5665104960128247
  0
ARC
  5
4C15
  8
0
 10
34.0895375567158396
 20
10.9423975207619808
 30
0.0
 40
0.0006412236066324
 50
226.7082926762803936
 51
257.4851939207487135
  0
ARC
  5
4C16
  8
0
 10
34.1001312645368913
 20
10.9537433268534805
 30
0.0
 40
0.0161639093224561
 50
215.3064271656064932
 51
226.953242567139398
  0
ARC
  5
4C17
  8
0
 10
34.2512286139919695
 20
11.0612360542776393
 30
0.0
 40
0.2015960611527888
 50
209.4821056298011115
 51
215.4187755602451944
  0
ARC
  5
4C18
  8
0
 10
34.2778123775553709
 20
11.0804336545343798
 30
0.0
 40
0.2342137179315194
 50
206.2359880412876976
 51
210.3697694892941001
  0
ARC
  5
4C19
  8
0
 10
34.1092147954434211
 20
10.9971766727457592
 30
0.0
 40
0.0461797888915376
 50
199.8697385565324964
 51
206.0522403801643918
  0
ARC
  5
4C1A
  8
0
 10
34.0670090183686796
 20
10.9821288130675097
 30
0.0
 40
0.0013856122598902
 50
160.043855684714913
 51
207.876168763772796
  0
ARC
  5
4C1B
  8
0
 10
34.0658110626056612
 20
10.9823926710267905
 30
0.0
 40
0.0002336965613697
 50
53.9725112301280419
 51
116.5496837185788053
  0
ARC
  5
4C1C
  8
0
 10
34.0556982097216121
 20
10.9708937899992893
 30
0.0
 40
0.0155459101473967
 50
33.9863533702133012
 51
48.749136391230401
  0
ARC
  5
4C1D
  8
0
 10
33.8920769361991177
 20
10.8557806012795606
 30
0.0
 40
0.2156004583445092
 50
29.8632765468581205
 51
35.0454116533733071
  0
ARC
  5
4C1E
  8
0
 10
33.7362089267969409
 20
10.4673114445166799
 30
0.0
 40
0.5754752159633983
 50
26.1304595962940702
 51
30.1210437872343704
  0
ARC
  5
4C1F
  8
0
 10
34.0826234873049714
 20
10.6165721791038905
 30
0.0
 40
0.1995944934806548
 50
22.200288928880159
 51
31.4664126149093093
  0
ARC
  5
4C20
  8
0
 10
34.2564996957123427
 20
10.6862935918643807
 30
0.0
 40
0.0123174160695262
 50
355.647174192755017
 51
27.5362419474790485
  0
ARC
  5
4C21
  8
0
 10
34.2673873799710407
 20
10.6854648470440505
 30
0.0
 40
0.0013982363158355
 50
271.4637643447886717
 51
355.6471741930488975
  0
ARC
  5
4C22
  8
0
 10
34.2724275048565019
 20
10.6946752263044207
 30
0.0
 40
0.011729328046824
 50
225.3205775391402028
 51
244.7443687558566126
  0
ARC
  5
4C23
  8
0
 10
34.4545902556762726
 20
10.8744685776131593
 30
0.0
 40
0.2676755994166819
 50
220.2418211866913111
 51
224.6554231186918003
  0
ARC
  5
4C24
  8
0
 10
33.7084723677296267
 20
10.4430131618574702
 30
0.0
 40
0.6117011841006881
 50
30.7859228168105687
 51
36.045491563411133
  0
ARC
  5
4C25
  8
0
 10
34.1441233926654775
 20
10.7624750000293901
 30
0.0
 40
0.0715020705897464
 50
34.4812221985006389
 51
49.8182445234916926
  0
ARC
  5
4C26
  8
0
 10
34.1851799326334174
 20
10.8114128939576002
 30
0.0
 40
0.0076260146396362
 50
48.253975158679637
 51
74.6367782325600615
  0
ARC
  5
4C27
  8
0
 10
34.1859227907377488
 20
10.8141166008783003
 30
0.0
 40
0.0048221121313219
 50
74.6367782325600615
 51
93.4880884989368042
  0
ARC
  5
4C28
  8
0
 10
34.1861871945795599
 20
10.8166909458383707
 30
0.0
 40
0.0023072718272709
 50
103.9899304771358999
 51
129.1311690286480029
  0
ARC
  5
4C29
  8
0
 10
34.1857027749135511
 20
10.8179115118616203
 30
0.0
 40
0.0011261306639196
 50
149.6393972963001886
 51
182.0798351809683879
  0
ARC
  5
4C2A
  8
0
 10
34.3219924371153198
 20
10.8539491995866904
 30
0.0
 40
0.1420723707693409
 50
194.7110758860291071
 51
203.741799701879188
  0
LINE
  5
4C2B
  8
0
 10
34.203110270729411
 20
10.8028905098119701
 30
0.0
 11
34.1572449130082703
 21
10.7776618127575201
 31
0.0
  0
LINE
  5
4C2C
  8
0
 10
34.2606585895934828
 20
10.7068022416159305
 30
0.0
 11
34.2118038280707069
 21
10.6820915682730906
 31
0.0
  0
ARC
  5
4C2D
  8
0
 10
34.2057515663620677
 20
10.6953849790579092
 30
0.0
 40
0.0146063219902665
 50
272.4512737001173832
 51
294.4789593148503855
  0
ARC
  5
4C2E
  8
0
 10
34.2066365794637193
 20
10.6941286569165293
 30
0.0
 40
0.0133391744862587
 50
228.8053674076587924
 51
268.8818430410532869
  0
ARC
  5
4C2F
  8
0
 10
34.2554209740689899
 20
10.7404248838273695
 30
0.0
 40
0.080546660450082
 50
211.89393444129729
 51
224.3781984023898985
  0
ARC
  5
4C30
  8
0
 10
34.5940363766528378
 20
10.9672446205699003
 30
0.0
 40
0.4880718031401406
 50
210.0063388425494963
 51
213.4988119620869043
  0
ARC
  5
4C31
  8
0
 10
34.5857010197453008
 20
10.9655005680510396
 30
0.0
 40
0.4799888006447148
 50
206.8627841883258043
 51
210.3236447029555052
  0
ARC
  5
4C32
  8
0
 10
34.2438886369825184
 20
10.7938328443522806
 30
0.0
 40
0.0975007498520388
 50
199.1264439622945872
 51
207.6305576778445072
  0
ARC
  5
4C33
  8
0
 10
34.1651401080714265
 20
10.7665831102770095
 30
0.0
 40
0.0141709434811737
 50
163.2961415005406991
 51
199.356021689142608
  0
ARC
  5
4C34
  8
0
 10
34.1634592301699911
 20
10.7668217345580306
 30
0.0
 40
0.012495000326272
 50
119.8244551330835037
 51
162.1287250163690885
  0
ARC
  5
4C35
  8
0
 10
33.9199906243672729
 20
10.5761219126338304
 30
0.0
 40
0.2960478481578903
 50
28.0872171922143501
 51
30.2805790892736688
  0
ARC
  5
4C36
  8
0
 10
34.0365499051083304
 20
10.6383253578140806
 30
0.0
 40
0.1639292101115726
 50
25.7815349400619702
 51
28.0872171922158991
  0
ARC
  5
4C37
  8
0
 10
34.1408029671767679
 20
10.6886818136340001
 30
0.0
 40
0.0481515197156614
 50
20.8077040975171101
 51
25.7815349400641516
  0
ARC
  5
4C38
  8
0
 10
34.179175975870038
 20
10.7032642567710408
 30
0.0
 40
0.0071011184508354
 50
8.7357867734478454
 51
20.8077040974918503
  0
ARC
  5
4C39
  8
0
 10
34.1858730192222708
 20
10.7042933297197003
 30
0.0
 40
0.0003254722975166
 50
312.652097526563125
 51
8.7357867739380026
  0
ARC
  5
4C3A
  8
0
 10
34.1860123419489526
 20
10.7042236816753409
 30
0.0
 40
0.0001881538474914
 50
265.3603377238999883
 51
295.5665104960128247
  0
ARC
  5
4C3B
  8
0
 10
34.1861360703480628
 20
10.7046621325463693
 30
0.0
 40
0.0006412236066324
 50
226.7082926762803936
 51
257.4851939207487135
  0
ARC
  5
4C3C
  8
0
 10
34.1967297781695621
 20
10.7160079386378708
 30
0.0
 40
0.0161639093224561
 50
215.3064271656064932
 51
226.953242567139398
  0
ARC
  5
4C3D
  8
0
 10
34.3478271276246403
 20
10.8235006660620297
 30
0.0
 40
0.2015960611527888
 50
209.4821056298011115
 51
215.4187755602451944
  0
ARC
  5
4C3E
  8
0
 10
34.3744108911880417
 20
10.8426982663188003
 30
0.0
 40
0.2342137179315194
 50
206.2359880412876976
 51
210.3697694892941001
  0
ARC
  5
4C3F
  8
0
 10
34.2058133090760919
 20
10.7594412845301797
 30
0.0
 40
0.0461797888915376
 50
199.8697385565324964
 51
206.0522403801643918
  0
ARC
  5
4C40
  8
0
 10
34.1636075320009027
 20
10.7443934248519302
 30
0.0
 40
0.0013856122598902
 50
160.043855684714913
 51
207.876168763772796
  0
ARC
  5
4C41
  8
0
 10
34.1624095762378772
 20
10.7446572828112092
 30
0.0
 40
0.0002336965613697
 50
53.9725112301280419
 51
116.5496837185788053
  0
ARC
  5
4C42
  8
0
 10
34.1522967233538282
 20
10.7331584017836796
 30
0.0
 40
0.0155459101473967
 50
33.9863533702133012
 51
48.749136391230401
  0
ARC
  5
4C43
  8
0
 10
33.9886754498317885
 20
10.6180452130639402
 30
0.0
 40
0.2156004583445092
 50
29.8632765468581205
 51
35.0454116533733071
  0
ARC
  5
4C44
  8
0
 10
33.669488735982867
 20
10.1088495720549201
 30
0.0
 40
0.8653517575981272
 50
28.2317933338385707
 51
30.6989711792681099
  0
ARC
  5
4C45
  8
0
 10
34.1041529183369008
 20
10.3345896840940092
 30
0.0
 40
0.3756709437902321
 50
24.4824518932040114
 51
29.2578390849654895
  0
ARC
  5
4C46
  8
0
 10
34.3956028611794125
 20
10.4633858902112795
 30
0.0
 40
0.057162048013625
 50
10.7061074666677705
 51
28.0582916828369591
  0
ARC
  5
4C47
  8
0
 10
34.7726672677456179
 20
10.7212135319219399
 30
0.0
 40
0.4067313969324628
 50
215.1010403732229008
 51
217.7187588004011047
  0
ARC
  5
4C48
  8
0
 10
33.7222608317458423
 20
10.1468066601816602
 30
0.0
 40
0.8006171949558361
 50
30.2913197111696917
 51
34.0327284050850523
  0
ARC
  5
4C49
  8
0
 10
34.3378903621412235
 20
10.6000767286128408
 30
0.0
 40
0.0371996609358259
 50
34.9850161870406922
 51
58.8851685462157803
  0
ARC
  5
4C4A
  8
0
 10
34.3548143475797829
 20
10.6286011925556192
 30
0.0
 40
0.0040411632486422
 50
55.3246142169168991
 51
114.358471324032493
  0
ARC
  5
4C4B
  8
0
 10
34.4249036093999408
 20
10.6483460923542808
 30
0.0
 40
0.0744213081321145
 50
194.435005746038911
 51
205.7970518702111917
  0
LINE
  5
4C4C
  8
0
 10
34.3683681193476502
 20
10.62140560784764
 30
0.0
 11
34.3204866068474175
 21
10.59601629254764
 31
0.0
  0
LINE
  5
4C4D
  8
0
 10
34.4460466253474067
 20
10.4902731806976508
 30
0.0
 11
34.3998538703847103
 21
10.4681752454117198
 31
0.0
  0
ARC
  5
4C4E
  8
0
 10
34.3927910478211913
 20
10.4792830909479306
 30
0.0
 40
0.0131631187420527
 50
249.0293424331534879
 51
302.4498696944529001
  0
ARC
  5
4C4F
  8
0
 10
34.3961981617651205
 20
10.4858017002072295
 30
0.0
 40
0.0204869100251319
 50
209.8442293872195989
 51
246.6556730444430059
  0
ARC
  5
4C50
  8
0
 10
34.4655839315439323
 20
10.5625447272543393
 30
0.0
 40
0.1231031059419114
 50
214.9707615218999877
 51
224.9284093248840861
  0
ARC
  5
4C51
  8
0
 10
37.2271988211398082
 20
12.3855029054169901
 30
0.0
 40
3.4320922220400192
 50
212.9822829930099033
 51
213.4843283310796949
  0
ARC
  5
4C52
  8
0
 10
34.9515739891050714
 20
10.9008853178020004
 30
0.0
 40
0.7150438682522664
 50
210.0937384906343937
 51
212.4573392131389937
  0
ARC
  5
4C53
  8
0
 10
34.9843223558688976
 20
10.9114561892019193
 30
0.0
 40
0.7487137060789412
 50
207.7786986520578978
 51
209.5370381896499907
  0
ARC
  5
4C54
  8
0
 10
34.4099827831089229
 20
10.6065419513067898
 30
0.0
 40
0.0984790221718947
 50
192.5928490782613949
 51
206.5575202472869023
  0
ARC
  5
4C55
  8
0
 10
34.3268756555796415
 20
10.5846847211649404
 30
0.0
 40
0.0130086299701945
 50
119.4154885312488972
 51
178.2965855311875032
  0
ARC
  5
4C56
  8
0
 10
34.0975715272063269
 20
10.3727306528307501
 30
0.0
 40
0.2960478481578903
 50
28.0872171922143501
 51
30.2805790892736688
  0
ARC
  5
4C57
  8
0
 10
34.2141308079478392
 20
10.4349340980110199
 30
0.0
 40
0.1639292101115726
 50
25.7815349400619702
 51
28.0872171922158991
  0
ARC
  5
4C58
  8
0
 10
34.3183838700162767
 20
10.4852905538309695
 30
0.0
 40
0.0481515197156614
 50
20.8077040975171101
 51
25.7815349400641516
  0
ARC
  5
4C59
  8
0
 10
34.356756878709092
 20
10.4998729969679907
 30
0.0
 40
0.0071011184508354
 50
8.7357867734478454
 51
20.8077040974918503
  0
ARC
  5
4C5A
  8
0
 10
34.363453922061332
 20
10.5009020699166395
 30
0.0
 40
0.0003254722975166
 50
312.652097526563125
 51
8.7357867739380026
  0
ARC
  5
4C5B
  8
0
 10
34.3635932447884613
 20
10.5008324218722802
 30
0.0
 40
0.0001881538474914
 50
265.3603377238999883
 51
295.5665104960128247
  0
ARC
  5
4C5C
  8
0
 10
34.3637169731875716
 20
10.5012708727433104
 30
0.0
 40
0.0006412236066324
 50
226.7082926762803936
 51
257.4851939207487135
  0
ARC
  5
4C5D
  8
0
 10
34.374310681008609
 20
10.5126166788348403
 30
0.0
 40
0.0161639093224561
 50
215.3064271656064932
 51
226.953242567139398
  0
ARC
  5
4C5E
  8
0
 10
34.5254080304637014
 20
10.6201094062589707
 30
0.0
 40
0.2015960611527888
 50
209.4821056298011115
 51
215.4187755602451944
  0
ARC
  5
4C5F
  8
0
 10
34.8308413124716196
 20
10.7917115733523996
 30
0.0
 40
0.5519337154265748
 50
206.6919574528367036
 51
209.38471131434369
  0
ARC
  5
4C60
  8
0
 10
34.3792123613836509
 20
10.5640682073298606
 30
0.0
 40
0.0461797888915376
 50
199.8697385565324964
 51
206.0522403801643918
  0
ARC
  5
4C61
  8
0
 10
34.3371207607076201
 20
10.5488422068412007
 30
0.0
 40
0.0013856122598902
 50
160.043855684714913
 51
207.876168763772796
  0
ARC
  5
4C62
  8
0
 10
34.3359228049450635
 20
10.5491060648004797
 30
0.0
 40
0.0002336965613697
 50
53.9725112301280419
 51
116.5496837185788053
  0
ARC
  5
4C63
  8
0
 10
34.3258099520605526
 20
10.5376071837729697
 30
0.0
 40
0.0155459101473967
 50
33.9863533702133012
 51
48.749136391230401
  0
ARC
  5
4C64
  8
0
 10
33.9503699354456501
 20
10.29752911459099
 30
0.0
 40
0.461178887418722
 50
29.1272459476133285
 51
32.6703112295812304
  0
ARC
  5
4C65
  8
0
 10
34.0222371746251397
 20
10.0292421699113596
 30
0.0
 40
0.5754752159633983
 50
26.1304595962940702
 51
30.1210437872343704
  0
ARC
  5
4C66
  8
0
 10
34.3686517351331702
 20
10.1785029044985809
 30
0.0
 40
0.1995944934806548
 50
22.200288928880159
 51
31.4664126149093093
  0
ARC
  5
4C67
  8
0
 10
34.5425279435400796
 20
10.2482243172590692
 30
0.0
 40
0.0123174160695262
 50
355.647174192755017
 51
27.5362419474790485
  0
ARC
  5
4C68
  8
0
 10
34.5534156277987776
 20
10.2473955724387409
 30
0.0
 40
0.0013982363158355
 50
271.4637643447886717
 51
355.6471741930488975
  0
ARC
  5
4C69
  8
0
 10
34.5584557526846865
 20
10.2566059516991093
 30
0.0
 40
0.011729328046824
 50
225.3205775391402028
 51
244.7443687558566126
  0
ARC
  5
4C6A
  8
0
 10
34.7406185035040096
 20
10.4363993030078497
 30
0.0
 40
0.2676755994166819
 50
220.2418211867297941
 51
224.6554231186918003
  0
ARC
  5
4C6B
  8
0
 10
33.3803418536133165
 20
9.6665864452605881
 30
0.0
 40
1.3127116629978619
 50
29.7528341134031606
 51
33.3430020593601384
  0
ARC
  5
4C6C
  8
0
 10
34.4180347055173286
 20
10.3476384537321504
 30
0.0
 40
0.0715020705897464
 50
34.4812221985006389
 51
49.8182445234916926
  0
ARC
  5
4C6D
  8
0
 10
34.4590912454852685
 20
10.3965763476603392
 30
0.0
 40
0.0076260146396362
 50
48.253975158679637
 51
74.6367782325600615
  0
ARC
  5
4C6E
  8
0
 10
34.4598341035895999
 20
10.3992800545810304
 30
0.0
 40
0.0048221121313219
 50
74.6367782325600615
 51
93.4880884989368042
  0
ARC
  5
4C6F
  8
0
 10
34.460098507431411
 20
10.4018543995411008
 30
0.0
 40
0.0023072718272709
 50
103.9899304771358999
 51
129.1311690286480029
  0
ARC
  5
4C70
  8
0
 10
34.4596140877654022
 20
10.4030749655643806
 30
0.0
 40
0.0011261306639196
 50
149.6393972963001886
 51
182.0798351809683879
  0
ARC
  5
4C71
  8
0
 10
34.5959037499671709
 20
10.4391126532893903
 30
0.0
 40
0.1420723707693409
 50
194.7110758860291071
 51
203.7419295332223044
  0
LINE
  5
4C72
  8
0
 10
34.4770215835812621
 20
10.3880539635147002
 30
0.0
 11
34.4311562258601214
 21
10.3628252664602591
 31
0.0
  0
LINE
  5
4C73
  8
0
 10
34.5466868374216816
 20
10.2687329670106209
 30
0.0
 11
34.497832075898458
 21
10.2440222936677792
 31
0.0
  0
ARC
  5
4C74
  8
0
 10
34.4917798141898118
 20
10.2573157044525995
 30
0.0
 40
0.0146063219902665
 50
272.4512737001173832
 51
294.4789593148503855
  0
ARC
  5
4C75
  8
0
 10
34.4926648272914704
 20
10.2560593823112196
 30
0.0
 40
0.0133391744862587
 50
228.8053674076587924
 51
268.8818430410532869
  0
ARC
  5
4C76
  8
0
 10
34.5414492218967268
 20
10.3023556092220598
 30
0.0
 40
0.080546660450082
 50
211.89393444129729
 51
224.3781984023898985
  0
ARC
  5
4C77
  8
0
 10
34.8800646244810366
 20
10.52917534596458
 30
0.0
 40
0.4880718031401406
 50
210.0063388425494963
 51
213.4988119620869043
  0
ARC
  5
4C78
  8
0
 10
35.9786988538510002
 20
11.1285003121614405
 30
0.0
 40
1.7394421837757781
 50
207.1861641771693883
 51
209.004117371893102
  0
ARC
  5
4C79
  8
0
 10
34.5177999498343695
 20
10.3789962980550108
 30
0.0
 40
0.0975007498520388
 50
199.1264439622945872
 51
207.6305576778445072
  0
ARC
  5
4C7A
  8
0
 10
34.4390514209232776
 20
10.3517465639797397
 30
0.0
 40
0.0141709434811737
 50
163.2961415005406991
 51
199.356021689142608
  0
ARC
  5
4C7B
  8
0
 10
34.4373705430218493
 20
10.3519851882607608
 30
0.0
 40
0.012495000326272
 50
119.8244551330835037
 51
162.1287250163690885
  0
ARC
  5
4C7C
  8
0
 10
34.2060188721950169
 20
10.1380526380285207
 30
0.0
 40
0.2960478481578903
 50
28.0872171922143501
 51
30.2805790892736688
  0
ARC
  5
4C7D
  8
0
 10
34.3225781529365292
 20
10.2002560832087603
 30
0.0
 40
0.1639292101115726
 50
25.7815349400619702
 51
28.0872171922158991
  0
ARC
  5
4C7E
  8
0
 10
34.4268312150049667
 20
10.2506125390286904
 30
0.0
 40
0.0481515197156614
 50
20.8077040975171101
 51
25.7815349400641516
  0
ARC
  5
4C7F
  8
0
 10
34.465204223697782
 20
10.2651949821657293
 30
0.0
 40
0.0071011184508354
 50
8.7357867734478454
 51
20.8077040974918503
  0
ARC
  5
4C80
  8
0
 10
34.471901267050022
 20
10.2662240551143906
 30
0.0
 40
0.0003254722975166
 50
312.652097526563125
 51
8.7357867739380026
  0
ARC
  5
4C81
  8
0
 10
34.4720405897771514
 20
10.2661544070700295
 30
0.0
 40
0.0001881538474914
 50
265.3603377238999883
 51
295.5665104960128247
  0
ARC
  5
4C82
  8
0
 10
34.4721643181762616
 20
10.2665928579410899
 30
0.0
 40
0.0006412236066324
 50
226.7082926762803936
 51
257.4851939207487135
  0
ARC
  5
4C83
  8
0
 10
34.482758025997299
 20
10.2779386640325505
 30
0.0
 40
0.0161639093224561
 50
215.3064271656064932
 51
226.953242567139398
  0
ARC
  5
4C84
  8
0
 10
34.6338553754523915
 20
10.3854313914567093
 30
0.0
 40
0.2015960611527888
 50
209.4821056298011115
 51
215.4187755602451944
  0
ARC
  5
4C85
  8
0
 10
35.7954387353335903
 20
11.0167837203727093
 30
0.0
 40
1.5236464283916309
 50
207.0312229677041955
 51
208.6518819767605919
  0
ARC
  5
4C86
  8
0
 10
34.479724621927943
 20
10.3446047382329098
 30
0.0
 40
0.0461797888915376
 50
199.8697385565324964
 51
206.0522403801643918
  0
ARC
  5
4C87
  8
0
 10
34.4375188448527467
 20
10.3295568785546301
 30
0.0
 40
0.0013856122598902
 50
160.043855684714913
 51
207.876168763772796
  0
ARC
  5
4C88
  8
0
 10
34.4363208890897283
 20
10.3298207365139199
 30
0.0
 40
0.0002336965613697
 50
53.9725112301280419
 51
116.5496837185788053
  0
ARC
  5
4C89
  8
0
 10
34.4262080362056793
 20
10.31832185548644
 30
0.0
 40
0.0155459101473967
 50
33.9863533702133012
 51
48.749136391230401
  0
ARC
  5
4C8A
  8
0
 10
33.4231044570794609
 20
9.7226789900818851
 30
0.0
 40
1.182142847318191
 50
28.5320753071958286
 51
30.7450086514820811
  0
LINE
  5
4C8B
  8
0
 10
34.5956269384580324
 20
10.16125728904405
 30
0.0
 11
34.5519705415383385
 21
10.1378919592425607
 31
0.0
  0
LINE
  5
4C8C
  8
0
 10
34.6794544043193298
 20
10.0345894395211204
 30
0.0
 11
34.6334090815323421
 21
10.0112997765508407
 31
0.0
  0
ARC
  5
4C8D
  8
0
 10
34.6273568198236887
 20
10.0245931873356593
 30
0.0
 40
0.0146063219902665
 50
272.4512737001173832
 51
294.4789593148503855
  0
ARC
  5
4C8E
  8
0
 10
34.6285708765082916
 20
10.0230012961824393
 30
0.0
 40
0.0130144163426928
 50
225.1914075649247877
 51
267.4045164053142116
  0
ARC
  5
4C8F
  8
0
 10
34.6769689167374224
 20
10.0701016662683909
 30
0.0
 40
0.080546660450082
 50
211.89393444129729
 51
224.3781984023898985
  0
ARC
  5
4C90
  8
0
 10
37.2492178199929427
 20
11.8755928704969804
 30
0.0
 40
3.2230785837769571
 50
214.4735230215420074
 51
214.9862420467572122
  0
ARC
  5
4C91
  8
0
 10
36.0394130834253872
 20
11.0440994881597696
 30
0.0
 40
1.755084079765616
 50
212.1669907865197047
 51
214.4509028980409084
  0
ARC
  5
4C92
  8
0
 10
34.6558981322107016
 20
10.1759321102038705
 30
0.0
 40
0.1217475255754643
 50
206.1977743513926953
 51
212.9501077343873021
  0
ARC
  5
4C93
  8
0
 10
34.558268300738952
 20
10.1270289231138193
 30
0.0
 40
0.0125814620304107
 50
162.1458319651947875
 51
202.6484364291052032
  0
ARC
  5
4C94
  8
0
 10
34.5581848587000593
 20
10.1270518810430392
 30
0.0
 40
0.012495000326272
 50
119.8244551330835037
 51
162.1287250163690885
  0
ARC
  5
4C95
  8
0
 10
34.3293762558925835
 20
9.9215910622617507
 30
0.0
 40
0.2960478481578903
 50
28.0872171922143501
 51
30.2805790892736688
  0
ARC
  5
4C96
  8
0
 10
34.445935536633641
 20
9.983794507442024
 30
0.0
 40
0.1639292101115726
 50
25.7815349400619702
 51
28.0872171922158991
  0
ARC
  5
4C97
  8
0
 10
34.5501885987020785
 20
10.0341509632619399
 30
0.0
 40
0.0481515197156614
 50
20.8077040975171101
 51
25.7815349400641516
  0
ARC
  5
4C98
  8
0
 10
34.5885616073953486
 20
10.0487334063989895
 30
0.0
 40
0.0071011184508354
 50
8.7357867734478454
 51
20.8077040974918503
  0
ARC
  5
4C99
  8
0
 10
34.5952586507475814
 20
10.0497624793476401
 30
0.0
 40
0.0003254722975166
 50
312.652097526563125
 51
8.7357867739380026
  0
ARC
  5
4C9A
  8
0
 10
34.5953979734742703
 20
10.0496928313032807
 30
0.0
 40
0.0001881538474914
 50
265.3603377238999883
 51
295.5665104960128247
  0
ARC
  5
4C9B
  8
0
 10
34.5955217018733734
 20
10.0501312821743092
 30
0.0
 40
0.0006412236066324
 50
226.7082926762803936
 51
257.4851939207487135
  0
ARC
  5
4C9C
  8
0
 10
34.6061154096948727
 20
10.0614770882658107
 30
0.0
 40
0.0161639093224561
 50
215.3064271656064932
 51
226.953242567139398
  0
ARC
  5
4C9D
  8
0
 10
34.7572127591499509
 20
10.1689698156899695
 30
0.0
 40
0.2015960611527888
 50
209.4821056298011115
 51
215.4187755602451944
  0
ARC
  5
4C9E
  8
0
 10
34.7837965227133523
 20
10.1881674159467401
 30
0.0
 40
0.2342137179315194
 50
206.2359880412876976
 51
210.3697694892941001
  0
ARC
  5
4C9F
  8
0
 10
34.6151989406014096
 20
10.1049104341581195
 30
0.0
 40
0.0461797888915376
 50
199.8697385565324964
 51
206.0522403801643918
  0
ARC
  5
4CA0
  8
0
 10
34.5729931635262133
 20
10.0898625744798505
 30
0.0
 40
0.0013856122598902
 50
160.043855684714913
 51
207.876168763772796
  0
ARC
  5
4CA1
  8
0
 10
34.5717952077631878
 20
10.0901264324391597
 30
0.0
 40
0.0002336965613697
 50
53.9725112301280419
 51
116.5496837185788053
  0
ARC
  5
4CA2
  8
0
 10
34.5616823548791388
 20
10.0786275514116497
 30
0.0
 40
0.0155459101473967
 50
33.9863533702133012
 51
48.749136391230401
  0
ARC
  5
4CA3
  8
0
 10
34.3980610813570991
 20
9.9635143626918925
 30
0.0
 40
0.2156004583445092
 50
29.8632765468581205
 51
35.0454116533733071
  0
ARC
  5
4CA4
  8
0
 10
33.4733894605335323
 20
10.9127236425904997
 30
0.0
 40
0.5754752159633983
 50
26.1304595962940702
 51
30.1210437872343704
  0
ARC
  5
4CA5
  8
0
 10
33.8198040210415698
 20
11.0619843771777404
 30
0.0
 40
0.1995944934806548
 50
22.200288928880159
 51
31.4664126149093093
  0
ARC
  5
4CA6
  8
0
 10
33.9936802294484721
 20
11.1317057899382306
 30
0.0
 40
0.0123174160695262
 50
355.647174192755017
 51
27.5362419474790485
  0
ARC
  5
4CA7
  8
0
 10
34.0045679137071772
 20
11.1308770451179093
 30
0.0
 40
0.0013982363158355
 50
271.4637643447886717
 51
355.6471741930488975
  0
ARC
  5
4CA8
  8
0
 10
34.0096080385926314
 20
11.1400874243782706
 30
0.0
 40
0.011729328046824
 50
225.3205775391402028
 51
244.7443687558566126
  0
ARC
  5
4CA9
  8
0
 10
34.1917707894124092
 20
11.3198807756870199
 30
0.0
 40
0.2676755994166819
 50
220.241915542033297
 51
224.6554231186918003
  0
ARC
  5
4CAA
  8
0
 10
33.4456529014662181
 20
10.8884253599313308
 30
0.0
 40
0.6117011841006881
 50
30.7859228168105687
 51
36.045491563411133
  0
ARC
  5
4CAB
  8
0
 10
33.8813039264020688
 20
11.2078871981032506
 30
0.0
 40
0.0715020705897464
 50
34.4812221985006389
 51
49.8182445234916926
  0
ARC
  5
4CAC
  8
0
 10
33.9223604663700087
 20
11.2568250920314306
 30
0.0
 40
0.0076260146396362
 50
48.253975158679637
 51
74.6367782325600615
  0
ARC
  5
4CAD
  8
0
 10
33.9231033244743401
 20
11.2595287989521307
 30
0.0
 40
0.0048221121313219
 50
74.6367782325600615
 51
93.4880884989368042
  0
ARC
  5
4CAE
  8
0
 10
33.9233677283161512
 20
11.2621031439122206
 30
0.0
 40
0.0023072718272709
 50
103.9899304771358999
 51
129.1311690286480029
  0
ARC
  5
4CAF
  8
0
 10
33.9228833086501425
 20
11.26332370993544
 30
0.0
 40
0.0011261306639196
 50
149.6393972963001886
 51
182.0798351809683879
  0
ARC
  5
4CB0
  8
0
 10
34.0591729708519111
 20
11.2993613976605101
 30
0.0
 40
0.1420723707693409
 50
194.7110758860291071
 51
203.741799701879188
  0
LINE
  5
4CB1
  8
0
 10
33.9402908044655476
 20
11.2483027078857898
 30
0.0
 11
33.8944254467448616
 21
11.2230740108313505
 31
0.0
  0
LINE
  5
4CB2
  8
0
 10
33.9978388338397224
 20
11.1522142932661605
 30
0.0
 11
33.9489843618068505
 21
11.1275037663469103
 31
0.0
  0
ARC
  5
4CB3
  8
0
 10
33.9429321000981972
 20
11.1407971771317396
 30
0.0
 40
0.0146063219902665
 50
272.4512737001173832
 51
294.4789593148503855
  0
ARC
  5
4CB4
  8
0
 10
33.9438171131998629
 20
11.1395408549903792
 30
0.0
 40
0.0133391744862587
 50
228.8053674076587924
 51
268.8818430410532869
  0
ARC
  5
4CB5
  8
0
 10
33.9926015078051194
 20
11.1858370819012194
 30
0.0
 40
0.080546660450082
 50
211.89393444129729
 51
224.3781984023898985
  0
ARC
  5
4CB6
  8
0
 10
34.3312169103894291
 20
11.4126568186437201
 30
0.0
 40
0.4880718031401406
 50
210.0063388425494963
 51
213.4988119620869043
  0
ARC
  5
4CB7
  8
0
 10
34.3228815534814373
 20
11.4109127661248593
 30
0.0
 40
0.4799888006447148
 50
206.8627841883258043
 51
210.3236447029555052
  0
ARC
  5
4CB8
  8
0
 10
33.9810691707186621
 20
11.2392450424261003
 30
0.0
 40
0.0975007498520388
 50
199.1264439622952125
 51
207.6305576778445072
  0
ARC
  5
4CB9
  8
0
 10
33.9023206418080179
 20
11.2119953083508292
 30
0.0
 40
0.0141709434811737
 50
163.2961415005406991
 51
199.3560216891434891
  0
ARC
  5
4CBA
  8
0
 10
33.9006397639061277
 20
11.2122339326318592
 30
0.0
 40
0.012495000326272
 50
119.8244551330835037
 51
162.1287250163690885
  0
ARC
  5
4CBB
  8
0
 10
33.6571711581034094
 20
11.0215341107076608
 30
0.0
 40
0.2960478481578903
 50
28.0872171922143501
 51
30.2805790892736688
  0
ARC
  5
4CBC
  8
0
 10
33.7737304388449218
 20
11.0837375558879003
 30
0.0
 40
0.1639292101115726
 50
25.7815349400619702
 51
28.0872171922158991
  0
ARC
  5
4CBD
  8
0
 10
33.8779835009133592
 20
11.13409401170785
 30
0.0
 40
0.0481515197156614
 50
20.8077040975171101
 51
25.7815349400641516
  0
ARC
  5
4CBE
  8
0
 10
33.9163565096061816
 20
11.1486764548448694
 30
0.0
 40
0.0071011184508354
 50
8.7357867734478454
 51
20.8077040974918503
  0
ARC
  5
4CBF
  8
0
 10
33.9230535529584074
 20
11.14970552779352
 30
0.0
 40
0.0003254722975166
 50
312.652097526563125
 51
8.7357867739380026
  0
ARC
  5
4CC0
  8
0
 10
33.9231928756855368
 20
11.1496358797491606
 30
0.0
 40
0.0001881538474914
 50
265.3603377238999883
 51
295.5665104960128247
  0
ARC
  5
4CC1
  8
0
 10
33.923316604084647
 20
11.1500743306202192
 30
0.0
 40
0.0006412236066324
 50
226.7082926762803936
 51
257.4851939207487135
  0
ARC
  5
4CC2
  8
0
 10
33.9339103119056915
 20
11.1614201367117207
 30
0.0
 40
0.0161639093224561
 50
215.3064271656078859
 51
226.953242567139398
  0
ARC
  5
4CC3
  8
0
 10
34.0850076613607769
 20
11.2689128641358494
 30
0.0
 40
0.2015960611527888
 50
209.4821056298011115
 51
215.4187755602451944
  0
ARC
  5
4CC4
  8
0
 10
34.1115914249241712
 20
11.28811046439262
 30
0.0
 40
0.2342137179315194
 50
206.2359880412876976
 51
210.3697694892941001
  0
ARC
  5
4CC5
  8
0
 10
33.9429938428122284
 20
11.2048534826039994
 30
0.0
 40
0.0461797888915376
 50
199.8697385565324964
 51
206.0522403801643918
  0
ARC
  5
4CC6
  8
0
 10
33.9007880657370322
 20
11.1898056229257499
 30
0.0
 40
0.0013856122598902
 50
160.043855684714913
 51
207.876168763772796
  0
ARC
  5
4CC7
  8
0
 10
33.8995901099744685
 20
11.1900694808850396
 30
0.0
 40
0.0002336965613697
 50
53.9725112301280419
 51
116.5496837185788053
  0
ARC
  5
4CC8
  8
0
 10
33.8894772570904195
 20
11.1785705998575295
 30
0.0
 40
0.0155459101473967
 50
33.9863533702133012
 51
48.749136391230401
  0
ARC
  5
4CC9
  8
0
 10
33.7258559835679179
 20
11.0634574111378008
 30
0.0
 40
0.2156004583445092
 50
29.8632765468581205
 51
35.0454116533733071
  0
ARC
  5
4CCA
  8
0
 10
32.830191458232747
 20
10.2578451192798408
 30
0.0
 40
1.426066390531094
 50
28.0220222790116082
 51
29.5259710641925111
  0
ARC
  5
4CCB
  8
0
 10
77.0973784090995053
 20
37.968419263278868
 30
0.0
 40
50.8004388144722085
 50
212.0534314142728931
 51
212.1166465698069885
  0
LINE
  5
4CCC
  8
0
 10
34.4837358292254166
 20
10.2461690555279699
 30
0.0
 11
34.4654523805709019
 21
10.2369201734521909
 31
0.0
  0
ARC
  5
4CCD
  8
0
 10
34.4601211770556972
 20
10.2474590456029802
 30
0.0
 40
0.0118105697207404
 50
212.6294066190575052
 51
296.8330654736358269
  0
LINE
  5
4CCE
  8
0
 10
34.4501746014531989
 20
10.24109074984103
 30
0.0
 11
34.4034350969415925
 21
10.3140927008542604
 31
0.0
  0
ARC
  5
4CCF
  8
0
 10
34.4133766937618191
 20
10.3204578089504206
 30
0.0
 40
0.0118046579116614
 50
118.8241228294822065
 51
212.6294066190613989
  0
LINE
  5
4CD0
  8
0
 10
34.4076854016745699
 20
10.3307999142870202
 30
0.0
 11
34.42767169830379
 21
10.3418036307967096
 31
0.0
  0
LINE
  5
4CD1
  8
0
 10
34.3766818111286909
 20
10.4773931701447598
 30
0.0
 11
34.3312847305025812
 21
10.4544644107966604
 31
0.0
  0
ARC
  5
4CD2
  8
0
 10
34.3258141657054026
 20
10.4654497893132294
 30
0.0
 40
0.0122721481555543
 50
213.5944930927331882
 51
296.4726622492514139
  0
ARC
  5
4CD3
  8
0
 10
35.0763350876952416
 20
10.9908786509604806
 30
0.0
 40
0.9284328936067113
 50
209.4851234519956904
 51
214.9767958967152879
  0
ARC
  5
4CD4
  8
0
 10
34.2789068202439182
 20
10.5388803124029202
 30
0.0
 40
0.0118486716704183
 50
116.3099062224006985
 51
204.6116758052691864
  0
LINE
  5
4CD5
  8
0
 10
34.2736551787222368
 20
10.5495015779434098
 30
0.0
 11
34.3174449193731803
 21
10.5728542445996592
 31
0.0
  0
LINE
  5
4CD6
  8
0
 10
34.20637627505468
 20
10.6807920224989097
 30
0.0
 11
34.1832277388673234
 21
10.6686792807507604
 31
0.0
  0
ARC
  5
4CD7
  8
0
 10
34.1780546886136278
 20
10.6815268601288391
 30
0.0
 40
0.0138499366354074
 50
227.4525184888375122
 51
291.9320751329061068
  0
LINE
  5
4CD8
  8
0
 10
34.1686893481134675
 20
10.6713233733659205
 30
0.0
 11
34.1244441711812385
 21
10.7469409331293697
 31
0.0
  0
ARC
  5
4CD9
  8
0
 10
34.134638959043258
 20
10.7529056855211191
 30
0.0
 40
0.0118113220729689
 50
118.3351971488452961
 51
210.3309516527515086
  0
LINE
  5
4CDA
  8
0
 10
34.1290329630330405
 20
10.7633018452854792
 30
0.0
 11
34.1919794914176407
 21
10.7967679137353905
 31
0.0
  0
LINE
  5
4CDB
  8
0
 10
33.9837954274900866
 20
11.0889013476441995
 30
0.0
 11
33.9429816829758408
 21
11.0680205450694693
 31
0.0
  0
ARC
  5
4CDC
  8
0
 10
33.9378663177660371
 20
11.0795787244895294
 30
0.0
 40
0.0126395598315314
 50
204.2920834175835978
 51
293.8729998926427243
  0
LINE
  5
4CDD
  8
0
 10
33.9263458629563672
 20
11.0743789558689301
 30
0.0
 11
33.7781319903035424
 21
11.3417868188379103
 31
0.0
  0
ARC
  5
4CDE
  8
0
 10
33.7908487312408568
 20
11.3493653011195601
 30
0.0
 40
0.0148178885612017
 50
168.8041917800196927
 51
211.2793729964066074
  0
LINE
  5
4CDF
  8
0
 10
33.9014223967708119
 20
11.2490132532974307
 30
0.0
 11
33.856559185299119
 21
11.2253271107694399
 31
0.0
  0
ARC
  5
4CE0
  8
0
 10
33.8504063143711633
 20
11.2369810788771698
 30
0.0
 40
0.0131784973846382
 50
228.7087085294388942
 51
297.8324229100580851
  0
LINE
  5
4CE1
  8
0
 10
33.8972661998925275
 20
11.1890100407386601
 30
0.0
 11
33.880427100455762
 21
11.1801196092198207
 31
0.0
  0
ARC
  5
4CE2
  8
0
 10
33.8751373427400893
 20
11.19013878050297
 30
0.0
 40
0.0113298424477255
 50
209.7346277465589139
 51
297.8324229100874732
  0
LINE
  5
4CE3
  8
0
 10
33.9399041726744315
 20
11.1269589300177696
 30
0.0
 11
33.9162812134265792
 21
11.1146384716817099
 31
0.0
  0
ARC
  5
4CE4
  8
0
 10
33.9110239914650435
 20
11.1271657075215096
 30
0.0
 40
0.0135856549543153
 50
235.2082247213670883
 51
292.7660082338775851
  0
LINE
  5
4CE5
  8
0
 10
33.9114030117477512
 20
11.2324126896397303
 30
0.0
 11
33.8619738179524674
 21
11.3146273106866406
 31
0.0
  0
ARC
  5
4CE6
  8
0
 10
33.3073252922156087
 20
11.0675547738772906
 30
0.0
 40
0.6117492322380553
 50
22.8294655806802105
 51
28.8481241216746191
  0
ARC
  5
4CE7
  8
0
 10
33.573786475898693
 20
11.1850844903914997
 30
0.0
 40
0.3205993519425521
 50
20.8378046356502082
 51
21.9468122341692897
  0
ARC
  5
4CE8
  8
0
 10
33.8687528386478505
 20
11.2973544633733596
 30
0.0
 40
0.0049893045948908
 50
355.8475707186923955
 51
20.8378046357060107
  0
ARC
  5
4CE9
  8
0
 10
33.8731261215454822
 20
11.2970369598984703
 30
0.0
 40
0.0006045113547757
 50
246.1828045528955045
 51
355.8475707189780906
  0
LINE
  5
4CEA
  8
0
 10
33.8660591577820185
 20
11.3166603551338607
 30
0.0
 11
33.8222224157131919
 21
11.2947521938543591
 31
0.0
  0
ARC
  5
4CEB
  8
0
 10
33.8172415991004698
 20
11.30663689568315
 30
0.0
 40
0.0128862202249832
 50
205.8923629622699139
 51
292.7383038165029916
  0
LINE
  5
4CEC
  8
0
 10
33.8056489492980532
 20
11.3010097167947201
 30
0.0
 11
33.776312836537933
 21
11.3522423806470592
 31
0.0
  0
LINE
  5
4CED
  8
0
 10
33.776312836537933
 20
11.3522423806470592
 30
0.0
 11
33.7282098875163925
 21
11.4570120762002201
 31
0.0
  0
ARC
  5
4CEE
  8
0
 10
33.7388085512017994
 20
11.4664272971391608
 30
0.0
 40
0.0141766729962654
 50
126.0032856565838983
 51
221.6159786855587868
  0
LINE
  5
4CEF
  8
0
 10
33.7304750541959208
 20
11.4778959886469405
 30
0.0
 11
33.7685844624786284
 21
11.4978556583727496
 31
0.0
  0
ARC
  5
4CF0
  8
0
 10
38.7915198878310719
 20
14.4071155483186804
 30
0.0
 40
5.8046251726109928
 50
210.0792012179886115
 51
211.1066768031163861
  0
LINE
  5
4CF1
  8
0
 10
33.7685837610244732
 20
11.4978568694575198
 30
0.0
 11
33.7184360585726779
 21
11.5828382848627403
 31
0.0
  0
ARC
  5
4CF2
  8
0
 10
33.7549465036547431
 20
11.5839146411452791
 30
0.0
 40
0.0064191045379461
 50
214.5050552541976003
 51
236.2183795775551971
  0
ARC
  5
4CF3
  8
0
 10
33.7505497576423465
 20
11.5801624291443996
 30
0.0
 40
0.0017863521069307
 50
297.5973853405749878
 51
0.535731332798804
  0
ARC
  5
4CF4
  8
0
 10
33.8959659420963533
 20
11.7705465324062608
 30
0.0
 40
0.2203606033291146
 50
195.6703604165944057
 51
200.4351987954752019
  0
ARC
  5
4CF5
  8
0
 10
33.657871474316579
 20
11.6777958258271095
 30
0.0
 40
0.042993649211068
 50
26.8802665357307085
 51
51.1243504601677614
  0
LINE
  5
4CF6
  8
0
 10
33.68379578949245
 20
11.7110266042860793
 30
0.0
 11
33.6848556751476522
 21
11.7112668099476398
 31
0.0
  0
ARC
  5
4CF7
  8
0
 10
33.4298846378216865
 20
11.4979720272455506
 30
0.0
 40
0.2701595570533845
 50
22.0183942004008308
 51
32.0501736098679615
  0
ARC
  5
4CF8
  8
0
 10
33.9156549240867378
 20
11.7458505936878694
 30
0.0
 40
0.2772421792949818
 50
202.1468494460233956
 51
211.9217183642716975
  0
ARC
  5
4CF9
  8
0
 10
33.106235687325551
 20
11.0359067894943106
 30
0.0
 40
0.7467226196467838
 50
25.5165117837974584
 51
29.7465798420394698
  0
ARC
  5
4CFA
  8
0
 10
34.4407744589672973
 20
11.7345646798102106
 30
0.0
 40
0.7606460961649609
 50
205.5580465828726915
 51
209.7106524610300085
  0
ARC
  5
4CFB
  8
0
 10
33.7598452943522886
 20
11.4222464639913195
 30
0.0
 40
0.0117862327311461
 50
111.8600310027077995
 51
181.8657831652695904
  0
ARC
  5
4CFC
  8
0
 10
33.7964939652526581
 20
11.35156268712411
 30
0.0
 40
0.0111494041898182
 50
230.00574657348389
 51
304.8259039250023079
  0
LINE
  5
4CFD
  8
0
 10
33.8113590634982017
 20
11.2951717115775594
 30
0.0
 11
33.743921590275221
 21
11.4227915066068793
 31
0.0
  0
LINE
  5
4CFE
  8
0
 10
33.755456803247597
 20
11.4331852220476904
 30
0.0
 11
33.7948709471572499
 21
11.4529366847129701
 31
0.0
  0
LINE
  5
4CFF
  8
0
 10
33.8028612200475607
 20
11.3424102404476397
 30
0.0
 11
33.8434288691475729
 21
11.3628541291476601
 31
0.0
  0
ARC
  5
4D00
  8
0
 10
33.8152921482326008
 20
11.4544478053564198
 30
0.0
 40
0.0128485466922876
 50
118.8856333962098972
 51
191.8520404506001
  0
ARC
  5
4D01
  8
0
 10
33.9912643130548702
 20
11.5082797445600207
 30
0.0
 40
0.1968218740049552
 50
196.6732573904376125
 51
211.8769711932723965
  0
ARC
  5
4D02
  8
0
 10
33.9689091498878213
 20
11.4734069963464105
 30
0.0
 40
0.1604135203869556
 50
205.503365843665307
 51
220.2593125557469023
  0
ARC
  5
4D03
  8
0
 10
33.8552961319676129
 20
11.3791230260508005
 30
0.0
 40
0.0129127344975493
 50
226.8480033541825094
 51
295.1420987408470182
  0
LINE
  5
4D04
  8
0
 10
33.8090854926474265
 20
11.4656978088476507
 30
0.0
 11
33.8550859250851488
 21
11.4896798881135105
 31
0.0
  0
ARC
  5
4D05
  8
0
 10
33.7241500351976526
 20
11.4084448140999406
 30
0.0
 40
0.1540887552656932
 50
24.8274745173092413
 51
31.8162380156899403
  0
ARC
  5
4D06
  8
0
 10
33.7055998276057096
 20
11.3448530343148999
 30
0.0
 40
0.2038345590318783
 50
17.8504123855164103
 51
39.0052273274452475
  0
ARC
  5
4D07
  8
0
 10
33.8601323735926769
 20
11.3757352001935992
 30
0.0
 40
0.0505763056102088
 50
355.4674527023225892
 51
38.6669695685328918
  0
ARC
  5
4D08
  8
0
 10
34.0388567495867633
 20
11.4957658581291806
 30
0.0
 40
0.1784525293577245
 50
217.93215947897869
 51
224.0285400146464951
  0
LINE
  5
4D09
  8
0
 10
33.8607839705475513
 20
11.3674352790476494
 30
0.0
 11
33.908299089350038
 21
11.3911601858451199
 31
0.0
  0
ARC
  5
4D0A
  8
0
 10
34.3552676515953195
 20
10.6307492454778103
 30
0.0
 40
0.0026164660729783
 50
144.1228644331027908
 51
201.4077388327470999
  0
ARC
  5
4D0B
  8
0
 10
34.4501659635349995
 20
10.4738037511779805
 30
0.0
 40
0.00161649737536
 50
298.3972409990324195
 51
7.1503212945617518
  0
ARC
  5
4D0C
  8
0
 10
34.2241506679890506
 20
10.5078839602936505
 30
0.0
 40
0.1835370200796997
 50
28.2544020802587212
 51
38.2082684633368999
  0
ARC
  5
4D0D
  8
0
 10
34.0090328569369618
 20
10.9777744043294199
 30
0.0
 40
0.0120027400633277
 50
118.0769276440152993
 51
196.1386878357089074
  0
ARC
  5
4D0E
  8
0
 10
34.0514052534060525
 20
10.9018260778476392
 30
0.0
 40
0.011950408753322
 50
215.8491865875975861
 51
296.3423852559195097
  0
ARC
  5
4D0F
  8
0
 10
34.8825464335315871
 20
11.4136762087985097
 30
0.0
 40
0.9880444271718364
 50
206.3947441550020017
 51
211.6660523076320999
  0
ARC
  5
4D10
  8
0
 10
33.5484557914780623
 20
10.6712688089079997
 30
0.0
 40
0.5401690555621325
 50
26.6933309359463387
 51
31.7060517928502392
  0
ARC
  5
4D11
  8
0
 10
34.4925495613549415
 20
11.1988983085820006
 30
0.0
 40
0.5423917478344461
 50
206.7036083825248056
 51
211.6957743462658073
  0
LINE
  5
4D12
  8
0
 10
34.0033946798214117
 20
10.9883678184208495
 30
0.0
 11
34.0412861993733884
 21
11.0081242468943792
 31
0.0
  0
LINE
  5
4D13
  8
0
 10
34.0567086894472766
 20
10.8911129551476407
 30
0.0
 11
34.0988141798877393
 21
10.9121374451015392
 31
0.0
  0
ARC
  5
4D14
  8
0
 10
33.7967290147118717
 20
10.7368273481166394
 30
0.0
 40
0.349209749252418
 50
30.1286371637306516
 51
33.1578310275890189
  0
ARC
  5
4D15
  8
0
 10
33.6545766560904767
 20
10.8170147089239297
 30
0.0
 40
0.427663631196876
 50
26.2876105179815198
 51
28.6825641632748507
  0
ARC
  5
4D16
  8
0
 10
34.0054636799384014
 20
10.9907191659586996
 30
0.0
 40
0.0398269976401908
 50
25.9137177791199917
 51
52.4023237765426373
  0
ARC
  5
4D17
  8
0
 10
33.8900529422046191
 20
10.7626410620430697
 30
0.0
 40
0.253129510114974
 50
31.3448081316329592
 51
35.7384761891023714
  0
ARC
  5
4D18
  8
0
 10
34.0569278092436605
 20
10.8842299602213597
 30
0.0
 40
0.050331856294756
 50
11.5595583841903107
 51
34.6008389769236473
  0
ARC
  5
4D19
  8
0
 10
34.5407481614713276
 20
10.1063950157315592
 30
0.0
 40
0.0775986417186696
 50
22.8901888407890297
 51
53.7745428723767986
  0
ARC
  5
4D1A
  8
0
 10
34.169251714611363
 20
9.7993571423539088
 30
0.0
 40
0.5567343947018824
 50
27.5748115091078816
 51
37.2800048409689992
  0
ARC
  5
4D1B
  8
0
 10
35.0864888688699708
 20
10.3545613542058099
 30
0.0
 40
0.5177442240325347
 50
215.0718790919688104
 51
218.1710728822264116
  0
ARC
  5
4D1C
  8
0
 10
34.5661272955923877
 20
9.9560815191317538
 30
0.0
 40
0.137864161899594
 50
26.4122095424442911
 51
34.7124747233854691
  0
ARC
  5
4D1D
  8
0
 10
34.9818328214216479
 20
10.2652563639559702
 30
0.0
 40
0.3831825003511104
 50
217.2584051978060984
 51
220.3021077175208973
  0
ARC
  5
4D1E
  8
0
 10
34.8129554450758576
 20
10.3231378051244302
 30
0.0
 40
0.2738510641927507
 50
214.2549120697929084
 51
216.5918533423167105
  0
ARC
  5
4D1F
  8
0
 10
36.2514813177405983
 20
11.3780615993928294
 30
0.0
 40
2.067388697225427
 50
212.9514558866819129
 51
216.2605672173635014
  0
ARC
  5
4D20
  8
0
 10
36.2514813177405983
 20
11.3780615993928294
 30
0.0
 40
2.067388697225427
 50
220.2290552963712003
 51
223.2702755060377058
  0
ARC
  5
4D21
  8
0
 10
-15.0052573469217805
 20
-20.6095711017375294
 30
0.0
 40
58.3447350689744013
 50
32.0671345370024596
 51
32.1919887479460627
  0
ARC
  5
4D22
  8
0
 10
34.2429416209963335
 20
10.6768096559177703
 30
0.0
 40
0.0099149049172422
 50
181.2355830089115898
 51
213.0912993950765895
  0
LINE
  5
4D23
  8
0
 10
34.2330290214474431
 20
10.6765958576476496
 30
0.0
 11
34.224755242146081
 21
10.6886423762713996
 31
0.0
  0
LINE
  5
4D24
  8
0
 10
34.2346348974476484
 20
10.67139636824764
 30
0.0
 11
34.3041784840886166
 21
10.5657793764611707
 31
0.0
  0
ARC
  5
4D25
  8
0
 10
34.1636929442704229
 20
10.8029700068465893
 30
0.0
 40
0.0099020065670322
 50
210.9880817278582015
 51
242.4502474272458983
  0
LINE
  5
4D26
  8
0
 10
34.1591130813473782
 20
10.7941907933476493
 30
0.0
 11
34.1655862985473675
 21
10.7827357435445901
 31
0.0
  0
LINE
  5
4D27
  8
0
 10
34.1552042073655926
 20
10.7978718621046497
 30
0.0
 11
34.0898166237886713
 21
10.9076447049425092
 31
0.0
  0
LINE
  5
4D28
  8
0
 10
33.9581237870636201
 20
11.13212647547528
 30
0.0
 11
33.9622198362974075
 21
11.1240282943476601
 31
0.0
  0
LINE
  5
4D29
  8
0
 10
33.9622198362974075
 20
11.1240282943476601
 30
0.0
 11
33.9838095300426275
 21
11.0888718078287898
 31
0.0
  0
LINE
  5
4D2A
  8
0
 10
33.9838095300426275
 20
11.0888718078287898
 30
0.0
 11
33.9923362957872328
 21
11.0710112758139108
 31
0.0
  0
LINE
  5
4D2B
  8
0
 10
33.9923362957872328
 20
11.0710112758139108
 30
0.0
 11
34.0325074150766511
 21
11.0035470373738402
 31
0.0
  0
LINE
  5
4D2C
  8
0
 10
33.7480653102377133
 20
11.4218627242336801
 30
0.0
 11
33.7893281230473974
 21
11.3430210292476499
 31
0.0
  0
ARC
  5
4D2D
  8
0
 10
33.9531693614701169
 20
12.3375878921880293
 30
0.0
 40
0.4760028772711133
 50
201.7392246204580886
 51
206.200349632293495
  0
ARC
  5
4D2E
  8
0
 10
33.6539616801066828
 20
12.2182813538763995
 30
0.0
 40
0.1538859937173968
 50
191.6459485776794054
 51
201.7392246204956905
  0
ARC
  5
4D2F
  8
0
 10
33.5186930350898606
 20
12.1904016199921799
 30
0.0
 40
0.0157741336685405
 50
164.0948243139864076
 51
191.6459485776786096
  0
ARC
  5
4D30
  8
0
 10
33.517736527374133
 20
12.1906741818003592
 30
0.0
 40
0.0147795498609997
 50
120.2821360670860997
 51
164.0948243139864076
  0
LINE
  5
4D31
  8
0
 10
33.510283815119891
 20
12.2034371036501792
 30
0.0
 11
33.560976074143781
 21
12.2294651302408202
 31
0.0
  0
ARC
  5
4D32
  8
0
 10
33.3599652413715617
 20
12.0480964588582609
 30
0.0
 40
0.2655356843020727
 50
25.8160657805190112
 51
36.0659232509138832
  0
ARC
  5
4D33
  8
0
 10
33.2905796010179174
 20
12.0660446211074994
 30
0.0
 40
0.3159438486253768
 50
25.9750231093018584
 51
31.1476605297238684
  0
ARC
  5
4D34
  8
0
 10
33.5158245492618505
 20
12.2031047602362506
 30
0.0
 40
0.0522831646512264
 50
30.2772437453211509
 51
47.2428102491752213
  0
ARC
  5
4D35
  8
0
 10
33.546467000654701
 20
12.2360365154649298
 30
0.0
 40
0.0073018735138627
 50
48.3547384242599705
 51
76.6110082395293688
  0
ARC
  5
4D36
  8
0
 10
33.5479633743945769
 20
12.2411691693813598
 30
0.0
 40
0.0019803277503879
 50
84.3648440738674168
 51
138.6259516374385043
  0
ARC
  5
4D37
  8
0
 10
33.5886556942407211
 20
12.2360629011806807
 30
0.0
 40
0.0426634566966164
 50
171.3517591791116956
 51
198.0428097093987105
  0
ARC
  5
4D38
  8
0
 10
33.4093992044492722
 20
12.0713886333641707
 30
0.0
 40
0.1399908709702603
 50
25.716181680129651
 51
33.2203841366576214
  0
ARC
  5
4D39
  8
0
 10
33.5077755803770003
 20
12.1358140333502806
 30
0.0
 40
0.0223960432619965
 50
33.2210152082343626
 51
43.3426295956435226
  0
ARC
  5
4D3A
  8
0
 10
33.5200000933166109
 20
12.1473510159413092
 30
0.0
 40
0.0055870967181137
 50
43.3426295956500667
 51
56.033798390765881
  0
ARC
  5
4D3B
  8
0
 10
33.5227207501568216
 20
12.1513896925138507
 30
0.0
 40
0.0007175092511611
 50
56.0337983906077994
 51
110.3363357285352038
  0
ARC
  5
4D3C
  8
0
 10
33.5228277020762278
 20
12.1515877596755608
 30
0.0
 40
0.0005935600035988
 50
126.8906750730359931
 51
171.1063258192970977
  0
ARC
  5
4D3D
  8
0
 10
33.5315920274317421
 20
12.1512240874396404
 30
0.0
 40
0.0093618336440673
 50
177.2115565123741021
 51
197.9983515586318958
  0
ARC
  5
4D3E
  8
0
 10
33.640156319928991
 20
12.1854658967465497
 30
0.0
 40
0.1231978308978852
 50
197.543023113386397
 51
206.9836618426394068
  0
ARC
  5
4D3F
  8
0
 10
33.9512029352165214
 20
12.3415378177450403
 30
0.0
 40
0.4760028772711133
 50
206.7314585311036979
 51
211.1925835429036056
  0
ARC
  5
4D40
  8
0
 10
33.6756540684348025
 20
12.1747082379764109
 30
0.0
 40
0.1538859937173968
 50
211.1925835429019003
 51
221.2858595856972102
  0
ARC
  5
4D41
  8
0
 10
33.5718730882001424
 20
12.0835797900156603
 30
0.0
 40
0.0157741336685405
 50
221.2858595856990007
 51
248.8369838494072042
  0
ARC
  5
4D42
  8
0
 10
33.5715140208792207
 20
12.0826522838920098
 30
0.0
 40
0.0147795498609997
 50
248.8369838494072042
 51
292.6496720962799145
  0
LINE
  5
4D43
  8
0
 10
33.5772055597251224
 20
12.0690125815619407
 30
0.0
 11
33.6285293334805999
 21
12.0937720957058801
 31
0.0
  0
ARC
  5
4D44
  8
0
 10
33.3626495656082795
 20
12.0427045043476308
 30
0.0
 40
0.2655356843020727
 50
16.8658849124560213
 51
27.1157423828540303
  0
ARC
  5
4D45
  8
0
 10
33.335147496393553
 20
11.9765218797070201
 30
0.0
 40
0.3159438486253768
 50
21.7841476336448103
 51
26.9567850540974199
  0
ARC
  5
4D46
  8
0
 10
33.580280137932931
 20
12.0736339618555402
 30
0.0
 40
0.0522831646512264
 50
5.688997914223874
 51
22.6545644180658599
  0
ARC
  5
4D47
  8
0
 10
33.6250272012286828
 20
12.0782340331829001
 30
0.0
 40
0.0073018735138627
 50
336.320799923852519
 51
4.5770697391218214
  0
ARC
  5
4D48
  8
0
 10
33.6300246035550288
 20
12.0763342330396704
 30
0.0
 40
0.0019803277503879
 50
274.3058565259195234
 51
328.5669640895155226
  0
ARC
  5
4D49
  8
0
 10
33.6504781274299773
 20
12.1118812755398508
 30
0.0
 40
0.0426634566966164
 50
214.888998454108787
 51
241.5800489842671936
  0
ARC
  5
4D4A
  8
0
 10
33.4110318948348493
 20
12.0681090767752206
 30
0.0
 40
0.1399908711282217
 50
19.7114240288469098
 51
27.2156264981742702
  0
ARC
  5
4D4B
  8
0
 10
33.5217359722652972
 20
12.1077720416368901
 30
0.0
 40
0.0223960432619965
 50
9.5891785677629287
 51
19.7107929551762702
  0
ARC
  5
4D4C
  8
0
 10
33.5383100560895571
 20
12.1105721182943693
 30
0.0
 40
0.0055870967181137
 50
356.8980097726108056
 51
9.5891785677315386
  0
ARC
  5
4D4D
  8
0
 10
33.5431725085947789
 20
12.1103086078823097
 30
0.0
 40
0.0007175092511611
 50
302.5954724348587774
 51
356.8980097727664997
  0
ARC
  5
4D4E
  8
0
 10
33.5433950169683328
 20
12.1102745588419296
 30
0.0
 40
0.0005935600035988
 50
241.8254823440734924
 51
286.0411330903789917
  0
ARC
  5
4D4F
  8
0
 10
33.5483876656373567
 20
12.1174869867063002
 30
0.0
 40
0.0093618336440673
 50
214.9334566047535873
 51
235.7202516510120915
  0
ARC
  5
4D50
  8
0
 10
33.6411486127092019
 20
12.1834726958291899
 30
0.0
 40
0.1231978308978852
 50
205.9481463207214063
 51
215.3887850500236993
  0
ARC
  5
4D51
  8
0
 10
33.1259181183715725
 20
11.6480354627215199
 30
0.0
 40
0.5110278861040093
 50
25.8089270419828694
 51
31.461872126348549
  0
ARC
  5
4D52
  8
0
 10
33.4656292014617307
 20
11.8127064696206308
 30
0.0
 40
0.1399908709702603
 50
25.716181680129651
 51
33.2203841366576214
  0
ARC
  5
4D53
  8
0
 10
33.5640055773894517
 20
11.8771318696067407
 30
0.0
 40
0.0223960432619965
 50
33.2210152082343626
 51
43.3426295956435226
  0
ARC
  5
4D54
  8
0
 10
33.576230090329517
 20
11.8886688521977302
 30
0.0
 40
0.0055870967181137
 50
43.3426295956500667
 51
56.033798390765881
  0
ARC
  5
4D55
  8
0
 10
33.578950747169273
 20
11.8927075287699093
 30
0.0
 40
0.0007175092511611
 50
56.0337983906077994
 51
110.3363357285352038
  0
ARC
  5
4D56
  8
0
 10
33.5790576990886791
 20
11.8929055959319907
 30
0.0
 40
0.0005935600035988
 50
126.8906750730359931
 51
171.1063258192970977
  0
ARC
  5
4D57
  8
0
 10
33.5878220244442005
 20
11.8925419236957008
 30
0.0
 40
0.0093618336440673
 50
177.2115565123741021
 51
197.9983515586318958
  0
ARC
  5
4D58
  8
0
 10
33.6963863169418971
 20
11.9267837330029707
 30
0.0
 40
0.1231978308978852
 50
197.543023113386397
 51
206.9836618426394068
  0
ARC
  5
4D59
  8
0
 10
33.4672618918473006
 20
11.8094269130316807
 30
0.0
 40
0.1399908711282217
 50
19.7114240288469098
 51
27.2156264981742702
  0
ARC
  5
4D5A
  8
0
 10
33.5779659692773009
 20
11.8490898778929399
 30
0.0
 40
0.0223960432619965
 50
9.5891785677629287
 51
19.7107929551762702
  0
ARC
  5
4D5B
  8
0
 10
33.5945400531020084
 20
11.8518899545508205
 30
0.0
 40
0.0055870967181137
 50
356.8980097726108056
 51
9.5891785677315386
  0
ARC
  5
4D5C
  8
0
 10
33.5994025056067827
 20
11.8516264441384003
 30
0.0
 40
0.0007175092511611
 50
302.5954724348587774
 51
356.8980097727664997
  0
ARC
  5
4D5D
  8
0
 10
33.5996250139807771
 20
11.8515923950980202
 30
0.0
 40
0.0005935600035988
 50
241.8254823440734924
 51
286.0411330903789917
  0
ARC
  5
4D5E
  8
0
 10
33.6046176626498223
 20
11.8588048229623908
 30
0.0
 40
0.0093618336440673
 50
214.9334566047535873
 51
235.7202516510120915
  0
ARC
  5
4D5F
  8
0
 10
33.6973786097216532
 20
11.9247905320852805
 30
0.0
 40
0.1231978308978852
 50
205.9481463207214063
 51
215.3887850500236993
  0
ARC
  5
4D60
  8
0
 10
32.9100712079918765
 20
12.1365388656280508
 30
0.0
 40
0.5754752159633983
 50
23.8889704370529792
 51
27.8795546279903306
  0
ARC
  5
4D61
  8
0
 10
33.2344093945327828
 20
12.3291175647953306
 30
0.0
 40
0.1995944934806548
 50
22.543601609381831
 51
31.8097252953972607
  0
ARC
  5
4D62
  8
0
 10
33.3929996474168718
 20
12.4288328742401397
 30
0.0
 40
0.0123174160695262
 50
26.4737722768116015
 51
58.362840031519319
  0
ARC
  5
4D63
  8
0
 10
33.3987271742555265
 20
12.4381293210240393
 30
0.0
 40
0.0013982363158355
 50
58.3628400312429605
 51
142.5462498795083093
  0
ARC
  5
4D64
  8
0
 10
33.409141272058811
 20
12.4367949627808603
 30
0.0
 40
0.011729328046824
 50
169.2656454684313871
 51
188.6894366851458926
  0
ARC
  5
4D65
  8
0
 10
33.6616624362033932
 20
12.4785319801620496
 30
0.0
 40
0.2676755994166819
 50
189.3545911056006048
 51
193.7681930375460979
  0
ARC
  5
4D66
  8
0
 10
32.8741117702877332
 20
12.1283754050223607
 30
0.0
 40
0.6117011841006881
 50
17.9645226608760495
 51
23.22409140748357
  0
ARC
  5
4D67
  8
0
 10
33.3886022842286465
 20
12.2931394564429706
 30
0.0
 40
0.0715020705897464
 50
4.1917697007991279
 51
19.5287920257831402
  0
ARC
  5
4D68
  8
0
 10
33.4523255219575901
 20
12.2976010603691801
 30
0.0
 40
0.0076260146396362
 50
339.373235991732713
 51
5.7560390656074247
  0
ARC
  5
4D69
  8
0
 10
33.454949680524102
 20
12.2966133047839108
 30
0.0
 40
0.0048221121313219
 50
320.5219257253455112
 51
339.373235991732713
  0
ARC
  5
4D6A
  8
0
 10
33.4571880090759066
 20
12.2953144411813504
 30
0.0
 40
0.0023072718272709
 50
284.8788451956451127
 51
310.020083747147396
  0
ARC
  5
4D6B
  8
0
 10
33.4578909268759332
 20
12.2942052295711104
 30
0.0
 40
0.0011261306639196
 50
231.930179043322795
 51
264.3706169280023914
  0
ARC
  5
4D6C
  8
0
 10
33.5671395112978814
 20
12.3833025570363997
 30
0.0
 40
0.1420723707693409
 50
210.2680846911354138
 51
219.2989383382436017
  0
LINE
  5
4D6D
  8
0
 10
33.4559665456929167
 20
12.3171169769990492
 30
0.0
 11
33.4086010144594425
 21
12.29483190026904
 31
0.0
  0
LINE
  5
4D6E
  8
0
 10
33.4120375486556611
 20
12.4201461355336402
 30
0.0
 11
33.3633344558836313
 21
12.3951378598041302
 31
0.0
  0
ARC
  5
4D6F
  8
0
 10
33.3705338423144227
 20
12.3824290645386395
 30
0.0
 40
0.0146063219902665
 50
119.5310549094383958
 51
141.5587405241631132
  0
ARC
  5
4D70
  8
0
 10
33.370037399800573
 20
12.3838834160586995
 30
0.0
 40
0.0133391744862587
 50
145.128171183229199
 51
185.2046468166296904
  0
ARC
  5
4D71
  8
0
 10
33.4361644388556911
 20
12.3961501388892597
 30
0.0
 40
0.080546660450082
 50
189.6318158218988117
 51
202.1160797829788862
  0
ARC
  5
4D72
  8
0
 10
33.8186740160496981
 20
12.5368413155767406
 30
0.0
 40
0.4880718031401406
 50
200.5112022622087977
 51
204.0036753817493036
  0
ARC
  5
4D73
  8
0
 10
33.8123646476103374
 20
12.5311218956875692
 30
0.0
 40
0.4799888006447148
 50
203.6863695213311871
 51
207.147230035974502
  0
ARC
  5
4D74
  8
0
 10
33.472600965820881
 20
12.3554342384470104
 30
0.0
 40
0.0975007498520388
 50
206.3794565464509105
 51
214.8835702619932988
  0
ARC
  5
4D75
  8
0
 10
33.4042765806200066
 20
12.3077303895489703
 30
0.0
 40
0.0141709434811737
 50
214.6539925351536056
 51
250.7138727237517912
  0
ARC
  5
4D76
  8
0
 10
33.4034818986812923
 20
12.3062301320092704
 30
0.0
 40
0.012495000326272
 50
251.8812892079010908
 51
294.18555909119641
  0
ARC
  5
4D77
  8
0
 10
33.1061100859498865
 20
12.2212984589648705
 30
0.0
 40
0.2960478481578903
 50
23.7294351350026282
 51
25.92279703207819
  0
ARC
  5
4D78
  8
0
 10
33.2249354634352301
 20
12.2790553995406295
 30
0.0
 40
0.1639292101115726
 50
25.9227970320769217
 51
28.2284792842194996
  0
ARC
  5
4D79
  8
0
 10
33.3269435346303169
 20
12.3338169463089393
 30
0.0
 40
0.0481515197156614
 50
28.2284792842167818
 51
33.2023101267615601
  0
ARC
  5
4D7A
  8
0
 10
33.3612921391488513
 20
12.3562960212819206
 30
0.0
 40
0.0071011184508354
 50
33.2023101268015282
 51
45.2742274508489402
  0
ARC
  5
4D7B
  8
0
 10
33.3660602586489574
 20
12.3611100027142804
 30
0.0
 40
0.0003254722975166
 50
45.2742274503412929
 51
101.3579166977200003
  0
ARC
  5
4D7C
  8
0
 10
33.3660857771853614
 20
12.3612636597237096
 30
0.0
 40
0.0001881538474914
 50
118.4435037282881069
 51
148.6496765003979021
  0
ARC
  5
4D7D
  8
0
 10
33.3665132446614905
 20
12.3611061178562593
 30
0.0
 40
0.0006412236066324
 50
156.5248203035482106
 51
187.301721548011102
  0
ARC
  5
4D7E
  8
0
 10
33.381918687230808
 20
12.3630104026315806
 30
0.0
 40
0.0161639093224561
 50
187.0567716571493122
 51
198.7035870586784938
  0
ARC
  5
4D7F
  8
0
 10
33.5576845993020711
 20
12.4220988077140504
 30
0.0
 40
0.2015960611527888
 50
198.5912386640542024
 51
204.5279085944846997
  0
ARC
  5
4D80
  8
0
 10
33.5888395411313709
 20
12.4323269033548396
 30
0.0
 40
0.2342137179315194
 50
203.640244734984293
 51
207.7740261829873134
  0
ARC
  5
4D81
  8
0
 10
33.4223993447205601
 20
12.3448367283103906
 30
0.0
 40
0.0461797888915376
 50
207.9577738441217889
 51
214.1402756677584023
  0
ARC
  5
4D82
  8
0
 10
33.3854218597636816
 20
12.3195299840383896
 30
0.0
 40
0.0013856122598902
 50
206.1338454605146921
 51
253.966158539583887
  0
ARC
  5
4D83
  8
0
 10
33.3849313811130912
 20
12.3184056399067892
 30
0.0
 40
0.0002336965613697
 50
297.4603305057232205
 51
0.037502994160694
  0
ARC
  5
4D84
  8
0
 10
33.3696846540380818
 20
12.3169803778850202
 30
0.0
 40
0.0155459101473967
 50
5.2608778330600821
 51
20.0236608540722401
  0
ARC
  5
4D85
  8
0
 10
33.1803932696281834
 20
12.2522367360765099
 30
0.0
 40
0.2156004583445092
 50
18.9646025709056509
 51
24.1467376774322098
  0
ARC
  5
4D86
  8
0
 10
32.7744803399566322
 20
12.3544023645243399
 30
0.0
 40
0.5754752159633983
 50
23.8889704370529792
 51
27.8795546279903306
  0
ARC
  5
4D87
  8
0
 10
33.0988185264970696
 20
12.5469810636916606
 30
0.0
 40
0.1995944934806548
 50
22.543601609381831
 51
31.8097252953972607
  0
ARC
  5
4D88
  8
0
 10
33.2574087793811728
 20
12.6466963731364608
 30
0.0
 40
0.0123174160695262
 50
26.4737722768116015
 51
58.362840031519319
  0
ARC
  5
4D89
  8
0
 10
33.2631363062198204
 20
12.6559928199203604
 30
0.0
 40
0.0013982363158355
 50
58.3628400312429605
 51
142.5462498795083093
  0
ARC
  5
4D8A
  8
0
 10
33.2735504040230978
 20
12.6546584616771796
 30
0.0
 40
0.011729328046824
 50
169.2656454684313871
 51
188.6894366851458926
  0
ARC
  5
4D8B
  8
0
 10
33.5260715681681418
 20
12.6963954790587508
 30
0.0
 40
0.2676755994166819
 50
189.3545911056006048
 51
193.7681930375821082
  0
ARC
  5
4D8C
  8
0
 10
32.7385209022520201
 20
12.3462389039187102
 30
0.0
 40
0.6117011841006881
 50
17.9645226608760495
 51
23.22409140748357
  0
ARC
  5
4D8D
  8
0
 10
33.2530114161929475
 20
12.5110029553393201
 30
0.0
 40
0.0715020705897464
 50
4.1917697007991279
 51
19.5287920257831402
  0
ARC
  5
4D8E
  8
0
 10
33.3167346539218912
 20
12.51546455926551
 30
0.0
 40
0.0076260146396362
 50
339.373235991732713
 51
5.7560390656074247
  0
ARC
  5
4D8F
  8
0
 10
33.3193588124879412
 20
12.5144768036802603
 30
0.0
 40
0.0048221121313219
 50
320.5219257253455112
 51
339.373235991732713
  0
ARC
  5
4D90
  8
0
 10
33.3215971410402005
 20
12.5131779400777106
 30
0.0
 40
0.0023072718272709
 50
284.8788451956451127
 51
310.020083747147396
  0
ARC
  5
4D91
  8
0
 10
33.3223000588402272
 20
12.5120687284674403
 30
0.0
 40
0.0011261306639196
 50
231.930179043322795
 51
264.3706169280023914
  0
ARC
  5
4D92
  8
0
 10
33.4315486432621825
 20
12.6011660559326906
 30
0.0
 40
0.1420723707693409
 50
210.2680846910506034
 51
219.2989383382436017
  0
LINE
  5
4D93
  8
0
 10
33.3203756776576583
 20
12.5349804758957397
 30
0.0
 11
33.2730101464237293
 21
12.5126953991653593
 31
0.0
  0
LINE
  5
4D94
  8
0
 10
33.2764463920291007
 20
12.63800948624292
 30
0.0
 11
33.2277435878479324
 21
12.6130013587008207
 31
0.0
  0
ARC
  5
4D95
  8
0
 10
33.2349429742791713
 20
12.6002925634352998
 30
0.0
 40
0.0146063219902665
 50
119.5310549094383958
 51
141.5587405241631132
  0
ARC
  5
4D96
  8
0
 10
33.2344465317648599
 20
12.6017469149550205
 30
0.0
 40
0.0133391744862587
 50
145.128171183229199
 51
185.2046468166296904
  0
ARC
  5
4D97
  8
0
 10
33.3005735708195232
 20
12.6140136377856091
 30
0.0
 40
0.080546660450082
 50
189.6318158218988117
 51
202.1160797829788862
  0
ARC
  5
4D98
  8
0
 10
33.6830831480139921
 20
12.7547048144730706
 30
0.0
 40
0.4880718031401406
 50
200.5112022622087977
 51
204.0036753817493036
  0
ARC
  5
4D99
  8
0
 10
33.6767737795746314
 20
12.7489853945842295
 30
0.0
 40
0.4799888006447148
 50
203.6863695213311871
 51
207.147230035974502
  0
ARC
  5
4D9A
  8
0
 10
33.3370100977851678
 20
12.5732977373436992
 30
0.0
 40
0.0975007498520388
 50
206.3794565464509105
 51
214.8835702619932988
  0
ARC
  5
4D9B
  8
0
 10
33.2686857125843005
 20
12.5255938884452895
 30
0.0
 40
0.0141709434811737
 50
214.6539925351536056
 51
250.7138727237517912
  0
ARC
  5
4D9C
  8
0
 10
33.2678910306460409
 20
12.5240936309059592
 30
0.0
 40
0.012495000326272
 50
251.8812892079010908
 51
294.18555909119641
  0
ARC
  5
4D9D
  8
0
 10
32.9705192179141875
 20
12.43916195786157
 30
0.0
 40
0.2960478481578903
 50
23.7294351350026282
 51
25.92279703207819
  0
ARC
  5
4D9E
  8
0
 10
33.0893445953995311
 20
12.4969188984369293
 30
0.0
 40
0.1639292101115726
 50
25.9227970320769217
 51
28.2284792842194996
  0
ARC
  5
4D9F
  8
0
 10
33.1913526665946108
 20
12.5516804452052604
 30
0.0
 40
0.0481515197156614
 50
28.2284792842167818
 51
33.2023101267615601
  0
ARC
  5
4DA0
  8
0
 10
33.2257012711135928
 20
12.5741595201782097
 30
0.0
 40
0.0071011184508354
 50
33.2023101268015282
 51
45.2742274508489402
  0
ARC
  5
4DA1
  8
0
 10
33.2304693906132513
 20
12.5789735016105997
 30
0.0
 40
0.0003254722975166
 50
45.2742274503412929
 51
101.3579166977200003
  0
ARC
  5
4DA2
  8
0
 10
33.2304949091496624
 20
12.5791271586200093
 30
0.0
 40
0.0001881538474914
 50
118.4435037282881069
 51
148.6496765003979021
  0
ARC
  5
4DA3
  8
0
 10
33.2309223766257773
 20
12.5789696167525804
 30
0.0
 40
0.0006412236066324
 50
156.5248203035482106
 51
187.301721548011102
  0
ARC
  5
4DA4
  8
0
 10
33.2463278191955567
 20
12.5808739015282693
 30
0.0
 40
0.0161639093224561
 50
187.0567716571493122
 51
198.7035870586784938
  0
ARC
  5
4DA5
  8
0
 10
33.4220937312668127
 20
12.6399623066107605
 30
0.0
 40
0.2015960611527888
 50
198.5912386640542024
 51
204.5279085944846997
  0
ARC
  5
4DA6
  8
0
 10
33.4532486730956578
 20
12.6501904022515301
 30
0.0
 40
0.2342137179315194
 50
203.640244734984293
 51
207.7740261829873134
  0
ARC
  5
4DA7
  8
0
 10
33.2868084766853087
 20
12.5627002272070794
 30
0.0
 40
0.0461797888915376
 50
207.9577738441217889
 51
214.1402756677584023
  0
ARC
  5
4DA8
  8
0
 10
33.2498309917279684
 20
12.5373934829346805
 30
0.0
 40
0.0013856122598902
 50
206.1338454605146921
 51
253.966158539583887
  0
ARC
  5
4DA9
  8
0
 10
33.2493405130773922
 20
12.5362691388031102
 30
0.0
 40
0.0002336965613697
 50
297.4603305057232205
 51
0.037502994160694
  0
ARC
  5
4DAA
  8
0
 10
33.234093786001921
 20
12.5348438767813803
 30
0.0
 40
0.0155459101473967
 50
5.2608778330600821
 51
20.0236608540722401
  0
ARC
  5
4DAB
  8
0
 10
33.044802401592932
 20
12.4701002349732004
 30
0.0
 40
0.2156004583445092
 50
18.9646025709056509
 51
24.1467376774322098
  0
ARC
  5
4DAC
  8
0
 10
32.4452340622840225
 20
12.5110656547682098
 30
0.0
 40
0.8653517575981272
 50
23.3110430450105106
 51
25.778220890455799
  0
ARC
  5
4DAD
  8
0
 10
32.8833125678436033
 20
12.7301062276572203
 30
0.0
 40
0.3756709437902321
 50
24.7521751393326284
 51
29.5275623310850115
  0
ARC
  5
4DAE
  8
0
 10
33.1587928818055104
 20
12.8902378251411704
 30
0.0
 40
0.057162048013625
 50
25.9517225414468307
 51
43.3039067576147971
  0
ARC
  5
4DAF
  8
0
 10
33.5889858866910131
 20
13.0438172445852398
 30
0.0
 40
0.4067313969324628
 50
196.2912554238785106
 51
198.9089738510589029
  0
ARC
  5
4DB0
  8
0
 10
32.5069570877665015
 20
12.5314593487835104
 30
0.0
 40
0.8006171949558361
 50
19.9772858192044787
 51
23.7186945131183116
  0
ARC
  5
4DB1
  8
0
 10
33.2354777394409382
 20
12.7632159748255702
 30
0.0
 40
0.0371996609358259
 50
355.1248456780704146
 51
19.0249980372439609
  0
ARC
  5
4DB2
  8
0
 10
33.2685027214313109
 20
12.7601472795214601
 30
0.0
 40
0.0040411632486422
 50
299.6515429002616884
 51
358.6854000073839757
  0
ARC
  5
4DB3
  8
0
 10
33.3256662322698674
 20
12.8052549143427896
 30
0.0
 40
0.0744213081321145
 50
208.2129623540859029
 51
219.5750084782496003
  0
LINE
  5
4DB4
  8
0
 10
33.2706454224973811
 20
12.7753423445283101
 30
0.0
 11
33.2219651509333005
 21
12.7515203435392603
 31
0.0
  0
LINE
  5
4DB5
  8
0
 10
33.2101908860419996
 20
12.9152527185775394
 30
0.0
 11
33.1651661229072729
 21
12.8908629654089104
 31
0.0
  0
ARC
  5
4DB6
  8
0
 10
33.1700032755418022
 20
12.8786208393922408
 30
0.0
 40
0.0131631187420527
 50
111.5601445298270988
 51
164.9806717911284863
  0
ARC
  5
4DB7
  8
0
 10
33.1772797803430208
 20
12.8775469818663293
 30
0.0
 40
0.0204869100251319
 50
167.3543411798513034
 51
204.1657848370672923
  0
ARC
  5
4DB8
  8
0
 10
33.2801481969365511
 20
12.8885908089030004
 30
0.0
 40
0.1231031059419114
 50
189.0816048994138896
 51
199.0392527023848004
  0
ARC
  5
4DB9
  8
0
 10
36.377985584860852
 20
14.0518177152919606
 30
0.0
 40
3.4320922220400192
 50
200.5256858931986983
 51
201.0277312312817912
  0
ARC
  5
4DBA
  8
0
 10
33.8394953041881479
 20
13.0829911815109305
 30
0.0
 40
0.7150438682522664
 50
201.552675011137211
 51
203.9162757336472964
  0
ARC
  5
4DBB
  8
0
 10
33.8672927807271833
 20
13.1032766232335796
 30
0.0
 40
0.7487137060789412
 50
204.4729760346374121
 51
206.2313155722295903
  0
ARC
  5
4DBC
  8
0
 10
33.2830735458526021
 20
12.8177481256861707
 30
0.0
 40
0.0984790221718947
 50
207.4524939770174967
 51
221.417165146034904
  0
ARC
  5
4DBD
  8
0
 10
33.2165510382621676
 20
12.7633487769809406
 30
0.0
 40
0.0130086299701945
 50
235.7134286930939879
 51
294.5945256930560276
  0
ARC
  5
4DBE
  8
0
 10
32.9103056636569988
 20
12.7023677889161899
 30
0.0
 40
0.2960478481578903
 50
23.7294351350026282
 51
25.92279703207819
  0
ARC
  5
4DBF
  8
0
 10
33.0291310411427901
 20
12.7601247294919098
 30
0.0
 40
0.1639292101115726
 50
25.9227970320769217
 51
28.2284792842194996
  0
ARC
  5
4DC0
  8
0
 10
33.1311391123378769
 20
12.8148862762602196
 30
0.0
 40
0.0481515197156614
 50
28.2284792842167818
 51
33.2023101267615601
  0
ARC
  5
4DC1
  8
0
 10
33.1654877168564113
 20
12.8373653512328296
 30
0.0
 40
0.0071011184508354
 50
33.2023101268015282
 51
45.2742274508489402
  0
ARC
  5
4DC2
  8
0
 10
33.1702558363560698
 20
12.8421793326651894
 30
0.0
 40
0.0003254722975166
 50
45.2742274503412929
 51
101.3579166977200003
  0
ARC
  5
4DC3
  8
0
 10
33.1702813548929214
 20
12.8423329896750005
 30
0.0
 40
0.0001881538474914
 50
118.4435037282881069
 51
148.6496765003979021
  0
ARC
  5
4DC4
  8
0
 10
33.1707088223690505
 20
12.8421754478075698
 30
0.0
 40
0.0006412236066324
 50
156.5248203035482106
 51
187.301721548011102
  0
ARC
  5
4DC5
  8
0
 10
33.186114264938368
 20
12.8440797325828608
 30
0.0
 40
0.0161639093224561
 50
187.0567716571493122
 51
198.7035870586784938
  0
ARC
  5
4DC6
  8
0
 10
33.3618801770096169
 20
12.9031681376653502
 30
0.0
 40
0.2015960611527888
 50
198.5912386640542024
 51
204.5279085944846997
  0
ARC
  5
4DC7
  8
0
 10
33.6802128611077194
 20
13.0494592711767794
 30
0.0
 40
0.5519337154265748
 50
204.6253029099524952
 51
207.3180567714622953
  0
ARC
  5
4DC8
  8
0
 10
33.2306251533425225
 20
12.8178106049145502
 30
0.0
 40
0.0461797888915376
 50
207.9577738441217889
 51
214.1402756677584023
  0
ARC
  5
4DC9
  8
0
 10
33.193570626201307
 20
12.7927009263679103
 30
0.0
 40
0.0013856122598902
 50
206.1338454605146921
 51
253.966158539583887
  0
ARC
  5
4DCA
  8
0
 10
33.1930801475507167
 20
12.7915765822367096
 30
0.0
 40
0.0002336965613697
 50
297.4603305057232205
 51
0.037502994160694
  0
ARC
  5
4DCB
  8
0
 10
33.1778334204752525
 20
12.7901513202145694
 30
0.0
 40
0.0155459101473967
 50
5.2608778330600821
 51
20.0236608540722401
  0
ARC
  5
4DCC
  8
0
 10
32.7629565074227926
 20
12.6274557997054195
 30
0.0
 40
0.461178887418722
 50
21.3397029947031385
 51
24.8827682766746889
  0
ARC
  5
4DCD
  8
0
 10
32.5881125915568433
 20
12.8432621708751196
 30
0.0
 40
0.5754752159633983
 50
23.8889704370529792
 51
27.8795546279903306
  0
ARC
  5
4DCE
  8
0
 10
32.9124507780972806
 20
13.0358408700424295
 30
0.0
 40
0.1995944934806548
 50
22.543601609381831
 51
31.8097252953972607
  0
ARC
  5
4DCF
  8
0
 10
33.071041030980922
 20
13.1355561794868905
 30
0.0
 40
0.0123174160695262
 50
26.4737722768116015
 51
58.362840031519319
  0
ARC
  5
4DD0
  8
0
 10
33.0767685578195767
 20
13.1448526262708008
 30
0.0
 40
0.0013982363158355
 50
58.3628400312429605
 51
142.5462498795083093
  0
ARC
  5
4DD1
  8
0
 10
33.0871826556233088
 20
13.1435182680279805
 30
0.0
 40
0.011729328046824
 50
169.2656454684313871
 51
188.6894366851458926
  0
ARC
  5
4DD2
  8
0
 10
33.3397038197683528
 20
13.1852552854091805
 30
0.0
 40
0.2676755994166819
 50
189.3545911056006048
 51
193.7680986822452951
  0
ARC
  5
4DD3
  8
0
 10
31.9174748618508808
 20
12.5370044146410304
 30
0.0
 40
1.3127116629978619
 50
20.6670121649212817
 51
24.2571801108854999
  0
ARC
  5
4DD4
  8
0
 10
33.0783212840926524
 20
12.9764061409738201
 30
0.0
 40
0.0715020705897464
 50
4.1917697007991279
 51
19.5287920257831402
  0
ARC
  5
4DD5
  8
0
 10
33.1420445218215889
 20
12.9808677449000296
 30
0.0
 40
0.0076260146396362
 50
339.373235991732713
 51
5.7560390656074247
  0
ARC
  5
4DD6
  8
0
 10
33.1446686803876389
 20
12.9798799893147905
 30
0.0
 40
0.0048221121313219
 50
320.5219257253455112
 51
339.373235991732713
  0
ARC
  5
4DD7
  8
0
 10
33.1469070089398983
 20
12.9785811257122301
 30
0.0
 40
0.0023072718272709
 50
284.8788451956451127
 51
310.020083747147396
  0
ARC
  5
4DD8
  8
0
 10
33.1476099267394773
 20
12.9774719141019297
 30
0.0
 40
0.0011261306639196
 50
231.930179043322795
 51
264.3706169280023914
  0
ARC
  5
4DD9
  8
0
 10
33.2568585111614325
 20
13.0665692415672403
 30
0.0
 40
0.1420723707693409
 50
210.2682145224192141
 51
219.2989383382436017
  0
LINE
  5
4DDA
  8
0
 10
33.1456855455573702
 20
13.0003836615302699
 30
0.0
 11
33.0983200143229794
 21
12.9780985847998895
 31
0.0
  0
LINE
  5
4DDB
  8
0
 10
33.0900789322206208
 20
13.1268694407807303
 30
0.0
 11
33.0413758394481434
 21
13.1018611650512309
 31
0.0
  0
ARC
  5
4DDC
  8
0
 10
33.0485752258793681
 20
13.0891523697856993
 30
0.0
 40
0.0146063219902665
 50
119.5310549094383958
 51
141.5587405241631132
  0
ARC
  5
4DDD
  8
0
 10
33.0480787833650709
 20
13.0906067213054307
 30
0.0
 40
0.0133391744862587
 50
145.128171183229199
 51
185.2046468166296904
  0
ARC
  5
4DDE
  8
0
 10
33.1142058224197413
 20
13.1028734441360193
 30
0.0
 40
0.080546660450082
 50
189.6318158218988117
 51
202.1160797829788862
  0
ARC
  5
4DDF
  8
0
 10
33.4967153996142031
 20
13.2435646208238396
 30
0.0
 40
0.4880718031401406
 50
200.5112022622087977
 51
204.0036753817493036
  0
ARC
  5
4DE0
  8
0
 10
34.6272466858492578
 20
13.7803016103210698
 30
0.0
 40
1.7394421837757781
 50
205.0058968524103875
 51
206.8238500471173893
  0
ARC
  5
4DE1
  8
0
 10
33.1623199656848726
 20
13.0387009229782294
 30
0.0
 40
0.0975007498520388
 50
206.3794565464509105
 51
214.8835702619932988
  0
ARC
  5
4DE2
  8
0
 10
33.0939955804835506
 20
12.9909970740797895
 30
0.0
 40
0.0141709434811737
 50
214.6539925351536056
 51
250.7138727237517912
  0
ARC
  5
4DE3
  8
0
 10
33.0932008985457529
 20
12.9894968165404894
 30
0.0
 40
0.012495000326272
 50
251.8812892079010908
 51
294.18555909119641
  0
ARC
  5
4DE4
  8
0
 10
32.7841514695143985
 20
12.9280217642119695
 30
0.0
 40
0.2960478481578903
 50
23.7294351350026282
 51
25.92279703207819
  0
ARC
  5
4DE5
  8
0
 10
32.9029768470001898
 20
12.9857787047877302
 30
0.0
 40
0.1639292101115726
 50
25.9227970320769217
 51
28.2284792842194996
  0
ARC
  5
4DE6
  8
0
 10
33.0049849181952766
 20
13.0405402515560294
 30
0.0
 40
0.0481515197156614
 50
28.2284792842167818
 51
33.2023101267615601
  0
ARC
  5
4DE7
  8
0
 10
33.0393335227133491
 20
13.0630193265286394
 30
0.0
 40
0.0071011184508354
 50
33.2023101268015282
 51
45.2742274508489402
  0
ARC
  5
4DE8
  8
0
 10
33.0441016422134695
 20
13.0678333079609992
 30
0.0
 40
0.0003254722975166
 50
45.2742274503412929
 51
101.3579166977200003
  0
ARC
  5
4DE9
  8
0
 10
33.0441271607498734
 20
13.0679869649708102
 30
0.0
 40
0.0001881538474914
 50
118.4435037282881069
 51
148.6496765003979021
  0
ARC
  5
4DEA
  8
0
 10
33.0445546282260025
 20
13.06782942310336
 30
0.0
 40
0.0006412236066324
 50
156.5248203035482106
 51
187.301721548011102
  0
ARC
  5
4DEB
  8
0
 10
33.0599600707957677
 20
13.0697337078786795
 30
0.0
 40
0.0161639093224561
 50
187.0567716571493122
 51
198.7035870586784938
  0
ARC
  5
4DEC
  8
0
 10
33.2357259828670166
 20
13.1288221129611706
 30
0.0
 40
0.2015960611527888
 50
198.5912386640542024
 51
204.5279085944846997
  0
ARC
  5
4DED
  8
0
 10
34.4291629086503406
 20
13.6976718025597197
 30
0.0
 40
1.5236464283916309
 50
205.3581322475181992
 51
206.9787912565749934
  0
ARC
  5
4DEE
  8
0
 10
33.1121183445845588
 20
13.0281034128415794
 30
0.0
 40
0.0461797888915376
 50
207.9577738441217889
 51
214.1402756677584023
  0
ARC
  5
4DEF
  8
0
 10
33.0751408596276804
 20
13.0027966685692409
 30
0.0
 40
0.0013856122598902
 50
206.1338454605146921
 51
253.966158539583887
  0
ARC
  5
4DF0
  8
0
 10
33.07465038097709
 20
13.0016723244376706
 30
0.0
 40
0.0002336965613697
 50
297.4603305057232205
 51
0.037502994160694
  0
ARC
  5
4DF1
  8
0
 10
33.0594036539016329
 20
13.0002470624158697
 30
0.0
 40
0.0155459101473967
 50
5.2608778330600821
 51
20.0236608540722401
  0
ARC
  5
4DF2
  8
0
 10
31.9879896263866783
 20
12.5386420416384805
 30
0.0
 40
1.182142847318191
 50
23.2650055728127185
 51
25.4779389171039909
  0
LINE
  5
4DF3
  8
0
 10
33.0318775912253102
 20
13.2296252617846708
 30
0.0
 11
32.9873178293862281
 21
13.2080325024977707
 31
0.0
  0
LINE
  5
4DF4
  8
0
 10
32.9786488309502772
 20
13.3718872989380806
 30
0.0
 11
32.9327464550603679
 21
13.3483171474849893
 31
0.0
  0
ARC
  5
4DF5
  8
0
 10
32.9399458414916069
 20
13.3356083522194595
 30
0.0
 40
0.0146063219902665
 50
119.5310549094383958
 51
141.5587405241631132
  0
ARC
  5
4DF6
  8
0
 10
32.9393712439088802
 20
13.3375261344529701
 30
0.0
 40
0.0130144163426928
 50
146.6054978189831104
 51
188.8186066593765986
  0
ARC
  5
4DF7
  8
0
 10
33.0059218922912976
 20
13.3490077005555303
 30
0.0
 40
0.080546660450082
 50
189.6318158218988117
 51
202.1160797829788862
  0
ARC
  5
4DF8
  8
0
 10
35.9783466514033705
 20
14.36927921356782
 30
0.0
 40
3.2230785837769571
 50
199.023772177522801
 51
199.5364912027513071
  0
ARC
  5
4DF9
  8
0
 10
34.5686488955909397
 20
13.8694993991258908
 30
0.0
 40
1.727409062174833
 50
199.5499633119941905
 51
201.8721691124742961
  0
ARC
  5
4DFA
  8
0
 10
33.0761569925336687
 20
13.2682906319968605
 30
0.0
 40
0.1183938136293321
 50
200.941208565925308
 51
207.8599001042564112
  0
ARC
  5
4DFB
  8
0
 10
32.9822291720958916
 20
13.2195117399230995
 30
0.0
 40
0.0125814620304107
 50
211.3615777951802102
 51
251.8641822590863057
  0
ARC
  5
4DFC
  8
0
 10
32.9821987136085397
 20
13.2194307342383901
 30
0.0
 40
0.012495000326272
 50
251.8812892079010908
 51
294.18555909119641
  0
ARC
  5
4DFD
  8
0
 10
32.6814983477840713
 20
13.1550349675616793
 30
0.0
 40
0.2960478481578903
 50
23.7294351350026282
 51
25.92279703207819
  0
ARC
  5
4DFE
  8
0
 10
32.8003237252694078
 20
13.2127919081370404
 30
0.0
 40
0.1639292101115726
 50
25.9227970320769217
 51
28.2284792842194996
  0
ARC
  5
4DFF
  8
0
 10
32.9023317964644875
 20
13.2675534549053804
 30
0.0
 40
0.0481515197156614
 50
28.2284792842167818
 51
33.2023101267615601
  0
ARC
  5
4E00
  8
0
 10
32.9366804009830219
 20
13.2900325298783297
 30
0.0
 40
0.0071011184508354
 50
33.2023101268015282
 51
45.2742274508489402
  0
ARC
  5
4E01
  8
0
 10
32.9414485204826804
 20
13.2948465113106895
 30
0.0
 40
0.0003254722975166
 50
45.2742274503412929
 51
101.3579166977200003
  0
ARC
  5
4E02
  8
0
 10
32.9414740390195391
 20
13.2950001683201204
 30
0.0
 40
0.0001881538474914
 50
118.4435037282881069
 51
148.6496765003979021
  0
ARC
  5
4E03
  8
0
 10
32.9419015064956682
 20
13.2948426264527004
 30
0.0
 40
0.0006412236066324
 50
156.5248203035482106
 51
187.301721548011102
  0
ARC
  5
4E04
  8
0
 10
32.9573069490649928
 20
13.2967469112283894
 30
0.0
 40
0.0161639093224561
 50
187.0567716571493122
 51
198.7035870586784938
  0
ARC
  5
4E05
  8
0
 10
33.1330728611362417
 20
13.3558353163108503
 30
0.0
 40
0.2015960611527888
 50
198.5912386640542024
 51
204.5279085944846997
  0
ARC
  5
4E06
  8
0
 10
33.1642278029655415
 20
13.36606341195162
 30
0.0
 40
0.2342137179315194
 50
203.640244734984293
 51
207.7740261829873134
  0
ARC
  5
4E07
  8
0
 10
32.9977876065547377
 20
13.2785732369071692
 30
0.0
 40
0.0461797888915376
 50
207.9577738441217889
 51
214.1402756677584023
  0
ARC
  5
4E08
  8
0
 10
32.9608101215978593
 20
13.2532664926348307
 30
0.0
 40
0.0013856122598902
 50
206.1338454605146921
 51
253.966158539583887
  0
ARC
  5
4E09
  8
0
 10
32.9603196429472689
 20
13.2521421485032302
 30
0.0
 40
0.0002336965613697
 50
297.4603305057232205
 51
0.037502994160694
  0
ARC
  5
4E0A
  8
0
 10
32.9450729158717976
 20
13.2507168864814702
 30
0.0
 40
0.0155459101473967
 50
5.2608778330600821
 51
20.0236608540722401
  0
ARC
  5
4E0B
  8
0
 10
32.755781531462361
 20
13.1859732446733098
 30
0.0
 40
0.2156004583445092
 50
18.9646025709056509
 51
24.1467376774322098
  0
ARC
  5
4E0C
  8
0
 10
32.980427890081252
 20
11.8800062171564598
 30
0.0
 40
0.5754752159633983
 50
23.8889704370529792
 51
27.8795546279903306
  0
ARC
  5
4E0D
  8
0
 10
33.3047660766221512
 20
12.0725849163237395
 30
0.0
 40
0.1995944934806548
 50
22.543601609381831
 51
31.8097252953972607
  0
ARC
  5
4E0E
  8
0
 10
33.4633563295057925
 20
12.1723002257682094
 30
0.0
 40
0.0123174160695262
 50
26.4737722768116015
 51
58.362840031519319
  0
ARC
  5
4E0F
  8
0
 10
33.4690838563444402
 20
12.1815966725521108
 30
0.0
 40
0.0013982363158355
 50
58.3628400312429605
 51
142.5462498795083093
  0
ARC
  5
4E10
  8
0
 10
33.4794979541477176
 20
12.1802623143089299
 30
0.0
 40
0.011729328046824
 50
169.2656454684313871
 51
188.6894366851458926
  0
ARC
  5
4E11
  8
0
 10
33.7320191182927474
 20
12.2219993316904905
 30
0.0
 40
0.2676755994166819
 50
189.3545911056006048
 51
193.7681930375794934
  0
ARC
  5
4E12
  8
0
 10
32.9444684523771016
 20
11.8718427565507998
 30
0.0
 40
0.6117011841006881
 50
17.9645226608760495
 51
23.22409140748357
  0
ARC
  5
4E13
  8
0
 10
33.458958966318022
 20
12.0366068079714008
 30
0.0
 40
0.0715020705897464
 50
4.1917697007991279
 51
19.5287920257831402
  0
ARC
  5
4E14
  8
0
 10
33.5226822040469585
 20
12.0410684118975908
 30
0.0
 40
0.0076260146396362
 50
339.373235991732713
 51
5.7560390656074247
  0
ARC
  5
4E15
  8
0
 10
33.5253063626130086
 20
12.0400806563123801
 30
0.0
 40
0.0048221121313219
 50
320.5219257253455112
 51
339.373235991732713
  0
ARC
  5
4E16
  8
0
 10
33.5275446911652821
 20
12.0387817927097895
 30
0.0
 40
0.0023072718272709
 50
284.8788451956451127
 51
310.020083747147396
  0
ARC
  5
4E17
  8
0
 10
33.5282476089653017
 20
12.0376725810995495
 30
0.0
 40
0.0011261306639196
 50
231.930179043322795
 51
264.3706169280023914
  0
ARC
  5
4E18
  8
0
 10
33.6374961933872498
 20
12.1267699085647997
 30
0.0
 40
0.1420723707693409
 50
210.2680846911354138
 51
219.2989383382436017
  0
LINE
  5
4E19
  8
0
 10
33.5263232277822922
 20
12.0605843285274901
 30
0.0
 11
33.4789576965488109
 21
12.0382992517974792
 31
0.0
  0
LINE
  5
4E1A
  8
0
 10
33.4823939421537204
 20
12.1636133388746597
 30
0.0
 11
33.4336911379729997
 21
12.1386052113325693
 31
0.0
  0
ARC
  5
4E1B
  8
0
 10
33.4408905244037911
 20
12.1258964160670502
 30
0.0
 40
0.0146063219902665
 50
119.5310549094383958
 51
141.5587405241631132
  0
ARC
  5
4E1C
  8
0
 10
33.4403940818894796
 20
12.1273507675867407
 30
0.0
 40
0.0133391744862587
 50
145.128171183229199
 51
185.2046468166296904
  0
ARC
  5
4E1D
  8
0
 10
33.5065211209445977
 20
12.1396174904173293
 30
0.0
 40
0.080546660450082
 50
189.6318158218988117
 51
202.1160797829788862
  0
ARC
  5
4E1E
  8
0
 10
33.8890306981390665
 20
12.2803086671051798
 30
0.0
 40
0.4880718031401406
 50
200.5112022622087977
 51
204.0036753817493036
  0
ARC
  5
4E1F
  8
0
 10
33.882721329699713
 20
12.2745892472159799
 30
0.0
 40
0.4799888006447148
 50
203.6863695213311871
 51
207.147230035974502
  0
ARC
  5
4E20
  8
0
 10
33.5429576479102423
 20
12.0989015899754193
 30
0.0
 40
0.0975007498520388
 50
206.3794565464509105
 51
214.8835702619932988
  0
ARC
  5
4E21
  8
0
 10
33.4746332627093821
 20
12.0511977410773792
 30
0.0
 40
0.0141709434811737
 50
214.6539925351536056
 51
250.7138727237517912
  0
ARC
  5
4E22
  8
0
 10
33.4738385807706607
 20
12.0496974835377095
 30
0.0
 40
0.012495000326272
 50
251.8812892079010908
 51
294.18555909119641
  0
ARC
  5
4E23
  8
0
 10
33.176466768039262
 20
11.9647658104932795
 30
0.0
 40
0.2960478481578903
 50
23.7294351350026282
 51
25.92279703207819
  0
ARC
  5
4E24
  8
0
 10
33.2952921455245985
 20
12.0225227510690402
 30
0.0
 40
0.1639292101115726
 50
25.9227970320769217
 51
28.2284792842194996
  0
ARC
  5
4E25
  8
0
 10
33.3973002167196782
 20
12.07728429783735
 30
0.0
 40
0.0481515197156614
 50
28.2284792842167818
 51
33.2023101267615601
  0
ARC
  5
4E26
  8
0
 10
33.4316488212382126
 20
12.0997633728099494
 30
0.0
 40
0.0071011184508354
 50
33.2023101268015282
 51
45.2742274508489402
  0
ARC
  5
4E27
  8
0
 10
33.4364169407378711
 20
12.1045773542423198
 30
0.0
 40
0.0003254722975166
 50
45.2742274503412929
 51
101.3579166977200003
  0
ARC
  5
4E28
  8
0
 10
33.4364424592747298
 20
12.1047310112521203
 30
0.0
 40
0.0001881538474914
 50
118.4435037282881069
 51
148.6496765003979021
  0
ARC
  5
4E29
  8
0
 10
33.4368699267508589
 20
12.1045734693847002
 30
0.0
 40
0.0006412236066324
 50
156.5248203035482106
 51
187.301721548011102
  0
ARC
  5
4E2A
  8
0
 10
33.4522753693201835
 20
12.1064777541599895
 30
0.0
 40
0.0161639093224561
 50
187.0567716571493122
 51
198.7035870586784938
  0
ARC
  5
4E2B
  8
0
 10
33.6280412813914324
 20
12.1655661592424806
 30
0.0
 40
0.2015960611527888
 50
198.5912386640542024
 51
204.5279085944846997
  0
ARC
  5
4E2C
  8
0
 10
33.6591962232207322
 20
12.1757942548832503
 30
0.0
 40
0.2342137179315194
 50
203.640244734984293
 51
207.7740261829873134
  0
ARC
  5
4E2D
  8
0
 10
33.4927560268099285
 20
12.0883040798387995
 30
0.0
 40
0.0461797888915376
 50
207.9577738441217889
 51
214.1402756677584023
  0
ARC
  5
4E2E
  8
0
 10
33.45577854185305
 20
12.0629973355664308
 30
0.0
 40
0.0013856122598902
 50
206.1338454605146921
 51
253.966158539583887
  0
ARC
  5
4E2F
  8
0
 10
33.4552880632024596
 20
12.0618729914352301
 30
0.0
 40
0.0002336965613697
 50
297.4603305057232205
 51
0.037502994160694
  0
ARC
  5
4E30
  8
0
 10
33.4400413361274502
 20
12.0604477294134593
 30
0.0
 40
0.0155459101473967
 50
5.2608778330600821
 51
20.0236608540722401
  0
ARC
  5
4E31
  8
0
 10
33.2507499517175518
 20
11.9957040876049099
 30
0.0
 40
0.2156004583445092
 50
18.9646025709056509
 51
24.1467376774322098
  0
ARC
  5
4E32
  8
0
 10
32.0725814199292714
 20
11.7444173640394407
 30
0.0
 40
1.426066390531094
 50
24.4840431600867703
 51
25.9879919452746115
  0
ARC
  5
4E33
  8
0
 10
80.5070931270731762
 20
31.2779228257731816
 30
0.0
 40
50.8004388144722085
 50
201.8933676544824039
 51
201.9565828100153908
  0
LINE
  5
4E34
  8
0
 10
33.0348292542364277
 20
13.0891940825608302
 30
0.0
 11
33.0166016453806321
 21
13.0798356323818492
 31
0.0
  0
ARC
  5
4E35
  8
0
 10
33.0219960057022206
 20
13.0693289471837897
 30
0.0
 40
0.0118105697207404
 50
117.1769487506604008
 51
201.3806076052368894
  0
LINE
  5
4E36
  8
0
 10
33.0109982481396571
 20
13.0650232665497708
 30
0.0
 11
33.0425993839764729
 21
12.9843062649481293
 31
0.0
  0
ARC
  5
4E37
  8
0
 10
33.0535916365849687
 20
12.9886097903634106
 30
0.0
 40
0.0118046579116614
 50
201.3806076052306935
 51
295.1858913948044005
  0
LINE
  5
4E38
  8
0
 10
33.0586151851659622
 20
12.9779273792089906
 30
0.0
 11
33.0792633332868888
 21
12.9876324196078592
 31
0.0
  0
LINE
  5
4E39
  8
0
 10
33.1590076096110522
 20
12.8666971386998696
 30
0.0
 11
33.1137781834720215
 21
12.8434394099688003
 31
0.0
  0
ARC
  5
4E3A
  8
0
 10
33.1194519260982077
 20
12.8325575780934091
 30
0.0
 40
0.0122721481555543
 50
117.5373519750285993
 51
200.4155211315463134
  0
ARC
  5
4E3B
  8
0
 10
33.985625775692121
 20
13.1310538180632204
 30
0.0
 40
0.9284328936067113
 50
199.033218327577714
 51
204.5248907722956062
  0
ARC
  5
4E3C
  8
0
 10
33.1513011973508682
 20
12.7514529253283602
 30
0.0
 40
0.0118486716704183
 50
209.398338419015289
 51
297.7001080018911239
  0
LINE
  5
4E3D
  8
0
 10
33.1568089779040918
 20
12.7409621973397496
 30
0.0
 11
33.2014368523652834
 21
12.7626702890876302
 31
0.0
  0
LINE
  5
4E3E
  8
0
 10
33.2235026316318169
 20
12.6093734886189406
 30
0.0
 11
33.2000988787201265
 21
12.5977615296998309
 31
0.0
  0
ARC
  5
4E3F
  8
0
 10
33.2074541973677029
 20
12.5860261118378194
 30
0.0
 40
0.0138499366354074
 50
122.0779390913892968
 51
186.5574957354504875
  0
LINE
  5
4E40
  8
0
 10
33.193694870381222
 20
12.5844444463606404
 30
0.0
 11
33.2288781230692791
 21
12.5042086080051007
 31
0.0
  0
ARC
  5
4E41
  8
0
 10
33.2396952261408103
 20
12.50895226184862
 30
0.0
 40
0.0118113220729689
 50
203.6790625715374858
 51
295.6748170754553939
  0
LINE
  5
4E42
  8
0
 10
33.2448126349392794
 20
12.4983071006801705
 30
0.0
 11
33.3088808305367081
 21
12.5295722487859198
 31
0.0
  0
LINE
  5
4E43
  8
0
 10
33.4229136683172499
 20
12.1894560045568401
 30
0.0
 11
33.3820346536242312
 21
12.1687032742505092
 31
0.0
  0
ARC
  5
4E44
  8
0
 10
33.3883805916049994
 20
12.1577722384405007
 30
0.0
 40
0.0126395598315314
 50
120.1370143316470944
 51
209.7179308067129
  0
LINE
  5
4E45
  8
0
 10
33.3774034319660302
 20
12.15150642333038
 30
0.0
 11
33.5066714364422467
 21
11.8744430727349908
 31
0.0
  0
ARC
  5
4E46
  8
0
 10
33.5202762503788279
 20
11.8802789901010701
 30
0.0
 40
0.0148178885612017
 50
202.7306412278823018
 51
245.2058224442550056
  0
LINE
  5
4E47
  8
0
 10
33.5040573636394825
 20
12.0287175859032605
 30
0.0
 11
33.4585288487585117
 21
12.0063368927925502
 31
0.0
  0
ARC
  5
4E48
  8
0
 10
33.4643426074082697
 20
11.9945101010182
 30
0.0
 40
0.0131784973846382
 50
116.177591314220507
 51
185.3013056948489066
  0
LINE
  5
4E49
  8
0
 10
33.4530652178425214
 20
12.0606152434485896
 30
0.0
 11
33.4359764013235932
 21
12.05221480343568
 31
0.0
  0
ARC
  5
4E4A
  8
0
 10
33.4409746167959483
 20
12.04204705186587
 30
0.0
 40
0.0113298424477255
 50
116.1775913141915026
 51
204.275386477734088
  0
LINE
  5
4E4B
  8
0
 10
33.4277088447863377
 20
12.1314760961318306
 30
0.0
 11
33.4040637706377481
 21
12.1197046603989893
 31
0.0
  0
ARC
  5
4E4C
  8
0
 10
33.411110430027037
 20
12.1080893854563705
 30
0.0
 40
0.0135856549543153
 50
121.2440059904102014
 51
178.8017895029211104
  0
LINE
  5
4E4D
  8
0
 10
33.4964905672247468
 20
12.0465483172703607
 30
0.0
 11
33.5339652766753886
 21
11.9582412662230499
 31
0.0
  0
ARC
  5
4E4E
  8
0
 10
33.0081182250789595
 20
11.6546548635719294
 30
0.0
 40
0.6117492322380553
 50
25.1618901026148514
 51
31.1805486435985415
  0
ARC
  5
4E4F
  8
0
 10
33.2597981097262334
 20
11.8011882465862392
 30
0.0
 40
0.3205993519425521
 50
32.0632019901194028
 51
33.1722095886464814
  0
ARC
  5
4E50
  8
0
 10
33.5239731251346882
 20
11.9738765878851794
 30
0.0
 40
0.0049893045948908
 50
33.1722095885988324
 51
58.1624435056008195
  0
ARC
  5
4E51
  8
0
 10
33.5262861595790298
 20
11.9776016762624895
 30
0.0
 40
0.0006045113547757
 50
58.1624435052950588
 51
167.82720967139511
  0
LINE
  5
4E52
  8
0
 10
33.5380109778154534
 20
11.9603520891740605
 30
0.0
 11
33.4945242610412777
 21
11.9377571129624105
 31
0.0
  0
ARC
  5
4E53
  8
0
 10
33.5012134613950607
 20
11.9267430641921308
 30
0.0
 40
0.0128862202249832
 50
121.2717104077890014
 51
208.1176512620189101
  0
LINE
  5
4E54
  8
0
 10
33.4898480507388001
 20
11.92066999970206
 30
0.0
 11
33.5140622231331022
 21
11.8668270130414797
 31
0.0
  0
LINE
  5
4E55
  8
0
 10
33.5140622231331022
 20
11.8668270130414797
 30
0.0
 11
33.5705660476339531
 21
11.7663387021407697
 31
0.0
  0
ARC
  5
4E56
  8
0
 10
33.5844123279764233
 20
11.7693814932806102
 30
0.0
 40
0.0141766729962654
 50
192.3940355387360057
 51
288.0067285677183122
  0
LINE
  5
4E57
  8
0
 10
33.5887947441890233
 20
11.7558991906069092
 30
0.0
 11
33.627318081934142
 21
11.7749945867961507
 31
0.0
  0
ARC
  5
4E58
  8
0
 10
38.9329758743089869
 20
14.1295525109758309
 30
0.0
 40
5.8046251726109928
 50
202.9033374211672083
 51
203.9308130062937039
  0
ARC
  5
4E59
  8
0
 10
32.8643421488711525
 20
11.5105470427546202
 30
0.0
 40
0.7467226196467838
 50
24.2634343822466505
 51
28.4935024404976183
  0
ARC
  5
4E5A
  8
0
 10
34.2138735140926826
 20
12.1797866672529604
 30
0.0
 40
0.7606460961649609
 50
204.2993617632481005
 51
208.4519676414151945
  0
ARC
  5
4E5B
  8
0
 10
33.561026857390722
 20
11.8123653314702395
 30
0.0
 40
0.0117862327311461
 50
232.0677494519615038
 51
302.1499832215764059
  0
ARC
  5
4E5C
  8
0
 10
33.5253715857245069
 20
11.8835553798854292
 30
0.0
 40
0.0111494041898182
 50
109.1841102992913051
 51
184.0042676508130057
  0
LINE
  5
4E5D
  8
0
 10
33.4884799190656111
 20
11.9287208334985806
 30
0.0
 11
33.5521103954681266
 21
11.7991608576155702
 31
0.0
  0
LINE
  5
4E5E
  8
0
 10
33.5672987524255575
 20
11.8023864229796605
 30
0.0
 11
33.6064415292550791
 21
11.8226703584863699
 31
0.0
  0
LINE
  5
4E5F
  8
0
 10
33.5217078387433673
 20
11.8940856302075808
 30
0.0
 11
33.5618138694614672
 21
11.9147668712443302
 31
0.0
  0
ARC
  5
4E60
  8
0
 10
33.6196645998263435
 20
11.8383055541558004
 30
0.0
 40
0.0128485466922876
 50
222.1579737737004905
 51
295.1243808280598273
  0
ARC
  5
4E61
  8
0
 10
33.7666300422626833
 20
11.9490540945536807
 30
0.0
 40
0.1968218740049552
 50
202.1330430310073893
 51
217.3367568338547073
  0
ARC
  5
4E62
  8
0
 10
33.7252769401577268
 20
11.9514588470389693
 30
0.0
 40
0.1604135203869556
 50
193.7507016685352994
 51
208.5066483806207884
  0
ARC
  5
4E63
  8
0
 10
33.5822259305125215
 20
11.9149377088437003
 30
0.0
 40
0.0129127344975493
 50
118.8679154834311049
 51
187.162010870097987
  0
LINE
  5
4E64
  8
0
 10
33.6251198965180365
 20
11.8266726314744002
 30
0.0
 11
33.6715561405464712
 21
11.8497995670882794
 31
0.0
  0
ARC
  5
4E65
  8
0
 10
33.5288835711087074
 20
11.79159404809986
 30
0.0
 40
0.1540887552656932
 50
22.193776208585291
 51
29.1825397069896297
  0
ARC
  5
4E66
  8
0
 10
33.4665292930546627
 20
11.8139540272203298
 30
0.0
 40
0.2038345590318783
 50
15.0047868968377802
 51
36.1596018387625406
  0
ARC
  5
4E67
  8
0
 10
33.5823267614289023
 20
11.9208416422971606
 30
0.0
 40
0.0505763056102088
 50
15.34304465575031
 51
58.5425615219760616
  0
ARC
  5
4E68
  8
0
 10
33.784472212300642
 20
11.9949157815806409
 30
0.0
 40
0.1784525293577245
 50
189.981474209646592
 51
196.07893359714339
  0
LINE
  5
4E69
  8
0
 10
33.5759940385280231
 20
11.9262462597934409
 30
0.0
 11
33.6231122953574584
 21
11.9507498838258996
 31
0.0
  0
ARC
  5
4E6A
  8
0
 10
33.270507134714741
 20
12.7592517666648604
 30
0.0
 40
0.0026164660729783
 50
212.6022753915393082
 51
269.8871497911869142
  0
ARC
  5
4E6B
  8
0
 10
33.1992858496298311
 20
12.9282639151655694
 30
0.0
 40
0.00161649737536
 50
46.8596929297359992
 51
115.6127732252791986
  0
ARC
  5
4E6C
  8
0
 10
33.0940443220362965
 20
12.7253634584289497
 30
0.0
 40
0.1835370200796997
 50
15.8017457609427101
 51
25.7556121440482713
  0
ARC
  5
4E6D
  8
0
 10
33.3478292875335924
 20
12.2751791702584807
 30
0.0
 40
0.0120027400633277
 50
217.871326388580286
 51
295.9330865802922972
  0
ARC
  5
4E6E
  8
0
 10
33.3112778770653009
 20
12.3540940780432997
 30
0.0
 40
0.011950408753322
 50
117.667628968378196
 51
198.1608276366978885
  0
ARC
  5
4E6F
  8
0
 10
34.2138409062001472
 20
12.7258012158462801
 30
0.0
 40
0.9880444271718364
 50
202.343961916647288
 51
207.6152700692902044
  0
ARC
  5
4E70
  8
0
 10
32.8291742908170079
 20
12.0826333117409899
 30
0.0
 40
0.5401690555621325
 50
22.3039624314397997
 51
27.3166832883395188
  0
ARC
  5
4E71
  8
0
 10
33.8108806121355983
 20
12.5364599679978799
 30
0.0
 40
0.5423917478344461
 50
202.3142398780221072
 51
207.3064058417548949
  0
LINE
  5
4E72
  8
0
 10
33.3530873876690919
 20
12.2643920554327295
 30
0.0
 11
33.39133942160354
 21
12.28344108742494
 31
0.0
  0
LINE
  5
4E73
  8
0
 10
33.3057262098038507
 20
12.3646806932931703
 30
0.0
 11
33.3474256388765014
 21
12.3863655972358302
 31
0.0
  0
ARC
  5
4E74
  8
0
 10
33.0281152282888968
 20
12.2449909996891897
 30
0.0
 40
0.349209749252418
 50
20.8521831967028213
 51
23.8813770605640983
  0
ARC
  5
4E75
  8
0
 10
33.0094614446563597
 20
12.0828511148645301
 30
0.0
 40
0.427663631196876
 50
25.3274500610115503
 51
27.7159620698850304
  0
ARC
  5
4E76
  8
0
 10
33.3562057444989719
 20
12.2646843693176297
 30
0.0
 40
0.0398269976401908
 50
1.607690447737639
 51
28.0962964451695107
  0
ARC
  5
4E77
  8
0
 10
33.1038428445019406
 20
12.3053319593439099
 30
0.0
 40
0.253129510114974
 50
18.2715380351954195
 51
22.6652060926653895
  0
ARC
  5
4E78
  8
0
 10
33.3002858073038794
 20
12.3689027370256905
 30
0.0
 40
0.050331856294756
 50
19.4091752473660293
 51
42.4504558400882672
  0
ARC
  5
4E79
  8
0
 10
32.9552382688604908
 20
13.2174612384347796
 30
0.0
 40
0.0775986417186696
 50
0.2354713519101689
 51
31.1198253834914986
  0
ARC
  5
4E7A
  8
0
 10
32.4885002725488619
 20
13.0973050545864105
 30
0.0
 40
0.5567343947018824
 50
16.7300093833100796
 51
26.4352027151923217
  0
ARC
  5
4E7B
  8
0
 10
33.4767357123539284
 20
13.5131973838302102
 30
0.0
 40
0.5177442240325347
 50
195.8389413420476899
 51
198.9381351323326044
  0
ARC
  5
4E7C
  8
0
 10
32.8485782311306309
 20
13.3263454577964193
 30
0.0
 40
0.1378129900700086
 50
19.2967686634436504
 51
27.6001676548426893
  0
ARC
  5
4E7D
  8
0
 10
33.3433752801467733
 20
13.48111183165555
 30
0.0
 40
0.3835969809202817
 50
193.7103632508315911
 51
196.7507867873715952
  0
ARC
  5
4E7E
  8
0
 10
33.2905700670987414
 20
13.3103419528322409
 30
0.0
 40
0.2738510642148377
 50
197.4181608819937992
 51
199.7551021543654031
  0
ARC
  5
4E7F
  8
0
 10
34.9894705788635534
 20
13.8543621262497592
 30
0.0
 40
2.067388697225427
 50
197.7494470069179897
 51
201.0585583376065131
  0
ARC
  5
4E80
  8
0
 10
-21.0130605580827812
 20
-8.8211403073294541
 30
0.0
 40
58.3447350689744013
 50
21.818025476354439
 51
21.9428796872830212
  0
ARC
  5
4E81
  8
0
 10
33.241767820701817
 20
12.6412994441355799
 30
0.0
 40
0.0099149049172422
 50
200.9187148292193967
 51
232.7744312153706971
  0
LINE
  5
4E82
  8
0
 10
33.2357697542194899
 20
12.6334046016424502
 30
0.0
 11
33.2406547944853799
 21
12.6196310611940508
 31
0.0
  0
LINE
  5
4E83
  8
0
 10
33.2325064279768583
 20
12.6377593955045402
 30
0.0
 11
33.1879164980621013
 21
12.7560936574371695
 31
0.0
  0
ARC
  5
4E84
  8
0
 10
33.2972766510995086
 20
12.5030404239699102
 30
0.0
 40
0.0099020065670322
 50
171.5597667970523901
 51
203.0219324964255065
  0
LINE
  5
4E85
  8
0
 10
33.2874818881225281
 20
12.5044938173366305
 30
0.0
 11
33.2820173277088713
 21
12.5164629144786197
 31
0.0
  0
LINE
  5
4E86
  8
0
 10
33.2881632877030995
 20
12.4991679129426903
 30
0.0
 11
33.338558048248359
 21
12.3817541947480407
 31
0.0
  0
LINE
  5
4E87
  8
0
 10
33.4428021900441479
 20
12.1432835939445507
 30
0.0
 11
33.4386568101415094
 21
12.1513566344108401
 31
0.0
  0
LINE
  5
4E88
  8
0
 10
33.4386568101415094
 20
12.1513566344108401
 30
0.0
 11
33.4228980543482166
 21
12.1894847741005901
 31
0.0
  0
LINE
  5
4E89
  8
0
 10
33.4228980543482166
 20
12.1894847741005901
 30
0.0
 11
33.4134574471451913
 21
12.2068795800366594
 31
0.0
  0
LINE
  5
4E8A
  8
0
 10
33.4134574471451913
 20
12.2068795800366594
 30
0.0
 11
33.3824773196858828
 21
12.2790272866938999
 31
0.0
  0
LINE
  5
4E8B
  8
0
 10
33.5537939308589728
 20
11.8030594163767404
 30
0.0
 11
33.5142493988834929
 21
11.8827768083314496
 31
0.0
  0
ARC
  5
4E8C
  8
0
 10
33.6189212780161313
 20
11.6950469503198704
 30
0.0
 40
0.0128396806970084
 50
122.069849318094299
 51
209.5680843249932934
  0
ARC
  5
4E8D
  8
0
 10
33.6409829053957026
 20
11.6501409262906002
 30
0.0
 40
0.0116814631447753
 50
110.6190581335848009
 51
180.0244804145688988
  0
ARC
  5
4E8E
  8
0
 10
33.6770991075993322
 20
11.5791390805314105
 30
0.0
 40
0.0112233861333047
 50
229.655369483302195
 51
304.2373655929778806
  0
ARC
  5
4E8F
  8
0
 10
33.7003786278357609
 20
11.5354138408155293
 30
0.0
 40
0.0128587555673114
 50
203.3406725412646097
 51
292.007643179145191
  0
ARC
  5
4E90
  8
0
 10
35.4536159920532725
 20
12.5307361750877906
 30
0.0
 40
2.0288454274307388
 50
204.5209991104474057
 51
209.5443212292051953
  0
LINE
  5
4E91
  8
0
 10
33.6293014433169617
 20
11.6501359352239806
 30
0.0
 11
33.6698332707476027
 21
11.5705850165476605
 31
0.0
  0
LINE
  5
4E92
  8
0
 10
33.6834135770475029
 20
11.5698606777476503
 30
0.0
 11
33.6953932357475594
 21
11.5758976270476595
 31
0.0
  0
LINE
  5
4E93
  8
0
 10
33.6368692432472187
 20
11.6610741035476408
 30
0.0
 11
33.6488543459647431
 21
11.6672127923401199
 31
0.0
  0
ARC
  5
4E94
  8
0
 10
33.0689927441755813
 20
11.3136476879644796
 30
0.0
 40
0.650927034896704
 50
24.6210541513290302
 51
29.4735287583613186
  0
ARC
  5
4E95
  8
0
 10
34.2337225295297927
 20
11.9081447615640297
 30
0.0
 40
0.6579055244559853
 50
204.6328607318480124
 51
209.4342823287252884
  0
LINE
  5
4E96
  8
0
 10
33.6121067021474289
 20
11.7059224868476495
 30
0.0
 11
33.6492609071449067
 21
11.7253558389525505
 31
0.0
  0
LINE
  5
4E97
  8
0
 10
33.6492609071449067
 20
11.7253558389525505
 30
0.0
 11
33.6251808940798824
 21
11.7739352173022809
 31
0.0
  0
ARC
  5
4E98
  8
0
 10
33.5745115431629699
 20
11.6333022115343905
 30
0.0
 40
0.1185805116198781
 50
27.4578754942261689
 51
50.9227193582614532
  0
LINE
  5
4E99
  8
0
 10
33.7051971928474075
 20
11.5234920529477005
 30
0.0
 11
33.7425015681758111
 21
11.5420563353710399
 31
0.0
  0
ARC
  5
4E9A
  8
0
 10
33.8078338083575716
 20
11.7697442435302104
 30
0.0
 40
0.0407983544981269
 50
171.190117390974109
 51
199.2584317071489011
  0
ARC
  5
4E9B
  8
0
 10
33.7545595615990592
 20
11.7471677807521502
 30
0.0
 40
0.0316033187535926
 50
30.1532568703733688
 51
65.7954207995506124
  0
ARC
  5
4E9C
  8
0
 10
33.6287319852514983
 20
11.8334272052114908
 30
0.0
 40
0.0458471646905336
 50
351.679329605861426
 51
20.9226575875139815
  0
ARC
  5
4E9D
  8
0
 10
33.7180367473067406
 20
11.8756464605058998
 30
0.0
 40
0.0657072988422885
 50
208.5812342746515924
 51
228.0311616462273889
  0
ARC
  5
4E9E
  8
0
 10
34.3779627284791118
 20
11.6554641840968198
 30
0.0
 40
0.5595522034265326
 50
195.9367374983305865
 51
197.7896247762471091
  0
ARC
  5
4E9F
  8
0
 10
33.8346760092301508
 20
11.4797330588408908
 30
0.0
 40
0.0227047148432533
 50
25.9824179099582686
 51
76.65477724786507
  0
ENDSEC
  0
EOF
