  0
SECTION
  2
HEADER
  9
$ACADVER
  1
AC1009
  9
$INSBASE
 10
5.7281445104803916
 20
-2.1834458076985821
 30
0.0
  9
$EXTMIN
 10
3.5650874655844582
 20
-2.537776516398548
 30
0.0
  9
$EXTMAX
 10
7.8912015553763259
 20
7.2161308450943116
 30
0.0
  9
$LIMMIN
 10
0.0
 20
0.0
  9
$LIMMAX
 10
11.6929133858000007
 20
8.2677165353999982
  9
$ORTHOMODE
 70
     0
  9
$REGENMODE
 70
     1
  9
$FILLMODE
 70
     1
  9
$QTEXTMODE
 70
     0
  9
$MIRRTEXT
 70
     0
  9
$DRAGMODE
 70
     2
  9
$LTSCALE
 40
0.6431102362
  9
$OSMODE
 70
  3839
  9
$ATTMODE
 70
     1
  9
$TEXTSIZE
 40
0.2
  9
$TRACEWID
 40
0.05
  9
$TEXTSTYLE
  7
STANDARD
  9
$CLAYER
  8
0
  9
$CELTYPE
  6
BYLAYER
  9
$CECOLOR
 62
   256
  9
$DIMSCALE
 40
1.0
  9
$DIMASZ
 40
0.1875
  9
$DIMEXO
 40
0.0625
  9
$DIMDLI
 40
0.4443307087
  9
$DIMRND
 40
0.0
  9
$DIMDLE
 40
0.0
  9
$DIMEXE
 40
0.125
  9
$DIMTP
 40
0.01
  9
$DIMTM
 40
0.01
  9
$DIMTXT
 40
1.0
  9
$DIMCEN
 40
0.1052362205
  9
$DIMTSZ
 40
0.0
  9
$DIMTOL
 70
     1
  9
$DIMLIM
 70
     0
  9
$DIMTIH
 70
     1
  9
$DIMTOH
 70
     1
  9
$DIMSE1
 70
     0
  9
$DIMSE2
 70
     0
  9
$DIMTAD
 70
     0
  9
$DIMZIN
 70
     0
  9
$DIMBLK
  1

  9
$DIMASO
 70
     1
  9
$DIMSHO
 70
     1
  9
$DIMPOST
  1
\X
  9
$DIMAPOST
  1

  9
$DIMALT
 70
     1
  9
$DIMALTD
 70
     2
  9
$DIMALTF
 40
25.3999999999999986
  9
$DIMLFAC
 40
1.0
  9
$DIMTOFL
 70
     0
  9
$DIMTVP
 40
0.0
  9
$DIMTIX
 70
     0
  9
$DIMSOXD
 70
     0
  9
$DIMSAH
 70
     0
  9
$DIMBLK1
  1

  9
$DIMBLK2
  1

  9
$DIMSTYLE
  2
STANDARD
  9
$DIMCLRD
 70
     0
  9
$DIMCLRE
 70
     0
  9
$DIMCLRT
 70
     0
  9
$DIMTFAC
 40
1.0
  9
$DIMGAP
 40
0.09
  9
$LUNITS
 70
     2
  9
$LUPREC
 70
     4
  9
$SKETCHINC
 40
0.1
  9
$FILLETRAD
 40
0.0
  9
$AUNITS
 70
     0
  9
$AUPREC
 70
     0
  9
$MENU
  1
.
  9
$ELEVATION
 40
0.0
  9
$PELEVATION
 40
0.0
  9
$THICKNESS
 40
0.0
  9
$LIMCHECK
 70
     0
  9
$BLIPMODE
 70
     0
  9
$CHAMFERA
 40
0.0
  9
$CHAMFERB
 40
0.0
  9
$SKPOLY
 70
     0
  9
$TDCREATE
 40
2457893.7626041672192514
  9
$TDUPDATE
 40
2459052.6118634259328246
  9
$TDINDWG
 40
0.3141245255
  9
$TDUSRTIMER
 40
0.3141245255
  9
$USRTIMER
 70
     1
  9
$ANGBASE
 50
0.0
  9
$ANGDIR
 70
     0
  9
$PDMODE
 70
     0
  9
$PDSIZE
 40
0.3125
  9
$PLINEWID
 40
0.0
  9
$COORDS
 70
     1
  9
$SPLFRAME
 70
     0
  9
$SPLINETYPE
 70
     6
  9
$SPLINESEGS
 70
     8
  9
$ATTDIA
 70
     1
  9
$ATTREQ
 70
     1
  9
$HANDLING
 70
     1
  9
$HANDSEED
  5
321D
  9
$SURFTAB1
 70
     6
  9
$SURFTAB2
 70
     6
  9
$SURFTYPE
 70
     6
  9
$SURFU
 70
     6
  9
$SURFV
 70
     6
  9
$UCSNAME
  2

  9
$UCSORG
 10
0.0
 20
0.0
 30
0.0
  9
$UCSXDIR
 10
1.0
 20
0.0
 30
0.0
  9
$UCSYDIR
 10
0.0
 20
1.0
 30
0.0
  9
$PUCSNAME
  2

  9
$PUCSORG
 10
0.0
 20
0.0
 30
0.0
  9
$PUCSXDIR
 10
1.0
 20
0.0
 30
0.0
  9
$PUCSYDIR
 10
0.0
 20
1.0
 30
0.0
  9
$USERI1
 70
     0
  9
$USERI2
 70
     0
  9
$USERI3
 70
     0
  9
$USERI4
 70
     0
  9
$USERI5
 70
     0
  9
$USERR1
 40
0.0
  9
$USERR2
 40
0.0
  9
$USERR3
 40
0.0
  9
$USERR4
 40
0.0
  9
$USERR5
 40
0.0
  9
$WORLDVIEW
 70
     1
  9
$SHADEDGE
 70
     3
  9
$SHADEDIF
 70
    70
  9
$TILEMODE
 70
     1
  9
$MAXACTVP
 70
    48
  9
$PLIMCHECK
 70
     0
  9
$PEXTMIN
 10
1.0000000000000000E+20
 20
1.0000000000000000E+20
 30
1.0000000000000000E+20
  9
$PEXTMAX
 10
-1.0000000000000000E+20
 20
-1.0000000000000000E+20
 30
-1.0000000000000000E+20
  9
$PLIMMIN
 10
0.0
 20
0.0
  9
$PLIMMAX
 10
12.0
 20
9.0
  9
$UNITMODE
 70
     0
  9
$VISRETAIN
 70
     1
  9
$PLINEGEN
 70
     0
  9
$PSLTSCALE
 70
     1
  0
ENDSEC
  0
SECTION
  2
TABLES
  0
TABLE
  2
VPORT
 70
     1
  0
VPORT
  2
*ACTIVE
 70
     0
 10
0.0
 20
0.0
 11
1.0
 21
1.0
 12
0.0
 22
0.0
 13
0.0
 23
0.0
 14
1.0
 24
1.0
 15
0.0
 25
0.0
 16
-0.0000000000000098
 26
0.0
 36
44.298000010745902
 17
5.7281445264816284
 27
2.339177131652832
 37
0.0
 40
10.6702374647225202
 41
3.314341846758349
 42
50.0
 43
0.0
 44
0.0
 50
0.0
 51
0.0
 71
     0
 72
   100
 73
     1
 74
     1
 75
     0
 76
     0
 77
     0
 78
     0
  0
ENDTAB
  0
TABLE
  2
LTYPE
 70
     2
  0
LTYPE
  2
CONTINUOUS
 70
     0
  3
Solid line
 72
    65
 73
     0
 40
0.0
  0
LTYPE
  2
PHANTOM2
 70
     0
  3
___ _ _ ___ _ _ ___ _ _ ___ _ _
 72
    65
 73
     6
 40
1.25
 49
0.625
 49
-0.125
 49
0.125
 49
-0.125
 49
0.125
 49
-0.125
  0
ENDTAB
  0
TABLE
  2
LAYER
 70
     2
  0
LAYER
  2
0
 70
     0
 62
     7
  6
CONTINUOUS
  0
LAYER
  2
DEFPOINTS
 70
     0
 62
     7
  6
CONTINUOUS
  0
ENDTAB
  0
TABLE
  2
STYLE
 70
     1
  0
STYLE
  2
STANDARD
 70
     0
 40
0.0
 41
0.8
 50
0.0
 71
     0
 42
0.2
  3
txt
  4

  0
ENDTAB
  0
TABLE
  2
VIEW
 70
     0
  0
ENDTAB
  0
TABLE
  2
UCS
 70
     0
  0
ENDTAB
  0
TABLE
  2
APPID
 70
     9
  0
APPID
  2
ACAD
 70
     0
  0
APPID
  2
ACAD_MLEADERVER
 70
     0
  0
APPID
  2
ACAD_NAV_VCDISPLAY
 70
     0
  0
APPID
  2
ACAD_EXEMPT_FROM_CAD_STANDARDS
 70
     0
  0
APPID
  2
ACAD_DSTYLE_DIMJAG
 70
     0
  0
APPID
  2
ACAD_DSTYLE_DIMTALN
 70
     0
  0
APPID
  2
ACDBATTR
 70
     0
  0
APPID
  2
ACAD_PSEXT
 70
     0
  0
APPID
  2
ACADANNOTATIVE
 70
     0
  0
ENDTAB
  0
TABLE
  2
DIMSTYLE
 70
     3
  0
DIMSTYLE
  2
STANDARD
 70
     0
  3

  4

  5

  6

  7

 40
1.0
 41
0.1875
 42
0.0625
 43
0.38
 44
0.125
 45
0.0
 46
0.0
 47
0.01
 48
0.01
140
0.15625
141
0.09
142
0.0
143
25.3999999999999986
144
1.0
145
0.0
146
1.0
147
0.09
 71
     1
 72
     0
 73
     1
 74
     1
 75
     0
 76
     0
 77
     0
 78
     4
170
     0
171
     2
172
     0
173
     0
174
     0
175
     0
176
     0
177
     0
178
     0
  0
DIMSTYLE
  2
ANNOTATIVE
 70
     0
  3

  4

  5

  6

  7

 40
0.0
 41
2.5
 42
0.625
 43
3.75
 44
1.25
 45
0.0
 46
0.0
 47
0.0
 48
0.0
140
2.5
141
2.5
142
0.0
143
0.03937007874016
144
1.0
145
0.0
146
1.0
147
0.625
 71
     0
 72
     0
 73
     0
 74
     0
 75
     0
 76
     0
 77
     1
 78
     8
170
     0
171
     3
172
     1
173
     0
174
     0
175
     0
176
     0
177
     0
178
     0
  0
DIMSTYLE
  2
ISO-25
 70
     0
  3

  4

  5

  6

  7

 40
1.0
 41
2.5
 42
0.625
 43
3.75
 44
1.25
 45
0.0
 46
0.0
 47
0.0
 48
0.0
140
2.5
141
2.5
142
0.0
143
0.03937007874016
144
1.0
145
0.0
146
1.0
147
0.625
 71
     0
 72
     0
 73
     0
 74
     0
 75
     0
 76
     0
 77
     1
 78
     8
170
     0
171
     3
172
     1
173
     0
174
     0
175
     0
176
     0
177
     0
178
     0
  0
ENDTAB
  0
ENDSEC
  0
SECTION
  2
BLOCKS
  0
BLOCK
  8
0
  2
$MODEL_SPACE
 70
     0
 10
0.0
 20
0.0
 30
0.0
  3
$MODEL_SPACE
  1

  0
ENDBLK
  5
21
  8
0
  0
BLOCK
 67
     1
  8
0
  2
$PAPER_SPACE
 70
     0
 10
0.0
 20
0.0
 30
0.0
  3
$PAPER_SPACE
  1

  0
ENDBLK
  5
1D
 67
     1
  8
0
  0
BLOCK
  8
0
  2
_FILLED
 70
     0
 10
0.0
 20
0.0
 30
0.0
  3
_FILLED
  1

  0
SOLID
  5
1F2C
  8
0
  6
BYBLOCK
 62
     0
 10
0.0
 20
0.0
 30
0.0
 11
-1.0
 21
0.1666666667
 31
0.0
 12
-1.0
 22
-0.1666666667
 32
0.0
 13
-1.0
 23
-0.1666666667
 33
0.0
  0
ENDBLK
  5
1F2D
  8
0
  6
BYBLOCK
 62
     0
  0
ENDSEC
  0
SECTION
  2
ENTITIES
  0
ATTDEF
  5
1B48
  8
DEFPOINTS
 10
5.7281496357830974
 20
-2.184982058576487
 30
0.0
 40
0.001
  1
K-72415T-E
  3

  2
MODELNUMBER
 70
     0
1001
ACDBATTR
1070
     0
1070
     1
  0
ATTDEF
  5
1B49
  8
DEFPOINTS
 10
5.7281496357830974
 20
-2.1866487252431521
 30
0.0
 40
0.001
  1
AWAKEN
  3

  2
TRADENAME
 70
     0
1001
ACDBATTR
1070
     0
1070
     1
  0
ATTDEF
  5
1B4A
  8
DEFPOINTS
 10
5.7281496357830974
 20
-2.1883153919098168
 30
0.0
 40
0.001
  1
HANDSHOWER
  3

  2
PRODUCT
 70
     0
1001
ACDBATTR
1070
     0
1070
     1
  0
LINE
  5
29CC
  8
0
 10
5.2412252129803916
 20
-2.1834458076985821
 30
0.0
 11
6.2150638079803917
 21
-2.1834458076985821
 31
0.0
  0
LINE
  5
29E3
  8
0
 10
5.7897047315803913
 20
2.7451682826258028
 30
0.0
 11
5.7862280295391564
 21
3.4849429907340839
 31
0.0
  0
LINE
  5
29ED
  8
0
 10
6.2347488473803887
 20
3.032257051925801
 30
0.0
 11
6.2347488473803914
 21
-2.163760768398582
 31
0.0
  0
ARC
  5
29F9
  8
0
 10
6.2150638079803917
 20
-2.163760768398582
 30
0.0
 40
0.0196850394
 50
269.9999999999000124
 51
359.9999999998998987
  0
ARC
  5
29FA
  8
0
 10
-1365.6888794508261071
 20
-1.259118622078049
 30
0.0
 40
1371.7733015416140461
 50
0.1546742248314923
 51
0.1686710686793623
  0
ARC
  5
29FB
  8
0
 10
6.3980917629200968
 20
2.756608607271914
 30
0.0
 40
0.3204106319976285
 50
120.6500047769113024
 51
175.9583540779306929
  0
ARC
  5
29FC
  8
0
 10
5.7360754546435953
 20
5.3000645578796766
 30
0.0
 40
2.3219875186323371
 50
282.4015321370071092
 51
310.3074344276378724
  0
ARC
  5
29FD
  8
0
 10
6.0270550101128437
 20
4.9477395386191692
 30
0.0
 40
1.865088270284454
 50
310.4923275074768867
 51
358.1791733741167718
  0
ARC
  5
29FE
  8
0
 10
6.0285741123648249
 20
5.251170717184638
 30
0.0
 40
1.8626312938957801
 50
0.116507663148228
 51
54.6927407585968268
  0
ARC
  5
29FF
  8
0
 10
5.7282223085352131
 20
4.8632329920321613
 30
0.0
 40
2.3528978530621498
 50
54.1839527013715028
 51
90.0018944724653238
  0
ARC
  5
2A00
  8
0
 10
6.0040345792464294
 20
4.8767313363877243
 30
0.0
 40
1.8872035334459081
 50
0.3566355421679187
 51
62.4252268588227892
  0
ARC
  5
2A01
  8
0
 10
5.7104995166094108
 20
2.7436542505799149
 30
0.0
 40
0.0792196842434714
 50
315.4027534542502735
 51
1.0950930807553509
  0
ARC
  5
2A02
  8
0
 10
5.7468761491515297
 20
4.5278126716643596
 30
0.0
 40
2.21846449000153
 50
41.0460519113277229
 51
73.1413389868192354
  0
ARC
  5
2A03
  8
0
 10
6.0952472578331331
 20
4.917695804041629
 30
0.0
 40
1.700959605775261
 50
349.9595210134717718
 51
38.8466088962967007
  0
ARC
  5
2A04
  8
0
 10
5.9313040149188359
 20
4.9887960663353086
 30
0.0
 40
1.8752456149948351
 50
293.0428521321998119
 51
348.6936115470306277
  0
ARC
  5
2A05
  8
0
 10
5.7273296403211829
 20
5.35111804815278
 30
0.0
 40
2.288958178966225
 50
271.524128325777383
 51
294.1913652478262975
  0
ARC
  5
2A06
  8
0
 10
5.7520873049243413
 20
2.4441249875816089
 30
0.0
 40
0.327336254027214
 50
312.4995506145644981
 51
359.9923167775548905
  0
ARC
  5
2A40
  8
0
 10
6.6135465345391182
 20
3.9168888687516299
 30
0.0
 40
0.0192984899190496
 50
99.3118873504251809
 51
189.7556834185047023
  0
ARC
  5
2A41
  8
0
 10
6.6160479829607359
 20
3.9124432572948029
 30
0.0
 40
0.0241536911818787
 50
22.4230776510700984
 51
103.4647320914657058
  0
ARC
  5
2A42
  8
0
 10
6.619922125974532
 20
3.9155903184375811
 30
0.0
 40
0.0194248467807419
 50
281.1623326051807226
 51
18.1973016530062104
  0
ARC
  5
2A43
  8
0
 10
6.61671879841139
 20
3.918068388005767
 30
0.0
 40
0.0226333759500226
 50
191.3378806680140087
 51
287.9192992649075222
  0
LINE
  5
2A44
  8
0
 10
7.8912015553763259
 20
5.2549582678847111
 30
0.0
 11
7.89120155394356
 21
4.8884780918228312
 31
0.0
  0
ARC
  5
2A45
  8
0
 10
6.615905200777159
 20
3.9170938538646909
 30
0.0
 40
0.0522847693122655
 50
96.3316742982790544
 51
182.3667374928004961
  0
ARC
  5
2A46
  8
0
 10
6.6193548047503761
 20
3.9160021377024941
 30
0.0
 40
0.0538519689245516
 50
9.2879466961420327
 51
99.8536107418250367
  0
ARC
  5
2A47
  8
0
 10
6.6185115737475479
 20
3.9252829574221919
 30
0.0
 40
0.0539924002082997
 50
267.4134231027215947
 51
359.3746159997668883
  0
ARC
  5
2A48
  8
0
 10
6.6146337516676841
 20
3.9229151340070709
 30
0.0
 40
0.0515897022303617
 50
188.8988186660683937
 51
271.6008140400977027
  0
LINE
  5
2A49
  8
0
 10
6.563637066436697
 20
3.9157750534232751
 30
0.0
 11
6.562231156984323
 21
3.971495586886467
 31
0.0
  0
LINE
  5
2A4A
  8
0
 10
6.6725007577295861
 20
3.924693641541833
 30
0.0
 11
6.6733074045761436
 21
3.9726821092911648
 31
0.0
  0
ARC
  5
2A4B
  8
0
 10
6.5996478124542959
 20
3.9446821683395941
 30
0.0
 40
0.0466869474058104
 50
158.2133840497214976
 51
219.5809946408527082
  0
ARC
  5
2A4C
  8
0
 10
6.6205335062653123
 20
3.9284130339764638
 30
0.0
 40
0.0724932431122075
 50
92.6133845200103849
 51
152.3900050833798048
  0
ARC
  5
2A4D
  8
0
 10
6.6186775593191838
 20
3.9337822634151971
 30
0.0
 40
0.0670642826098466
 50
33.386423500246643
 51
91.2384472238583584
  0
ARC
  5
2A4E
  8
0
 10
6.6394566985397701
 20
3.949303443317385
 30
0.0
 40
0.0412013615210623
 50
323.3228355864059722
 51
31.2646143211162197
  0
LINE
  5
2A4F
  8
0
 10
6.1727073979803917
 20
3.3586901244987031
 30
0.0
 11
6.1727073979803961
 21
3.6434063018867522
 31
0.0
  0
LINE
  5
2A50
  8
0
 10
6.1727073979803944
 20
3.7728297755584261
 30
0.0
 11
6.1727073979803944
 21
4.090940593709596
 31
0.0
  0
LINE
  5
2A51
  8
0
 10
6.1727073979803917
 20
4.2203974063671899
 30
0.0
 11
6.1727073979803917
 21
4.4856425775901156
 31
0.0
  0
LINE
  5
2A52
  8
0
 10
6.1727073979803917
 20
5.1594609246234411
 30
0.0
 11
6.1727073979803917
 21
5.4726455984480991
 31
0.0
  0
LINE
  5
2A53
  8
0
 10
6.1727073979803917
 20
5.6020431631377363
 30
0.0
 11
6.1727073979803917
 21
5.9273576999844142
 31
0.0
  0
LINE
  5
2A54
  8
0
 10
6.1727073979803944
 20
6.056784972880334
 30
0.0
 11
6.1727073979803917
 21
6.3947055637595973
 31
0.0
  0
LINE
  5
2A55
  8
0
 10
6.1727073979803917
 20
6.5714105324461674
 30
0.0
 11
6.1727073979803917
 21
6.715558606492074
 31
0.0
  0
LINE
  5
2A56
  8
0
 10
6.6172567194135112
 20
6.3196976901286472
 30
0.0
 11
6.617250897244463
 21
6.5684087834120808
 31
0.0
  0
LINE
  5
2A57
  8
0
 10
6.6172604242832271
 20
6.1614332718511156
 30
0.0
 11
6.6172681816168906
 21
5.830055924219244
 31
0.0
  0
LINE
  5
2A58
  8
0
 10
6.617271212701163
 20
5.7005742350158961
 30
0.0
 11
6.617278899683563
 21
5.372202148822395
 31
0.0
  0
LINE
  5
2A59
  8
0
 10
6.6172819307897033
 20
5.2427195254876677
 30
0.0
 11
6.6172898293135791
 21
4.905310822278909
 31
0.0
  0
LINE
  5
2A5A
  8
0
 10
6.6172928604419283
 20
4.7758272502076764
 30
0.0
 11
6.6173005256227491
 21
4.4483864826299646
 31
0.0
  0
LINE
  5
2A5B
  8
0
 10
6.6173035580867881
 20
4.3188458526102691
 30
0.0
 11
6.6173208224313171
 21
3.5813485441645909
 31
0.0
  0
LINE
  5
2A5C
  8
0
 10
6.6173245281410269
 20
3.4230482431468241
 30
0.0
 11
6.6173287599952806
 21
3.2422721286897889
 31
0.0
  0
LINE
  5
2A5D
  8
0
 10
7.061873961373478
 20
6.0967037309748324
 30
0.0
 11
7.061873961373478
 21
6.3145318570007802
 31
0.0
  0
LINE
  5
2A5E
  8
0
 10
7.061873961373478
 20
5.9383237023923359
 30
0.0
 11
7.061873961373478
 21
5.6104134432991257
 31
0.0
  0
LINE
  5
2A5F
  8
0
 10
7.061873961373478
 20
5.4809279330068366
 30
0.0
 11
7.061873961373478
 21
5.1435215364169231
 31
0.0
  0
LINE
  5
2A60
  8
0
 10
7.061873961373478
 20
5.0140360261246331
 30
0.0
 11
7.061873961373478
 21
4.6865961483155738
 31
0.0
  0
LINE
  5
2A61
  8
0
 10
7.061873961373478
 20
4.557055156605073
 30
0.0
 11
7.061873961373478
 21
4.2390421363247759
 31
0.0
  0
LINE
  5
2A62
  8
0
 10
7.061873961373478
 20
4.1095133165043576
 30
0.0
 11
7.061873961373478
 21
3.8150007896219029
 31
0.0
  0
LINE
  5
2A63
  8
0
 10
7.061873961373478
 20
3.656700345917979
 30
0.0
 11
7.061873961373478
 21
3.4926818618940478
 31
0.0
  0
ARC
  5
2A64
  8
0
 10
7.058107026229318
 20
4.1550983332997493
 30
0.0
 40
0.0192984899190496
 50
99.3118873504251809
 51
189.7556834185047023
  0
ARC
  5
2A65
  8
0
 10
7.0606084746509374
 20
4.1506527218429223
 30
0.0
 40
0.0241536911818787
 50
22.4230776510700984
 51
103.4647320914657058
  0
ARC
  5
2A66
  8
0
 10
7.0644826176647326
 20
4.1537997829856996
 30
0.0
 40
0.0194248467807419
 50
281.1623326051807226
 51
18.1973016530062104
  0
ARC
  5
2A67
  8
0
 10
7.0612792901015906
 20
4.1562778525538864
 30
0.0
 40
0.0226333759500226
 50
191.3378806680140087
 51
287.9192992649075222
  0
ARC
  5
2A68
  8
0
 10
7.0604656924673597
 20
4.1553033184128081
 30
0.0
 40
0.0522847693122655
 50
96.3316742982790544
 51
182.3667374928004961
  0
ARC
  5
2A69
  8
0
 10
7.0639152964405758
 20
4.1542116022506121
 30
0.0
 40
0.0538519689245516
 50
9.2879466961420327
 51
99.8536107418250367
  0
ARC
  5
2A6A
  8
0
 10
7.0630720654377486
 20
4.16349242197031
 30
0.0
 40
0.0539924002082997
 50
267.4134231027215947
 51
359.3746159997668883
  0
ARC
  5
2A6B
  8
0
 10
7.0591942433578838
 20
4.1611245985551903
 30
0.0
 40
0.0515897022303617
 50
188.8988186660683937
 51
271.6008140400977027
  0
LINE
  5
2A6C
  8
0
 10
7.0081975581268976
 20
4.153984517971395
 30
0.0
 11
7.0067916486745228
 21
4.2097050514345851
 31
0.0
  0
LINE
  5
2A6D
  8
0
 10
7.1170612494197867
 20
4.162903106089952
 30
0.0
 11
7.1178678962663451
 21
4.2108915738392829
 31
0.0
  0
ARC
  5
2A6E
  8
0
 10
7.0442083041444974
 20
4.1828916328877126
 30
0.0
 40
0.0466869474058104
 50
158.2133840497214976
 51
219.5809946408525946
  0
ARC
  5
2A6F
  8
0
 10
7.0650939979555121
 20
4.166622498524581
 30
0.0
 40
0.0724932431122075
 50
92.6133845200103849
 51
152.3900050833798048
  0
ARC
  5
2A70
  8
0
 10
7.0632380510093853
 20
4.1719917279633156
 30
0.0
 40
0.0670642826098466
 50
33.386423500246643
 51
91.2384472238583584
  0
ARC
  5
2A71
  8
0
 10
7.0840171902299707
 20
4.1875129078655027
 30
0.0
 40
0.0412013615210623
 50
323.3228355864059722
 51
31.2646143211162197
  0
ARC
  5
2A72
  8
0
 10
6.1701789791402346
 20
3.6889496043417731
 30
0.0
 40
0.0192984899190496
 50
99.3118873504251809
 51
189.7556834185047023
  0
ARC
  5
2A73
  8
0
 10
6.1726804275618541
 20
3.684503992884947
 30
0.0
 40
0.0241536911818787
 50
22.4230776510700984
 51
103.4647320914657058
  0
ARC
  5
2A74
  8
0
 10
6.1765545705756502
 20
3.6876510540277252
 30
0.0
 40
0.0194248467807419
 50
281.1623326051807226
 51
18.1973016530062104
  0
ARC
  5
2A75
  8
0
 10
6.1733512430125081
 20
3.6901291235959111
 30
0.0
 40
0.0226333759500226
 50
191.3378806680140087
 51
287.9192992649075222
  0
ARC
  5
2A76
  8
0
 10
6.1725376453782772
 20
3.6891545894548341
 30
0.0
 40
0.0522847693122655
 50
96.3316742982790544
 51
182.3667374928004961
  0
ARC
  5
2A77
  8
0
 10
6.1759872493514933
 20
3.6880628732926368
 30
0.0
 40
0.0538519689245516
 50
9.2879466961420327
 51
99.8536107418250367
  0
ARC
  5
2A78
  8
0
 10
6.1751440183486661
 20
3.6973436930123351
 30
0.0
 40
0.0539924002082997
 50
267.4134231027215947
 51
359.3746159997668883
  0
ARC
  5
2A79
  8
0
 10
6.1712661962688014
 20
3.694975869597215
 30
0.0
 40
0.0515897022303617
 50
188.8988186660683937
 51
271.6008140400977027
  0
LINE
  5
2A7A
  8
0
 10
6.1202695110378151
 20
3.6878357890134179
 30
0.0
 11
6.1188636015854403
 21
3.7435563224766102
 31
0.0
  0
LINE
  5
2A7B
  8
0
 10
6.2291332023307042
 20
3.6967543771319762
 30
0.0
 11
6.2299398491772608
 21
3.744742844881308
 31
0.0
  0
ARC
  5
2A7C
  8
0
 10
6.156280257055414
 20
3.7167429039297382
 30
0.0
 40
0.0466869474058104
 50
158.2133840497214976
 51
219.5809946408525946
  0
ARC
  5
2A7D
  8
0
 10
6.1771659508664287
 20
3.700473769566607
 30
0.0
 40
0.0724932431122075
 50
92.6133845200103849
 51
152.3900050833798048
  0
ARC
  5
2A7E
  8
0
 10
6.175310003920301
 20
3.7058429990053412
 30
0.0
 40
0.0670642826098466
 50
33.386423500246643
 51
91.2384472238583584
  0
ARC
  5
2A7F
  8
0
 10
6.1960891431408882
 20
3.7213641789075278
 30
0.0
 40
0.0412013615210623
 50
323.3228355864059722
 51
31.2646143211162197
  0
ARC
  5
2A80
  8
0
 10
6.6132179575879499
 20
4.3644370014385769
 30
0.0
 40
0.0192984899190496
 50
99.3118873504251809
 51
189.7556834185047023
  0
ARC
  5
2A81
  8
0
 10
6.6157194060095694
 20
4.35999138998175
 30
0.0
 40
0.0241536911818787
 50
22.4230776510700984
 51
103.4647320914657058
  0
ARC
  5
2A82
  8
0
 10
6.6195935490233646
 20
4.3631384511245273
 30
0.0
 40
0.0194248467807419
 50
281.1623326051807226
 51
18.1973016530062104
  0
ARC
  5
2A83
  8
0
 10
6.6163902214602226
 20
4.365616520692714
 30
0.0
 40
0.0226333759500226
 50
191.3378806680140087
 51
287.9192992649075222
  0
ARC
  5
2A84
  8
0
 10
6.6155766238259917
 20
4.3646419865516366
 30
0.0
 40
0.0522847693122655
 50
96.3316742982790544
 51
182.3667374928004961
  0
ARC
  5
2A85
  8
0
 10
6.6190262277992078
 20
4.3635502703894398
 30
0.0
 40
0.0538519689245516
 50
9.2879466961420327
 51
99.8536107418250367
  0
ARC
  5
2A86
  8
0
 10
6.6181829967963806
 20
4.3728310901091367
 30
0.0
 40
0.0539924002082997
 50
267.4134231027215947
 51
359.3746159997668883
  0
ARC
  5
2A87
  8
0
 10
6.6143051747165158
 20
4.3704632666940171
 30
0.0
 40
0.0515897022303617
 50
188.8988186660683937
 51
271.6008140400977027
  0
LINE
  5
2A88
  8
0
 10
6.5633084894855296
 20
4.3633231861102209
 30
0.0
 11
6.5619025800331547
 21
4.4190437195734118
 31
0.0
  0
LINE
  5
2A89
  8
0
 10
6.6721721807784187
 20
4.3722417742287787
 30
0.0
 11
6.6729788276249771
 21
4.4202302419781097
 31
0.0
  0
ARC
  5
2A8A
  8
0
 10
6.5993192355031294
 20
4.3922303010265402
 30
0.0
 40
0.0466869474058104
 50
158.2133840497214976
 51
219.5809946408525946
  0
ARC
  5
2A8B
  8
0
 10
6.6202049293141441
 20
4.3759611666634104
 30
0.0
 40
0.0724932431122075
 50
92.6133845200103849
 51
152.3900050833798048
  0
ARC
  5
2A8C
  8
0
 10
6.6183489823680173
 20
4.3813303961021433
 30
0.0
 40
0.0670642826098466
 50
33.386423500246643
 51
91.2384472238583584
  0
ARC
  5
2A8D
  8
0
 10
6.6391281215886027
 20
4.3968515760043303
 30
0.0
 40
0.0412013615210623
 50
323.3228355864059722
 51
31.2646143211162197
  0
ARC
  5
2A8E
  8
0
 10
7.0577784492781506
 20
4.6026464659866937
 30
0.0
 40
0.0192984899190496
 50
99.3118873504251809
 51
189.7556834185047023
  0
ARC
  5
2A8F
  8
0
 10
7.06027989769977
 20
4.5982008545298667
 30
0.0
 40
0.0241536911818787
 50
22.4230776510700984
 51
103.4647320914657058
  0
ARC
  5
2A90
  8
0
 10
7.0641540407135661
 20
4.6013479156726467
 30
0.0
 40
0.0194248467807419
 50
281.1623326051807226
 51
18.1973016530062104
  0
ARC
  5
2A91
  8
0
 10
7.0609507131504241
 20
4.6038259852408308
 30
0.0
 40
0.0226333759500226
 50
191.3378806680140087
 51
287.9192992649075222
  0
ARC
  5
2A92
  8
0
 10
7.0601371155161932
 20
4.602851451099756
 30
0.0
 40
0.0522847693122655
 50
96.3316742982790544
 51
182.3667374928004961
  0
ARC
  5
2A93
  8
0
 10
7.0635867194894093
 20
4.6017597349375592
 30
0.0
 40
0.0538519689245516
 50
9.2879466961420327
 51
99.8536107418250367
  0
ARC
  5
2A94
  8
0
 10
7.0627434884865821
 20
4.611040554657257
 30
0.0
 40
0.0539924002082997
 50
267.4134231027215947
 51
359.3746159997668883
  0
ARC
  5
2A95
  8
0
 10
7.0588656664067173
 20
4.6086727312421374
 30
0.0
 40
0.0515897022303617
 50
188.8988186660683937
 51
271.6008140400977027
  0
LINE
  5
2A96
  8
0
 10
7.0078689811757311
 20
4.6015326506583403
 30
0.0
 11
7.0064630717233563
 21
4.6572531841215321
 31
0.0
  0
LINE
  5
2A97
  8
0
 10
7.1167326724686202
 20
4.6104512387768981
 30
0.0
 11
7.1175393193151768
 21
4.65843970652623
 31
0.0
  0
ARC
  5
2A98
  8
0
 10
7.0438797271933291
 20
4.6304397655746596
 30
0.0
 40
0.0466869474058104
 50
158.2133840497214976
 51
219.5809946408525946
  0
ARC
  5
2A99
  8
0
 10
7.0647654210043447
 20
4.614170631211528
 30
0.0
 40
0.0724932431122075
 50
92.6133845200103849
 51
152.3900050833798048
  0
ARC
  5
2A9A
  8
0
 10
7.062909474058217
 20
4.6195398606502627
 30
0.0
 40
0.0670642826098466
 50
33.386423500246643
 51
91.2384472238583584
  0
ARC
  5
2A9B
  8
0
 10
7.0836886132788042
 20
4.6350610405524497
 30
0.0
 40
0.0412013615210623
 50
323.3228355864059722
 51
31.2646143211162197
  0
ARC
  5
2A9C
  8
0
 10
6.1698504021890681
 20
4.1364977370287193
 30
0.0
 40
0.0192984899190496
 50
99.3118873504251809
 51
189.7556834185047023
  0
ARC
  5
2A9D
  8
0
 10
6.1723518506106858
 20
4.1320521255718923
 30
0.0
 40
0.0241536911818787
 50
22.4230776510700984
 51
103.4647320914657058
  0
ARC
  5
2A9E
  8
0
 10
6.1762259936244819
 20
4.1351991867146722
 30
0.0
 40
0.0194248467807419
 50
281.1623326051807226
 51
18.1973016530062104
  0
ARC
  5
2A9F
  8
0
 10
6.1730226660613399
 20
4.1376772562828563
 30
0.0
 40
0.0226333759500226
 50
191.3378806680140087
 51
287.9192992649075222
  0
ARC
  5
2AA0
  8
0
 10
6.1722090684271089
 20
4.1367027221417798
 30
0.0
 40
0.0522847693122655
 50
96.3316742982790544
 51
182.3667374928004961
  0
ARC
  5
2AA1
  8
0
 10
6.1756586724003251
 20
4.135611005979583
 30
0.0
 40
0.0538519689245516
 50
9.2879466961420327
 51
99.8536107418250367
  0
ARC
  5
2AA2
  8
0
 10
6.1748154413974978
 20
4.1448918256992817
 30
0.0
 40
0.0539924002082997
 50
267.4134231027215947
 51
359.3746159997668883
  0
ARC
  5
2AA3
  8
0
 10
6.1709376193176331
 20
4.1425240022841621
 30
0.0
 40
0.0515897022303617
 50
188.8988186660683937
 51
271.6008140400977027
  0
LINE
  5
2AA4
  8
0
 10
6.1199409340866469
 20
4.1353839217003641
 30
0.0
 11
6.118535024634272
 21
4.1911044551635568
 31
0.0
  0
LINE
  5
2AA5
  8
0
 10
6.2288046253795359
 20
4.1443025098189219
 30
0.0
 11
6.2296112722260943
 21
4.1922909775682546
 31
0.0
  0
ARC
  5
2AA6
  8
0
 10
6.1559516801042458
 20
4.1642910366166852
 30
0.0
 40
0.0466869474058104
 50
158.2133840497214976
 51
219.5809946408525946
  0
ARC
  5
2AA7
  8
0
 10
6.1768373739152622
 20
4.1480219022535527
 30
0.0
 40
0.0724932431122075
 50
92.6133845200103849
 51
152.3900050833798048
  0
ARC
  5
2AA8
  8
0
 10
6.1749814269691337
 20
4.1533911316922882
 30
0.0
 40
0.0670642826098466
 50
33.386423500246643
 51
91.2384472238583584
  0
ARC
  5
2AA9
  8
0
 10
6.1957605661897199
 20
4.1689123115944753
 30
0.0
 40
0.0412013615210623
 50
323.3228355864059722
 51
31.2646143211162197
  0
ARC
  5
2AAA
  8
0
 10
6.6141412058110047
 20
4.82139510105588
 30
0.0
 40
0.0192984899190496
 50
99.3118873504251809
 51
189.7556834185047023
  0
ARC
  5
2AAB
  8
0
 10
6.6166426542326242
 20
4.816949489599053
 30
0.0
 40
0.0241536911818787
 50
22.4230776510700984
 51
103.4647320914657058
  0
ARC
  5
2AAC
  8
0
 10
6.6205167972464203
 20
4.820096550741833
 30
0.0
 40
0.0194248467807419
 50
281.1623326051807226
 51
18.1973016530062104
  0
ARC
  5
2AAD
  8
0
 10
6.6173134696832783
 20
4.822574620310017
 30
0.0
 40
0.0226333759500226
 50
191.3378806680140087
 51
287.9192992649075222
  0
ARC
  5
2AAE
  8
0
 10
6.6164998720490473
 20
4.8216000861689423
 30
0.0
 40
0.0522847693122655
 50
96.3316742982790544
 51
182.3667374928004961
  0
ARC
  5
2AAF
  8
0
 10
6.6199494760222626
 20
4.8205083700067446
 30
0.0
 40
0.0538519689245516
 50
9.2879466961420327
 51
99.8536107418250367
  0
ARC
  5
2AB0
  8
0
 10
6.6191062450194362
 20
4.8297891897264442
 30
0.0
 40
0.0539924002082997
 50
267.4134231027215947
 51
359.3746159997668883
  0
ARC
  5
2AB1
  8
0
 10
6.6152284229395706
 20
4.8274213663113228
 30
0.0
 40
0.0515897022303617
 50
188.8988186660683937
 51
271.6008140400977027
  0
LINE
  5
2AB2
  8
0
 10
6.5642317377085853
 20
4.8202812857275257
 30
0.0
 11
6.5628258282562104
 21
4.8760018191907193
 31
0.0
  0
LINE
  5
2AB3
  8
0
 10
6.6730954290014743
 20
4.8291998738460844
 30
0.0
 11
6.673902075848031
 21
4.8771883415954171
 31
0.0
  0
ARC
  5
2AB4
  8
0
 10
6.6002424837261842
 20
4.8491884006438459
 30
0.0
 40
0.0466869474058104
 50
158.2133840497214976
 51
219.5809946408525946
  0
ARC
  5
2AB5
  8
0
 10
6.6211281775371988
 20
4.8329192662807152
 30
0.0
 40
0.0724932431122075
 50
92.6133845200103849
 51
152.3900050833798048
  0
ARC
  5
2AB6
  8
0
 10
6.6192722305910721
 20
4.838288495719449
 30
0.0
 40
0.0670642826098466
 50
33.386423500246643
 51
91.2384472238583584
  0
ARC
  5
2AB7
  8
0
 10
6.6400513698116583
 20
4.853809675621636
 30
0.0
 40
0.0412013615210623
 50
323.3228355864059722
 51
31.2646143211162197
  0
ARC
  5
2AB8
  8
0
 10
7.0587016975012062
 20
5.0596045656040012
 30
0.0
 40
0.0192984899190496
 50
99.3118873504251809
 51
189.7556834185047023
  0
ARC
  5
2AB9
  8
0
 10
7.0612031459228239
 20
5.0551589541471742
 30
0.0
 40
0.0241536911818787
 50
22.4230776510700984
 51
103.4647320914657058
  0
ARC
  5
2ABA
  8
0
 10
7.06507728893662
 20
5.0583060152899497
 30
0.0
 40
0.0194248467807419
 50
281.1623326051807226
 51
18.1973016530062104
  0
ARC
  5
2ABB
  8
0
 10
7.061873961373478
 20
5.0607840848581382
 30
0.0
 40
0.0226333759500226
 50
191.3378806680140087
 51
287.9192992649075222
  0
ARC
  5
2ABC
  8
0
 10
7.0610603637392471
 20
5.05980955071706
 30
0.0
 40
0.0522847693122655
 50
96.3316742982790544
 51
182.3667374928004961
  0
ARC
  5
2ABD
  8
0
 10
7.0645099677124641
 20
5.058717834554864
 30
0.0
 40
0.0538519689245516
 50
9.2879466961420327
 51
99.8536107418250367
  0
ARC
  5
2ABE
  8
0
 10
7.063666736709636
 20
5.0679986542745601
 30
0.0
 40
0.0539924002082997
 50
267.4134231027215947
 51
359.3746159997668883
  0
ARC
  5
2ABF
  8
0
 10
7.0597889146297721
 20
5.0656308308594404
 30
0.0
 40
0.0515897022303617
 50
188.8988186660683937
 51
271.6008140400977027
  0
LINE
  5
2AC0
  8
0
 10
7.008792229398785
 20
5.0584907502756451
 30
0.0
 11
7.007386319946411
 21
5.114211283738836
 31
0.0
  0
LINE
  5
2AC1
  8
0
 10
7.1176559206916741
 20
5.067409338394202
 30
0.0
 11
7.1184625675382316
 21
5.115397806143533
 31
0.0
  0
ARC
  5
2AC2
  8
0
 10
7.0448029754163839
 20
5.0873978651919627
 30
0.0
 40
0.0466869474058104
 50
158.2133840497214976
 51
219.5809946408525946
  0
ARC
  5
2AC3
  8
0
 10
7.0656886692274004
 20
5.0711287308288329
 30
0.0
 40
0.0724932431122075
 50
92.6133845200103849
 51
152.3900050833798048
  0
ARC
  5
2AC4
  8
0
 10
7.0638327222812718
 20
5.0764979602675657
 30
0.0
 40
0.0670642826098466
 50
33.386423500246643
 51
91.2384472238583584
  0
ARC
  5
2AC5
  8
0
 10
7.0846118615018581
 20
5.0920191401697528
 30
0.0
 40
0.0412013615210623
 50
323.3228355864059722
 51
31.2646143211162197
  0
ARC
  5
2AC6
  8
0
 10
6.6141412058110047
 20
5.2882870079380844
 30
0.0
 40
0.0192984899190496
 50
99.3118873504251809
 51
189.7556834185047023
  0
ARC
  5
2AC7
  8
0
 10
6.6166426542326242
 20
5.2838413964812574
 30
0.0
 40
0.0241536911818787
 50
22.4230776510700984
 51
103.4647320914657058
  0
ARC
  5
2AC8
  8
0
 10
6.6205167972464203
 20
5.2869884576240374
 30
0.0
 40
0.0194248467807419
 50
281.1623326051807226
 51
18.1973016530062104
  0
ARC
  5
2AC9
  8
0
 10
6.6173134696832783
 20
5.2894665271922214
 30
0.0
 40
0.0226333759500226
 50
191.3378806680140087
 51
287.9192992649075222
  0
ARC
  5
2ACA
  8
0
 10
6.6164998720490473
 20
5.2884919930511449
 30
0.0
 40
0.0522847693122655
 50
96.3316742982790544
 51
182.3667374928004961
  0
ARC
  5
2ACB
  8
0
 10
6.6199494760222626
 20
5.2874002768889481
 30
0.0
 40
0.0538519689245516
 50
9.2879466961420327
 51
99.8536107418250367
  0
ARC
  5
2ACC
  8
0
 10
6.6191062450194362
 20
5.2966810966086468
 30
0.0
 40
0.0539924002082997
 50
267.4134231027215947
 51
359.3746159997668883
  0
ARC
  5
2ACD
  8
0
 10
6.6152284229395706
 20
5.2943132731935272
 30
0.0
 40
0.0515897022303617
 50
188.8988186660683937
 51
271.6008140400977027
  0
LINE
  5
2ACE
  8
0
 10
6.5642317377085853
 20
5.2871731926097301
 30
0.0
 11
6.5628258282562104
 21
5.3428937260729219
 31
0.0
  0
LINE
  5
2ACF
  8
0
 10
6.6730954290014743
 20
5.296091780728287
 30
0.0
 11
6.673902075848031
 21
5.3440802484776198
 31
0.0
  0
ARC
  5
2AD0
  8
0
 10
6.6002424837261842
 20
5.3160803075260503
 30
0.0
 40
0.0466869474058104
 50
158.2133840497214976
 51
219.5809946408525946
  0
ARC
  5
2AD1
  8
0
 10
6.6211281775371988
 20
5.2998111731629178
 30
0.0
 40
0.0724932431122075
 50
92.6133845200103849
 51
152.3900050833798048
  0
ARC
  5
2AD2
  8
0
 10
6.6192722305910721
 20
5.3051804026016534
 30
0.0
 40
0.0670642826098466
 50
33.386423500246643
 51
91.2384472238583584
  0
ARC
  5
2AD3
  8
0
 10
6.6400513698116583
 20
5.3207015825038404
 30
0.0
 40
0.0412013615210623
 50
323.3228355864059722
 51
31.2646143211162197
  0
ARC
  5
2AD4
  8
0
 10
7.0587016975012062
 20
5.5264964724862038
 30
0.0
 40
0.0192984899190496
 50
99.3118873504251809
 51
189.7556834185047023
  0
ARC
  5
2AD5
  8
0
 10
7.0612031459228239
 20
5.5220508610293768
 30
0.0
 40
0.0241536911818787
 50
22.4230776510700984
 51
103.4647320914657058
  0
ARC
  5
2AD6
  8
0
 10
7.06507728893662
 20
5.5251979221721541
 30
0.0
 40
0.0194248467807419
 50
281.1623326051807226
 51
18.1973016530062104
  0
ARC
  5
2AD7
  8
0
 10
7.061873961373478
 20
5.5276759917403409
 30
0.0
 40
0.0226333759500226
 50
191.3378806680140087
 51
287.9192992649075222
  0
ARC
  5
2AD8
  8
0
 10
7.0610603637392471
 20
5.5267014575992643
 30
0.0
 40
0.0522847693122655
 50
96.3316742982790544
 51
182.3667374928004961
  0
ARC
  5
2AD9
  8
0
 10
7.0645099677124641
 20
5.5256097414370666
 30
0.0
 40
0.0538519689245516
 50
9.2879466961420327
 51
99.8536107418250367
  0
ARC
  5
2ADA
  8
0
 10
7.063666736709636
 20
5.5348905611567636
 30
0.0
 40
0.0539924002082997
 50
267.4134231027215947
 51
359.3746159997668883
  0
ARC
  5
2ADB
  8
0
 10
7.0597889146297721
 20
5.532522737741643
 30
0.0
 40
0.0515897022303617
 50
188.8988186660683937
 51
271.6008140400977027
  0
LINE
  5
2ADC
  8
0
 10
7.008792229398785
 20
5.5253826571578477
 30
0.0
 11
7.007386319946411
 21
5.5811031906210387
 31
0.0
  0
LINE
  5
2ADD
  8
0
 10
7.1176559206916741
 20
5.5343012452764064
 30
0.0
 11
7.1184625675382316
 21
5.5822897130257374
 31
0.0
  0
ARC
  5
2ADE
  8
0
 10
7.0448029754163839
 20
5.5542897720741671
 30
0.0
 40
0.0466869474058104
 50
158.2133840497214976
 51
219.5809946408525946
  0
ARC
  5
2ADF
  8
0
 10
7.0656886692274004
 20
5.5380206377110373
 30
0.0
 40
0.0724932431122075
 50
92.6133845200103849
 51
152.3900050833798048
  0
ARC
  5
2AE0
  8
0
 10
7.0638327222812718
 20
5.5433898671497701
 30
0.0
 40
0.0670642826098466
 50
33.386423500246643
 51
91.2384472238583584
  0
ARC
  5
2AE1
  8
0
 10
7.0846118615018581
 20
5.5589110470519572
 30
0.0
 40
0.0412013615210623
 50
323.3228355864059722
 51
31.2646143211162197
  0
ARC
  5
2AE2
  8
0
 10
6.6141412058110047
 20
5.7461413540472028
 30
0.0
 40
0.0192984899190496
 50
99.3118873504251809
 51
189.7556834185047023
  0
ARC
  5
2AE3
  8
0
 10
6.6166426542326242
 20
5.7416957425903759
 30
0.0
 40
0.0241536911818787
 50
22.4230776510700984
 51
103.4647320914657058
  0
ARC
  5
2AE4
  8
0
 10
6.6205167972464203
 20
5.7448428037331531
 30
0.0
 40
0.0194248467807419
 50
281.1623326051807226
 51
18.1973016530062104
  0
ARC
  5
2AE5
  8
0
 10
6.6173134696832783
 20
5.7473208733013399
 30
0.0
 40
0.0226333759500226
 50
191.3378806680140087
 51
287.9192992649075222
  0
ARC
  5
2AE6
  8
0
 10
6.6164998720490473
 20
5.7463463391602634
 30
0.0
 40
0.0522847693122655
 50
96.3316742982790544
 51
182.3667374928004961
  0
ARC
  5
2AE7
  8
0
 10
6.6199494760222626
 20
5.7452546229980657
 30
0.0
 40
0.0538519689245516
 50
9.2879466961420327
 51
99.8536107418250367
  0
ARC
  5
2AE8
  8
0
 10
6.6191062450194362
 20
5.7545354427177626
 30
0.0
 40
0.0539924002082997
 50
267.4134231027215947
 51
359.3746159997668883
  0
ARC
  5
2AE9
  8
0
 10
6.6152284229395706
 20
5.7521676193026421
 30
0.0
 40
0.0515897022303617
 50
188.8988186660683937
 51
271.6008140400977027
  0
LINE
  5
2AEA
  8
0
 10
6.5642317377085853
 20
5.7450275387188467
 30
0.0
 11
6.5628258282562104
 21
5.8007480721820377
 31
0.0
  0
LINE
  5
2AEB
  8
0
 10
6.6730954290014743
 20
5.7539461268374046
 30
0.0
 11
6.673902075848031
 21
5.8019345945867364
 31
0.0
  0
ARC
  5
2AEC
  8
0
 10
6.6002424837261842
 20
5.7739346536351661
 30
0.0
 40
0.0466869474058104
 50
158.2133840497214976
 51
219.5809946408525946
  0
ARC
  5
2AED
  8
0
 10
6.6211281775371988
 20
5.7576655192720363
 30
0.0
 40
0.0724932431122075
 50
92.6133845200103849
 51
152.3900050833798048
  0
ARC
  5
2AEE
  8
0
 10
6.6192722305910721
 20
5.7630347487107692
 30
0.0
 40
0.0670642826098466
 50
33.386423500246643
 51
91.2384472238583584
  0
ARC
  5
2AEF
  8
0
 10
6.6400513698116583
 20
5.7785559286129562
 30
0.0
 40
0.0412013615210623
 50
323.3228355864059722
 51
31.2646143211162197
  0
ARC
  5
2AF0
  8
0
 10
6.170773650412122
 20
5.5182020896373452
 30
0.0
 40
0.0192984899190496
 50
99.3118873504251809
 51
189.7556834185047023
  0
ARC
  5
2AF1
  8
0
 10
6.1732750988337406
 20
5.5137564781805182
 30
0.0
 40
0.0241536911818787
 50
22.4230776510700984
 51
103.4647320914657058
  0
ARC
  5
2AF2
  8
0
 10
6.1771492418475367
 20
5.5169035393232981
 30
0.0
 40
0.0194248467807419
 50
281.1623326051807226
 51
18.1973016530062104
  0
ARC
  5
2AF3
  8
0
 10
6.1739459142843947
 20
5.5193816088914822
 30
0.0
 40
0.0226333759500226
 50
191.3378806680140087
 51
287.9192992649075222
  0
ARC
  5
2AF4
  8
0
 10
6.1731323166501637
 20
5.5184070747504057
 30
0.0
 40
0.0522847693122655
 50
96.3316742982790544
 51
182.3667374928004961
  0
ARC
  5
2AF5
  8
0
 10
6.1765819206233799
 20
5.5173153585882089
 30
0.0
 40
0.0538519689245516
 50
9.2879466961420327
 51
99.8536107418250367
  0
ARC
  5
2AF6
  8
0
 10
6.1757386896205526
 20
5.5265961783079076
 30
0.0
 40
0.0539924002082997
 50
267.4134231027215947
 51
359.3746159997668883
  0
ARC
  5
2AF7
  8
0
 10
6.1718608675406879
 20
5.5242283548927871
 30
0.0
 40
0.0515897022303617
 50
188.8988186660683937
 51
271.6008140400977027
  0
LINE
  5
2AF8
  8
0
 10
6.1208641823097016
 20
5.51708827430899
 30
0.0
 11
6.1194582728573268
 21
5.5728088077721827
 31
0.0
  0
LINE
  5
2AF9
  8
0
 10
6.2297278736025907
 20
5.5260068624275478
 30
0.0
 11
6.2305345204491491
 21
5.5739953301768814
 31
0.0
  0
ARC
  5
2AFA
  8
0
 10
6.1568749283273014
 20
5.5459953892253111
 30
0.0
 40
0.0466869474058104
 50
158.2133840497214976
 51
219.5809946408525946
  0
ARC
  5
2AFB
  8
0
 10
6.177760622138317
 20
5.5297262548621786
 30
0.0
 40
0.0724932431122075
 50
92.6133845200103849
 51
152.3900050833798048
  0
ARC
  5
2AFC
  8
0
 10
6.1759046751921893
 20
5.5350954843009141
 30
0.0
 40
0.0670642826098466
 50
33.386423500246643
 51
91.2384472238583584
  0
ARC
  5
2AFD
  8
0
 10
6.1966838144127747
 20
5.5506166642031012
 30
0.0
 40
0.0412013615210623
 50
323.3228355864059722
 51
31.2646143211162197
  0
ARC
  5
2AFE
  8
0
 10
6.1701432097118474
 20
5.9729026064381401
 30
0.0
 40
0.0192984899190496
 50
99.3118873504251809
 51
189.7556834185045886
  0
ARC
  5
2AFF
  8
0
 10
6.1726446581334651
 20
5.9684569949813131
 30
0.0
 40
0.0241536911818787
 50
22.4230776510700984
 51
103.4647320914657058
  0
ARC
  5
2B00
  8
0
 10
6.176518801147262
 20
5.9716040561240886
 30
0.0
 40
0.0194248467807419
 50
281.1623326051807226
 51
18.1973016530062104
  0
ARC
  5
2B01
  8
0
 10
6.17331547358412
 20
5.9740821256922771
 30
0.0
 40
0.0226333759500226
 50
191.3378806680140087
 51
287.9192992649075222
  0
ARC
  5
2B02
  8
0
 10
6.1725018759498891
 20
5.9731075915511989
 30
0.0
 40
0.0522847693122655
 50
96.3316742982790544
 51
182.3667374928004961
  0
ARC
  5
2B03
  8
0
 10
6.1759514799231052
 20
5.972015875389002
 30
0.0
 40
0.0538519689245516
 50
9.2879466961420327
 51
99.8536107418250367
  0
ARC
  5
2B04
  8
0
 10
6.1751082489202771
 20
5.981296695108699
 30
0.0
 40
0.0539924002082997
 50
267.4134231027215947
 51
359.3746159997668883
  0
ARC
  5
2B05
  8
0
 10
6.1712304268404132
 20
5.9789288716935793
 30
0.0
 40
0.0515897022303617
 50
188.8988186660683084
 51
271.6008140400977027
  0
LINE
  5
2B06
  8
0
 10
6.120233741609427
 20
5.971788791109784
 30
0.0
 11
6.1188278321570522
 21
6.0275093245729741
 31
0.0
  0
LINE
  5
2B07
  8
0
 10
6.2290974329023161
 20
5.9807073792283409
 30
0.0
 11
6.2299040797488727
 21
6.0286958469776719
 31
0.0
  0
ARC
  5
2B08
  8
0
 10
6.156244487627025
 20
6.0006959060261016
 30
0.0
 40
0.0466869474058104
 50
158.2133840497214976
 51
219.5809946408525946
  0
ARC
  5
2B09
  8
0
 10
6.1771301814380406
 20
5.9844267716629718
 30
0.0
 40
0.0724932431122075
 50
92.6133845200103849
 51
152.3900050833798048
  0
ARC
  5
2B0A
  8
0
 10
6.1752742344919129
 20
5.9897960011017046
 30
0.0
 40
0.0670642826098466
 50
33.386423500246643
 51
91.2384472238583584
  0
ARC
  5
2B0B
  8
0
 10
6.1960533737125001
 20
6.0053171810038917
 30
0.0
 40
0.0412013615210623
 50
323.3228355864059722
 51
31.2646143211162197
  0
ARC
  5
2B0C
  8
0
 10
6.1707151098456343
 20
3.2594047479195019
 30
0.0
 40
0.0201111964834572
 50
84.3147472876926543
 51
181.8063232883305886
  0
ARC
  5
2B0D
  8
0
 10
6.1733995945786742
 20
3.2571684312368081
 30
0.0
 40
0.0222593534004068
 50
9.5268057379207658
 51
91.7820076672333443
  0
ARC
  5
2B0E
  8
0
 10
6.1725937893264682
 20
3.26298746539798
 30
0.0
 40
0.022858080891165
 50
270.2847712026605791
 51
354.6408494120447017
  0
ARC
  5
2B0F
  8
0
 10
6.1715190272311888
 20
3.2611343871348311
 30
0.0
 40
0.0210383102902863
 50
186.4505577964721112
 51
273.2381349859168722
  0
ARC
  5
2B10
  8
0
 10
6.1747688127136451
 20
3.250282059704336
 30
0.0
 40
0.0781015297921497
 50
91.5124426136133167
 51
170.6577536589946078
  0
ARC
  5
2B11
  8
0
 10
6.1736438638714581
 20
3.2540710886602362
 30
0.0
 40
0.0742911940381561
 50
6.1074262041754324
 51
90.7222520103752288
  0
ARC
  5
2B12
  8
0
 10
6.1759966898521137
 20
3.2726678699988949
 30
0.0
 40
0.0723116391904934
 50
267.3928457869139947
 51
351.4964898737014778
  0
ARC
  5
2B13
  8
0
 10
6.1674828618373061
 20
3.27041282353012
 30
0.0
 40
0.0701764925088872
 50
186.0960517829406058
 51
274.2695363531375961
  0
LINE
  5
2B14
  8
0
 10
6.097703198841395
 20
3.262960392180152
 30
0.0
 11
6.0995224921378979
 21
3.323125257377181
 31
0.0
  0
LINE
  5
2B15
  8
0
 10
6.2475133931803963
 20
3.261975147826123
 30
0.0
 11
6.2485334008803903
 21
3.322088043825802
 31
0.0
  0
ARC
  5
2B16
  8
0
 10
6.1416958013618572
 20
3.2917400622351929
 30
0.0
 40
0.0525701292085178
 50
143.3435358273808049
 51
213.1924466204021087
  0
ARC
  5
2B17
  8
0
 10
6.1771821803491731
 20
3.256400085788111
 30
0.0
 40
0.1023878688940399
 50
92.5048654275172737
 51
139.3308421317790931
  0
ARC
  5
2B18
  8
0
 10
6.1766203035255174
 20
3.2699534334209042
 30
0.0
 40
0.0888229203147584
 50
35.9408662261525365
 51
92.5248612583194046
  0
ARC
  5
2B19
  8
0
 10
6.2019014520245843
 20
3.2928142022576039
 30
0.0
 40
0.0550590270005809
 50
325.9366665126408975
 51
32.1191074641765297
  0
ARC
  5
2B1A
  8
0
 10
6.6148357517112997
 20
3.482042808621058
 30
0.0
 40
0.0201111964834572
 50
84.3147472876926543
 51
181.8063232883305886
  0
ARC
  5
2B1B
  8
0
 10
6.6175202364443404
 20
3.4798064919383651
 30
0.0
 40
0.0222593534004068
 50
9.5268057379207658
 51
91.7820076672333443
  0
ARC
  5
2B1C
  8
0
 10
6.6167144311921344
 20
3.485625526099537
 30
0.0
 40
0.022858080891165
 50
270.2847712026605791
 51
354.6408494120447017
  0
ARC
  5
2B1D
  8
0
 10
6.6156396690968551
 20
3.4837724478363872
 30
0.0
 40
0.0210383102902863
 50
186.4505577964719976
 51
273.2381349859168722
  0
ARC
  5
2B1E
  8
0
 10
6.6188894545793122
 20
3.472920120405893
 30
0.0
 40
0.0781015297921497
 50
91.5124426136133167
 51
170.6577536589946078
  0
ARC
  5
2B1F
  8
0
 10
6.6177645057371244
 20
3.4767091493617919
 30
0.0
 40
0.0742911940381561
 50
6.1074262041754324
 51
90.7222520103752288
  0
ARC
  5
2B20
  8
0
 10
6.6201173317177799
 20
3.495305930700451
 30
0.0
 40
0.0723116391904934
 50
267.3928457869139947
 51
351.4964898737014778
  0
ARC
  5
2B21
  8
0
 10
6.6116035037029732
 20
3.493050884231677
 30
0.0
 40
0.0701764925088872
 50
186.0960517829406058
 51
274.2695363531375961
  0
LINE
  5
2B22
  8
0
 10
6.5418238407070621
 20
3.485598452881709
 30
0.0
 11
6.543643134003565
 21
3.5457633180787371
 31
0.0
  0
LINE
  5
2B23
  8
0
 10
6.6916340350460617
 20
3.4846132085276791
 30
0.0
 11
6.6926540427460557
 21
3.544726104527359
 31
0.0
  0
ARC
  5
2B24
  8
0
 10
6.5858164432275226
 20
3.5143781229367499
 30
0.0
 40
0.0525701292085178
 50
143.3435358273808049
 51
213.1924466204021087
  0
ARC
  5
2B25
  8
0
 10
6.6213028222148402
 20
3.4790381464896671
 30
0.0
 40
0.1023878688940399
 50
92.5048654275172737
 51
139.3308421317790931
  0
ARC
  5
2B26
  8
0
 10
6.6207409453911827
 20
3.4925914941224612
 30
0.0
 40
0.0888229203147584
 50
35.9408662261525365
 51
92.5248612583194046
  0
ARC
  5
2B27
  8
0
 10
6.6460220938902497
 20
3.51545226295916
 30
0.0
 40
0.0550590270005809
 50
325.9366665126408975
 51
32.1191074641765297
  0
ARC
  5
2B28
  8
0
 10
7.0593851853387211
 20
3.7156949113769491
 30
0.0
 40
0.0201111964834572
 50
84.3147472876926543
 51
181.8063232883305886
  0
ARC
  5
2B29
  8
0
 10
7.06206967007176
 20
3.7134585946942549
 30
0.0
 40
0.0222593534004068
 50
9.5268057379207658
 51
91.7820076672333443
  0
ARC
  5
2B2A
  8
0
 10
7.061263864819554
 20
3.7192776288554268
 30
0.0
 40
0.022858080891165
 50
270.2847712026605791
 51
354.6408494120447017
  0
ARC
  5
2B2B
  8
0
 10
7.0601891027242756
 20
3.7174245505922769
 30
0.0
 40
0.0210383102902863
 50
186.4505577964719976
 51
273.2381349859168722
  0
ARC
  5
2B2C
  8
0
 10
7.0634388882067318
 20
3.7065722231617828
 30
0.0
 40
0.0781015297921497
 50
91.5124426136133167
 51
170.6577536589946078
  0
ARC
  5
2B2D
  8
0
 10
7.062313939364544
 20
3.7103612521176821
 30
0.0
 40
0.0742911940381561
 50
6.1074262041754324
 51
90.7222520103752288
  0
ARC
  5
2B2E
  8
0
 10
7.0646667653452013
 20
3.7289580334563421
 30
0.0
 40
0.0723116391904934
 50
267.3928457869139947
 51
351.4964898737014778
  0
ARC
  5
2B2F
  8
0
 10
7.0561529373303928
 20
3.7267029869875672
 30
0.0
 40
0.0701764925088872
 50
186.0960517829406058
 51
274.2695363531375961
  0
LINE
  5
2B30
  8
0
 10
6.9863732743344817
 20
3.7192505556375992
 30
0.0
 11
6.9881925676309846
 21
3.7794154208346269
 31
0.0
  0
LINE
  5
2B31
  8
0
 10
7.1361834686734831
 20
3.7182653112835702
 30
0.0
 11
7.1372034763734771
 21
3.7783782072832488
 31
0.0
  0
ARC
  5
2B32
  8
0
 10
7.0303658768549431
 20
3.7480302256926401
 30
0.0
 40
0.0525701292085178
 50
143.3435358273808049
 51
213.1924466204021087
  0
ARC
  5
2B33
  8
0
 10
7.0658522558422598
 20
3.7126902492455569
 30
0.0
 40
0.1023878688940399
 50
92.5048654275172737
 51
139.3308421317790931
  0
ARC
  5
2B34
  8
0
 10
7.0652903790186041
 20
3.7262435968783509
 30
0.0
 40
0.0888229203147584
 50
35.9408662261525365
 51
92.5248612583194046
  0
ARC
  5
2B35
  8
0
 10
7.0905715275176711
 20
3.7491043657150511
 30
0.0
 40
0.0550590270005809
 50
325.9366665126408975
 51
32.1191074641765297
  0
ARC
  5
2B36
  8
0
 10
7.5067421142763013
 20
4.4004626005395506
 30
0.0
 40
0.0201111964834572
 50
84.3147472876926543
 51
181.8063232883305886
  0
ARC
  5
2B37
  8
0
 10
7.5094265990093412
 20
4.3982262838568591
 30
0.0
 40
0.0222593534004068
 50
9.5268057379207658
 51
91.7820076672333443
  0
ARC
  5
2B38
  8
0
 10
7.5086207937571352
 20
4.4040453180180306
 30
0.0
 40
0.022858080891165
 50
270.2847712026605791
 51
354.6408494120447017
  0
ARC
  5
2B39
  8
0
 10
7.5075460316618559
 20
4.4021922397548821
 30
0.0
 40
0.0210383102902863
 50
186.4505577964719976
 51
273.2381349859168722
  0
ARC
  5
2B3A
  8
0
 10
7.5107958171443121
 20
4.391339912324387
 30
0.0
 40
0.0781015297921497
 50
91.5124426136133167
 51
170.6577536589946078
  0
ARC
  5
2B3B
  8
0
 10
7.5096708683021252
 20
4.3951289412802872
 30
0.0
 40
0.0742911940381561
 50
6.1074262041754324
 51
90.7222520103752288
  0
ARC
  5
2B3C
  8
0
 10
7.5120236942827807
 20
4.4137257226189446
 30
0.0
 40
0.0723116391904934
 50
267.3928457869139947
 51
351.4964898737014778
  0
ARC
  5
2B3D
  8
0
 10
7.503509866267974
 20
4.4114706761501701
 30
0.0
 40
0.0701764925088872
 50
186.0960517829406058
 51
274.2695363531375961
  0
LINE
  5
2B3E
  8
0
 10
7.433730203272062
 20
4.4040182448002021
 30
0.0
 11
7.4355494965685649
 21
4.4641831099972311
 31
0.0
  0
LINE
  5
2B3F
  8
0
 10
7.5835403976110634
 20
4.4030330004461726
 30
0.0
 11
7.5845604053110574
 21
4.4631458964458508
 31
0.0
  0
ARC
  5
2B40
  8
0
 10
7.4777228057925242
 20
4.4327979148552421
 30
0.0
 40
0.0525701292085178
 50
143.3435358273808049
 51
213.1924466204021087
  0
ARC
  5
2B41
  8
0
 10
7.513209184779841
 20
4.3974579384081611
 30
0.0
 40
0.1023878688940399
 50
92.5048654275172737
 51
139.3308421317790931
  0
ARC
  5
2B42
  8
0
 10
7.5126473079561844
 20
4.4110112860409538
 30
0.0
 40
0.0888229203147584
 50
35.9408662261525365
 51
92.5248612583194046
  0
ARC
  5
2B43
  8
0
 10
7.5379284564552513
 20
4.4338720548776527
 30
0.0
 40
0.0550590270005809
 50
325.9366665126408975
 51
32.1191074641765297
  0
ARC
  5
2B44
  8
0
 10
7.5046207372456317
 20
4.8512576689695024
 30
0.0
 40
0.0201111964834572
 50
84.3147472876926543
 51
181.8063232883305886
  0
ARC
  5
2B45
  8
0
 10
7.5073052219786716
 20
4.8490213522868091
 30
0.0
 40
0.0222593534004068
 50
9.5268057379207658
 51
91.7820076672333443
  0
ARC
  5
2B46
  8
0
 10
7.5064994167264656
 20
4.8548403864479823
 30
0.0
 40
0.022858080891165
 50
270.2847712026605791
 51
354.6408494120447017
  0
ARC
  5
2B47
  8
0
 10
7.505424654631188
 20
4.852987308184832
 30
0.0
 40
0.0210383102902863
 50
186.4505577964719976
 51
273.2381349859168722
  0
ARC
  5
2B48
  8
0
 10
7.5086744401136443
 20
4.842134980754337
 30
0.0
 40
0.0781015297921497
 50
91.5124426136133167
 51
170.6577536589946078
  0
ARC
  5
2B49
  8
0
 10
7.5075494912714564
 20
4.8459240097102381
 30
0.0
 40
0.0742911940381561
 50
6.1074262041754324
 51
90.7222520103752288
  0
ARC
  5
2B4A
  8
0
 10
7.509902317252112
 20
4.8645207910488963
 30
0.0
 40
0.0723116391904934
 50
267.3928457869139947
 51
351.4964898737014778
  0
ARC
  5
2B4B
  8
0
 10
7.5013884892373053
 20
4.8622657445801201
 30
0.0
 40
0.0701764925088872
 50
186.0960517829406058
 51
274.2695363531375961
  0
LINE
  5
2B4C
  8
0
 10
7.4316088262413942
 20
4.8548133132301521
 30
0.0
 11
7.4334281195378971
 21
4.9149781784271811
 31
0.0
  0
LINE
  5
2B4D
  8
0
 10
7.5814190205803937
 20
4.8538280688761244
 30
0.0
 11
7.5824390282803877
 21
4.9139409648758017
 31
0.0
  0
ARC
  5
2B4E
  8
0
 10
7.4756014287618546
 20
4.883592983285193
 30
0.0
 40
0.0525701292085178
 50
143.3435358273808049
 51
213.1924466204021087
  0
ARC
  5
2B4F
  8
0
 10
7.5110878077491723
 20
4.848253006838112
 30
0.0
 40
0.1023878688940399
 50
92.5048654275172737
 51
139.3308421317790931
  0
ARC
  5
2B50
  8
0
 10
7.5105259309255148
 20
4.8618063544709047
 30
0.0
 40
0.0888229203147584
 50
35.9408662261525365
 51
92.5248612583194046
  0
ARC
  5
2B51
  8
0
 10
7.5358070794245817
 20
4.8846671233076044
 30
0.0
 40
0.0550590270005809
 50
325.9366665126408975
 51
32.1191074641765297
  0
ARC
  5
2B52
  8
0
 10
7.4978875360456341
 20
5.3127247618195019
 30
0.0
 40
0.0201111964834572
 50
84.3147472876926543
 51
181.8063232883305886
  0
ARC
  5
2B53
  8
0
 10
7.5005720207786739
 20
5.3104884451368077
 30
0.0
 40
0.0222593534004068
 50
9.5268057379207658
 51
91.7820076672333443
  0
ARC
  5
2B54
  8
0
 10
7.4997662155264679
 20
5.3163074792979792
 30
0.0
 40
0.022858080891165
 50
270.2847712026605791
 51
354.6408494120447017
  0
ARC
  5
2B55
  8
0
 10
7.4986914534311904
 20
5.3144544010348289
 30
0.0
 40
0.0210383102902863
 50
186.4505577964719976
 51
273.2381349859168722
  0
ARC
  5
2B56
  8
0
 10
7.5019412389136457
 20
5.3036020736043357
 30
0.0
 40
0.0781015297921497
 50
91.5124426136133167
 51
170.6577536589946078
  0
ARC
  5
2B57
  8
0
 10
7.5008162900714579
 20
5.3073911025602341
 30
0.0
 40
0.0742911940381561
 50
6.1074262041754324
 51
90.7222520103752288
  0
ARC
  5
2B58
  8
0
 10
7.5031691160521152
 20
5.3259878838988941
 30
0.0
 40
0.0723116391904934
 50
267.3928457869139947
 51
351.4964898737014778
  0
ARC
  5
2B59
  8
0
 10
7.4946552880373067
 20
5.3237328374301214
 30
0.0
 40
0.0701764925088872
 50
186.0960517829406058
 51
274.2695363531375961
  0
LINE
  5
2B5A
  8
0
 10
7.4248756250413956
 20
5.3162804060801534
 30
0.0
 11
7.4266949183378994
 21
5.3764452712771797
 31
0.0
  0
LINE
  5
2B5B
  8
0
 10
7.5746858193803961
 20
5.315295161726123
 30
0.0
 11
7.5757058270803901
 21
5.3754080577258021
 31
0.0
  0
ARC
  5
2B5C
  8
0
 10
7.468868227561857
 20
5.3450600761351943
 30
0.0
 40
0.0525701292085178
 50
143.3435358273808049
 51
213.1924466204021087
  0
ARC
  5
2B5D
  8
0
 10
7.5043546065491737
 20
5.3097200996881098
 30
0.0
 40
0.1023878688940399
 50
92.5048654275172737
 51
139.3308421317790931
  0
ARC
  5
2B5E
  8
0
 10
7.503792729725518
 20
5.3232734473209042
 30
0.0
 40
0.0888229203147584
 50
35.9408662261525365
 51
92.5248612583194046
  0
ARC
  5
2B5F
  8
0
 10
7.5290738782245841
 20
5.346134216157604
 30
0.0
 40
0.0550590270005809
 50
325.9366665126408975
 51
32.1191074641765297
  0
ARC
  5
2B60
  8
0
 10
7.058073140345634
 20
5.997357056819502
 30
0.0
 40
0.0201111964834572
 50
84.3147472876926543
 51
181.8063232883305886
  0
ARC
  5
2B61
  8
0
 10
7.060757625078673
 20
5.9951207401368078
 30
0.0
 40
0.0222593534004068
 50
9.5268057379207658
 51
91.7820076672333443
  0
ARC
  5
2B62
  8
0
 10
7.059951819826467
 20
6.0009397742979793
 30
0.0
 40
0.022858080891165
 50
270.2847712026605791
 51
354.6408494120447017
  0
ARC
  5
2B63
  8
0
 10
7.0588770577311886
 20
5.999086696034829
 30
0.0
 40
0.0210383102902863
 50
186.4505577964721112
 51
273.2381349859168722
  0
ARC
  5
2B64
  8
0
 10
7.0621268432136448
 20
5.9882343686043358
 30
0.0
 40
0.0781015297921497
 50
91.5124426136133167
 51
170.6577536589946078
  0
ARC
  5
2B65
  8
0
 10
7.061001894371457
 20
5.9920233975602351
 30
0.0
 40
0.0742911940381561
 50
6.1074262041754324
 51
90.7222520103752288
  0
ARC
  5
2B66
  8
0
 10
7.0633547203521143
 20
6.0106201788988951
 30
0.0
 40
0.0723116391904934
 50
267.3928457869139947
 51
351.4964898737014778
  0
ARC
  5
2B67
  8
0
 10
7.0548408923373058
 20
6.0083651324301206
 30
0.0
 40
0.0701764925088872
 50
186.0960517829406058
 51
274.2695363531375961
  0
LINE
  5
2B68
  8
0
 10
6.9850612293413947
 20
6.0009127010801526
 30
0.0
 11
6.9868805226378976
 21
6.0610775662771799
 31
0.0
  0
LINE
  5
2B69
  8
0
 10
7.1348714236803961
 20
5.9999274567261232
 30
0.0
 11
7.1358914313803901
 21
6.0600403527258031
 31
0.0
  0
ARC
  5
2B6A
  8
0
 10
7.0290538318618561
 20
6.0296923711351944
 30
0.0
 40
0.0525701292085178
 50
143.3435358273808049
 51
213.1924466204021087
  0
ARC
  5
2B6B
  8
0
 10
7.0645402108491728
 20
5.9943523946881099
 30
0.0
 40
0.1023878688940399
 50
92.5048654275172737
 51
139.3308421317790931
  0
ARC
  5
2B6C
  8
0
 10
7.0639783340255171
 20
6.0079057423209044
 30
0.0
 40
0.0888229203147584
 50
35.9408662261525365
 51
92.5248612583194046
  0
ARC
  5
2B6D
  8
0
 10
7.089259482524584
 20
6.0307665111576041
 30
0.0
 40
0.0550590270005809
 50
325.9366665126408975
 51
32.1191074641765297
  0
ARC
  5
2B6E
  8
0
 10
6.6154622089456332
 20
6.2204211571195032
 30
0.0
 40
0.0201111964834572
 50
84.3147472876926543
 51
181.8063232883305886
  0
ARC
  5
2B6F
  8
0
 10
6.618146693678673
 20
6.2181848404368099
 30
0.0
 40
0.0222593534004068
 50
9.5268057379207658
 51
91.7820076672333443
  0
ARC
  5
2B70
  8
0
 10
6.6173408884264671
 20
6.2240038745979831
 30
0.0
 40
0.022858080891165
 50
270.2847712026605791
 51
354.6408494120447017
  0
ARC
  5
2B71
  8
0
 10
6.6162661263311877
 20
6.2221507963348328
 30
0.0
 40
0.0210383102902863
 50
186.4505577964721112
 51
273.2381349859168722
  0
ARC
  5
2B72
  8
0
 10
6.619515911813644
 20
6.2112984689043378
 30
0.0
 40
0.0781015297921497
 50
91.5124426136133167
 51
170.6577536589946078
  0
ARC
  5
2B73
  8
0
 10
6.618390962971457
 20
6.215087497860238
 30
0.0
 40
0.0742911940381561
 50
6.1074262041754324
 51
90.7222520103752288
  0
ARC
  5
2B74
  8
0
 10
6.6207437889521126
 20
6.2336842791988971
 30
0.0
 40
0.0723116391904934
 50
267.3928457869139947
 51
351.4964898737014778
  0
ARC
  5
2B75
  8
0
 10
6.612229960937305
 20
6.2314292327301208
 30
0.0
 40
0.0701764925088872
 50
186.0960517829406058
 51
274.2695363531375961
  0
LINE
  5
2B76
  8
0
 10
6.5424502979413939
 20
6.2239768013801529
 30
0.0
 11
6.5442695912378968
 21
6.2841416665771819
 31
0.0
  0
LINE
  5
2B77
  8
0
 10
6.6922604922803952
 20
6.2229915570261252
 30
0.0
 11
6.6932804999803892
 21
6.2831044530258033
 31
0.0
  0
ARC
  5
2B78
  8
0
 10
6.5864429004618561
 20
6.2527564714351938
 30
0.0
 40
0.0525701292085178
 50
143.3435358273808049
 51
213.1924466204021087
  0
ARC
  5
2B79
  8
0
 10
6.621929279449172
 20
6.2174164949881119
 30
0.0
 40
0.1023878688940399
 50
92.5048654275172737
 51
139.3308421317790931
  0
ARC
  5
2B7A
  8
0
 10
6.6213674026255163
 20
6.2309698426209064
 30
0.0
 40
0.0888229203147584
 50
35.9408662261525365
 51
92.5248612583194046
  0
ARC
  5
2B7B
  8
0
 10
6.6466485511245832
 20
6.2538306114576052
 30
0.0
 40
0.0550590270005809
 50
325.9366665126408975
 51
32.1191074641765297
  0
ARC
  5
2B7C
  8
0
 10
6.1678049691956343
 20
6.4537013277195028
 30
0.0
 40
0.0201111964834572
 50
84.3147472876926543
 51
181.8063232883305886
  0
ARC
  5
2B7D
  8
0
 10
6.1704894539286741
 20
6.4514650110368086
 30
0.0
 40
0.0222593534004068
 50
9.5268057379207658
 51
91.7820076672333443
  0
ARC
  5
2B7E
  8
0
 10
6.1696836486764681
 20
6.45728404519798
 30
0.0
 40
0.022858080891165
 50
270.2847712026605791
 51
354.6408494120447017
  0
ARC
  5
2B7F
  8
0
 10
6.1686088865811888
 20
6.4554309669348298
 30
0.0
 40
0.0210383102902863
 50
186.4505577964721112
 51
273.2381349859168722
  0
ARC
  5
2B80
  8
0
 10
6.1712094755127644
 20
6.4629224325562742
 30
0.0
 40
0.0733808322219834
 50
88.8303403718093136
 51
180.0
  0
ARC
  5
2B81
  8
0
 10
6.176121433322737
 20
6.4648931263081071
 30
0.0
 40
0.0714764297252481
 50
359.5297404232355802
 51
92.7377454684902176
  0
ARC
  5
2B82
  8
0
 10
6.1718295676067623
 20
6.4707389498790571
 30
0.0
 40
0.0760384533703567
 50
268.4684503122165893
 51
355.1472695568011773
  0
ARC
  5
2B83
  8
0
 10
6.1699755473888782
 20
6.466988851710421
 30
0.0
 40
0.0722614111104802
 50
183.2259513901813932
 51
269.8586343929945883
  0
LINE
  5
2B84
  8
0
 10
6.097828643290784
 20
6.4629224325562751
 30
0.0
 11
6.0964764588803897
 21
6.525649904725797
 31
0.0
  0
LINE
  5
2B85
  8
0
 10
6.247595455580405
 20
6.4643064845261096
 30
0.0
 11
6.2496150701803934
 21
6.5255215771257999
 31
0.0
  0
ARC
  5
2B86
  8
0
 10
6.1536776871449979
 20
6.4955046524270283
 30
0.0
 40
0.0646584623319817
 50
152.2106087414526883
 51
210.2592010616052107
  0
ARC
  5
2B87
  8
0
 10
6.1727912684356641
 20
6.4848953493399524
 30
0.0
 40
0.0865152237594968
 50
90.0555442574937786
 51
151.8963534475211077
  0
ARC
  5
2B88
  8
0
 10
6.1749219249416072
 20
6.4877307234073838
 30
0.0
 40
0.0837091068548046
 50
26.8370420847838815
 51
91.5159384464942747
  0
ARC
  5
2B89
  8
0
 10
6.174950186940892
 20
6.4973440666292532
 30
0.0
 40
0.0798048675642774
 50
335.5449305228102048
 51
20.6758238459810606
  0
ARC
  5
2B8A
  8
0
 10
5.7262107629121219
 20
5.7308544686185581
 30
0.0
 40
0.0192984899190496
 50
99.3118873504251809
 51
189.7556834185047023
  0
ARC
  5
2B8B
  8
0
 10
5.7287122113337414
 20
5.7264088571617311
 30
0.0
 40
0.0241536911818787
 50
22.4230776510700984
 51
103.4647320914657058
  0
ARC
  5
2B8C
  8
0
 10
5.7325863543475366
 20
5.7295559183045111
 30
0.0
 40
0.0194248467807419
 50
281.1623326051807226
 51
18.1973016530062104
  0
ARC
  5
2B8D
  8
0
 10
5.7293830267843946
 20
5.7320339878726951
 30
0.0
 40
0.0226333759500226
 50
191.3378806680140087
 51
287.9192992649075222
  0
ARC
  5
2B8E
  8
0
 10
5.7285694291501636
 20
5.7310594537316186
 30
0.0
 40
0.0522847693122655
 50
96.3316742982790544
 51
182.3667374928004961
  0
ARC
  5
2B8F
  8
0
 10
5.7320190331233798
 20
5.7299677375694218
 30
0.0
 40
0.0538519689245516
 50
9.2879466961420327
 51
99.8536107418250367
  0
ARC
  5
2B90
  8
0
 10
5.7311758021205534
 20
5.7392485572891214
 30
0.0
 40
0.0539924002082997
 50
267.4134231027215947
 51
359.3746159997668883
  0
ARC
  5
2B91
  8
0
 10
5.7272979800406878
 20
5.736880733874
 30
0.0
 40
0.0515897022303617
 50
188.8988186660683084
 51
271.6008140400977027
  0
LINE
  5
2B92
  8
0
 10
5.6763012948097016
 20
5.7297406532902029
 30
0.0
 11
5.6748953853573267
 21
5.7854611867533956
 31
0.0
  0
LINE
  5
2B93
  8
0
 10
5.7851649861025907
 20
5.7386592414087607
 30
0.0
 11
5.7859716329491491
 21
5.7866477091580943
 31
0.0
  0
ARC
  5
2B94
  8
0
 10
5.7123120408273014
 20
5.758647768206524
 30
0.0
 40
0.0466869474058104
 50
158.2133840497214976
 51
219.5809946408525946
  0
ARC
  5
2B95
  8
0
 10
5.7331977346383161
 20
5.7423786338433924
 30
0.0
 40
0.0724932431122075
 50
92.6133845200103849
 51
152.3900050833798048
  0
ARC
  5
2B96
  8
0
 10
5.7313417876921893
 20
5.7477478632821271
 30
0.0
 40
0.0670642826098466
 50
33.386423500246643
 51
91.2384472238583584
  0
ARC
  5
2B97
  8
0
 10
5.7521209269127747
 20
5.7632690431843141
 30
0.0
 40
0.0412013615210623
 50
323.3228355864059722
 51
31.2646143211162197
  0
ARC
  5
2B98
  8
0
 10
5.7255803222118473
 20
6.2104840942446504
 30
0.0
 40
0.0192984899190496
 50
99.3118873504251809
 51
189.7556834185045886
  0
ARC
  5
2B99
  8
0
 10
5.728081770633465
 20
6.2060384827878234
 30
0.0
 40
0.0241536911818787
 50
22.4230776510700984
 51
103.4647320914657058
  0
ARC
  5
2B9A
  8
0
 10
5.7319559136472611
 20
6.209185543930599
 30
0.0
 40
0.0194248467807419
 50
281.1623326051807226
 51
18.1973016530062104
  0
ARC
  5
2B9B
  8
0
 10
5.7287525860841191
 20
6.2116636134987866
 30
0.0
 40
0.0226333759500226
 50
191.3378806680140087
 51
287.9192992649075222
  0
ARC
  5
2B9C
  8
0
 10
5.727938988449889
 20
6.2106890793577101
 30
0.0
 40
0.0522847693122655
 50
96.3316742982790544
 51
182.3667374928004108
  0
ARC
  5
2B9D
  8
0
 10
5.7313885924231052
 20
6.2095973631955133
 30
0.0
 40
0.0538519689245516
 50
9.2879466961420327
 51
99.8536107418250367
  0
ARC
  5
2B9E
  8
0
 10
5.730545361420277
 20
6.2188781829152102
 30
0.0
 40
0.0539924002082997
 50
267.4134231027215947
 51
359.3746159997668883
  0
ARC
  5
2B9F
  8
0
 10
5.7266675393404132
 20
6.2165103595000888
 30
0.0
 40
0.0515897022303617
 50
188.8988186660683084
 51
271.6008140400977027
  0
LINE
  5
2BA0
  8
0
 10
5.6756708541094261
 20
6.2093702789162943
 30
0.0
 11
5.6742649446570521
 21
6.2650908123794853
 31
0.0
  0
LINE
  5
2BA1
  8
0
 10
5.784534545402316
 20
6.2182888670348522
 30
0.0
 11
5.7853411922488727
 21
6.2662773347841831
 31
0.0
  0
ARC
  5
2BA2
  8
0
 10
5.711681600127025
 20
6.2382773938326119
 30
0.0
 40
0.0466869474058104
 50
158.2133840497214976
 51
219.5809946408525093
  0
ARC
  5
2BA3
  8
0
 10
5.7325672939380414
 20
6.2220082594694821
 30
0.0
 40
0.0724932431122075
 50
92.6133845200103849
 51
152.3900050833798048
  0
ARC
  5
2BA4
  8
0
 10
5.7307113469919129
 20
6.227377488908215
 30
0.0
 40
0.0670642826098466
 50
33.386423500246643
 51
91.2384472238583584
  0
ARC
  5
2BA5
  8
0
 10
5.7514904862125
 20
6.242898668810402
 30
0.0
 40
0.0412013615210623
 50
323.3228355864059722
 51
31.2646143211162197
  0
ARC
  5
2BA6
  8
0
 10
5.7231800431719613
 20
3.4703703426635388
 30
0.0
 40
0.0192984899190496
 50
99.3118873504251809
 51
189.7556834185047023
  0
ARC
  5
2BA7
  8
0
 10
5.725681491593579
 20
3.4659247312067119
 30
0.0
 40
0.0241536911818787
 50
22.4230776510700984
 51
103.4647320914657058
  0
ARC
  5
2BA8
  8
0
 10
5.729555634607375
 20
3.46907179234949
 30
0.0
 40
0.0194248467807419
 50
281.1623326051807226
 51
18.1973016530062104
  0
ARC
  5
2BA9
  8
0
 10
5.726352307044233
 20
3.4715498619176759
 30
0.0
 40
0.0226333759500226
 50
191.3378806680140087
 51
287.9192992649075222
  0
ARC
  5
2BAA
  8
0
 10
5.7255387094100021
 20
3.4705753277765989
 30
0.0
 40
0.0522847693122655
 50
96.3316742982790544
 51
182.3667374928004961
  0
ARC
  5
2BAB
  8
0
 10
5.7289883133832191
 20
3.4694836116144021
 30
0.0
 40
0.0538519689245516
 50
9.2879466961420327
 51
99.8536107418250367
  0
ARC
  5
2BAC
  8
0
 10
5.728145082380391
 20
3.4787644313341
 30
0.0
 40
0.0539924002082997
 50
267.4134231027215947
 51
359.3746159997668883
  0
ARC
  5
2BAD
  8
0
 10
5.7242672603005271
 20
3.4763966079189799
 30
0.0
 40
0.0515897022303617
 50
188.8988186660683937
 51
271.6008140400977027
  0
LINE
  5
2BAE
  8
0
 10
5.67327057506954
 20
3.4692565273351841
 30
0.0
 11
5.6718646656171661
 21
3.524977060798375
 31
0.0
  0
LINE
  5
2BAF
  8
0
 10
5.7821342663624291
 20
3.478175115453741
 30
0.0
 11
5.7829409132089866
 21
3.5261635832030729
 31
0.0
  0
ARC
  5
2BB0
  8
0
 10
5.7092813210871389
 20
3.498163642251503
 30
0.0
 40
0.0466869474058104
 50
158.2133840497214976
 51
219.5809946408525946
  0
ARC
  5
2BB1
  8
0
 10
5.7301670148981554
 20
3.4818945078883718
 30
0.0
 40
0.0724932431122075
 50
92.6133845200103849
 51
152.3900050833798048
  0
ARC
  5
2BB2
  8
0
 10
5.7283110679520268
 20
3.487263737327106
 30
0.0
 40
0.0670642826098466
 50
33.386423500246643
 51
91.2384472238583584
  0
ARC
  5
2BB3
  8
0
 10
5.7490902071726131
 20
3.5027849172292931
 30
0.0
 40
0.0412013615210623
 50
323.3228355864059722
 51
31.2646143211162197
  0
ARC
  5
2BB4
  8
0
 10
5.722851466220793
 20
3.9022692505726959
 30
0.0
 40
0.0192984899190496
 50
99.3118873504251809
 51
189.7556834185047023
  0
ARC
  5
2BB5
  8
0
 10
5.7253529146424116
 20
3.8978236391158689
 30
0.0
 40
0.0241536911818787
 50
22.4230776510700984
 51
103.4647320914657058
  0
ARC
  5
2BB6
  8
0
 10
5.7292270576562077
 20
3.9009707002586471
 30
0.0
 40
0.0194248467807419
 50
281.1623326051807226
 51
18.1973016530062104
  0
ARC
  5
2BB7
  8
0
 10
5.7260237300930656
 20
3.903448769826833
 30
0.0
 40
0.0226333759500226
 50
191.3378806680140087
 51
287.9192992649075222
  0
ARC
  5
2BB8
  8
0
 10
5.7252101324588347
 20
3.902474235685756
 30
0.0
 40
0.0522847693122655
 50
96.3316742982790544
 51
182.3667374928004961
  0
ARC
  5
2BB9
  8
0
 10
5.7286597364320508
 20
3.9013825195235601
 30
0.0
 40
0.0538519689245516
 50
9.2879466961420594
 51
99.8536107418250367
  0
ARC
  5
2BBA
  8
0
 10
5.7278165054292236
 20
3.910663339243257
 30
0.0
 40
0.0539924002082997
 50
267.4134231027215947
 51
359.3746159997668883
  0
ARC
  5
2BBB
  8
0
 10
5.7239386833493588
 20
3.9082955158281369
 30
0.0
 40
0.0515897022303617
 50
188.8988186660683084
 51
271.6008140400977027
  0
LINE
  5
2BBC
  8
0
 10
5.6729419981183726
 20
3.9011554352443412
 30
0.0
 11
5.6715360886659978
 21
3.9568759687075321
 31
0.0
  0
LINE
  5
2BBD
  8
0
 10
5.7818056894112617
 20
3.9100740233628981
 30
0.0
 11
5.7826123362578201
 21
3.95806249111223
 31
0.0
  0
ARC
  5
2BBE
  8
0
 10
5.7089527441359724
 20
3.9300625501606601
 30
0.0
 40
0.0466869474058104
 50
158.2133840497214976
 51
219.5809946408525093
  0
ARC
  5
2BBF
  8
0
 10
5.7298384379469871
 20
3.9137934157975289
 30
0.0
 40
0.0724932431122075
 50
92.6133845200103849
 51
152.3900050833798048
  0
ARC
  5
2BC0
  8
0
 10
5.7279824910008603
 20
3.9191626452362631
 30
0.0
 40
0.0670642826098466
 50
33.386423500246643
 51
91.2384472238583584
  0
ARC
  5
2BC1
  8
0
 10
5.7487616302214457
 20
3.9346838251384502
 30
0.0
 40
0.0412013615210623
 50
323.3228355864059722
 51
31.2646143211162197
  0
LINE
  5
2BC2
  8
0
 10
6.2616120483172919
 20
4.989314025269354
 30
0.0
 11
6.2616811674395079
 21
5.1165511279450104
 31
0.0
  0
LINE
  5
2BC3
  8
0
 10
6.2714205671803924
 20
5.0161927814258016
 30
0.0
 11
6.2714205671803924
 21
5.1060660607536148
 31
0.0
  0
ARC
  5
2BC4
  8
0
 10
6.2612236020273508
 20
5.1053431929532511
 30
0.0
 40
0.0102225552671106
 50
4.054941999232609
 51
63.7192913533059979
  0
LINE
  5
2BC5
  8
0
 10
6.265749835880392
 20
5.1145090995258
 30
0.0
 11
6.179392358180392
 21
5.1578511477258022
 31
0.0
  0
LINE
  5
2BC6
  8
0
 10
6.1727073979803917
 20
4.9428367382373066
 30
0.0
 11
6.2616120483172919
 21
4.9893140252693557
 31
0.0
  0
LINE
  5
2BC7
  8
0
 10
6.1727073979803917
 20
5.1276789523660229
 30
0.0
 11
6.261662592185254
 21
5.0823570951347463
 31
0.0
  0
ARC
  5
2BC8
  8
0
 10
6.2612236020273508
 20
5.016915649226168
 30
0.0
 40
0.0102225552671106
 50
272.2306805316379723
 51
355.9450580007672897
  0
ARC
  5
2BC9
  8
0
 10
6.1714507962515048
 20
5.028938533377926
 30
0.0
 40
0.0260821343565964
 50
87.2384983094200237
 51
185.1683538977727892
  0
ARC
  5
2BCA
  8
0
 10
6.1743826573039424
 20
5.0291864338115326
 30
0.0
 40
0.0258582695715078
 50
359.1953265816550243
 51
93.7145780951916834
  0
ARC
  5
2BCB
  8
0
 10
6.173921499717097
 20
5.0321180601816158
 30
0.0
 40
0.0265223217029157
 50
267.376277086815719
 51
352.8639151066577142
  0
ARC
  5
2BCC
  8
0
 10
6.1714431250421127
 20
5.03215077190222
 30
0.0
 40
0.0265573403068198
 50
192.0886836895361967
 51
272.7286200788498718
  0
LINE
  5
2BCD
  8
0
 10
6.0838027476434924
 20
4.989314025269354
 30
0.0
 11
6.0837336285212764
 21
5.1165511279450104
 31
0.0
  0
LINE
  5
2BCE
  8
0
 10
6.0739942287803919
 20
5.0161927814258016
 30
0.0
 11
6.0739942287803919
 21
5.1060660607536148
 31
0.0
  0
ARC
  5
2BCF
  8
0
 10
6.0841911939334334
 20
5.1053431929532511
 30
0.0
 40
0.0102225552671106
 50
116.280708646693995
 51
175.9450580007674034
  0
LINE
  5
2BD0
  8
0
 10
6.0796649600803931
 20
5.1145090995258
 30
0.0
 11
6.1660224377803932
 21
5.1578511477258022
 31
0.0
  0
LINE
  5
2BD1
  8
0
 10
6.1727073979803917
 20
4.9428367382373066
 30
0.0
 11
6.0838027476434924
 21
4.9893140252693557
 31
0.0
  0
LINE
  5
2BD2
  8
0
 10
6.1727073979803917
 20
5.1276789523660229
 30
0.0
 11
6.0837522037755303
 21
5.0823570951347463
 31
0.0
  0
ARC
  5
2BD3
  8
0
 10
6.0841911939334334
 20
5.016915649226168
 30
0.0
 40
0.0102225552671106
 50
184.0549419992325966
 51
267.7693194683620845
  0
ARC
  5
2BD4
  8
0
 10
6.1727073979803917
 20
5.1447756366791717
 30
0.0
 40
0.0146852879442696
 50
62.9212452507269191
 51
117.0787547492731022
  0
LINE
  5
2BD5
  8
0
 10
6.2616120483172919
 20
4.7580444774332689
 30
0.0
 11
6.2616811674395079
 21
4.8852815801089253
 31
0.0
  0
LINE
  5
2BD6
  8
0
 10
6.2714205671803924
 20
4.7849232335897174
 30
0.0
 11
6.2714205671803924
 21
4.8747965129175297
 31
0.0
  0
ARC
  5
2BD7
  8
0
 10
6.2612236020273508
 20
4.874073645117166
 30
0.0
 40
0.0102225552671106
 50
4.054941999232609
 51
63.7192913533059979
  0
LINE
  5
2BD8
  8
0
 10
6.265749835880392
 20
4.8832395516897149
 30
0.0
 11
6.179392358180392
 21
4.9265815998897171
 31
0.0
  0
LINE
  5
2BD9
  8
0
 10
6.1727073979803917
 20
4.7115671904012224
 30
0.0
 11
6.2616120483172919
 21
4.7580444774332706
 31
0.0
  0
LINE
  5
2BDA
  8
0
 10
6.1727073979803917
 20
4.8964094045299378
 30
0.0
 11
6.261662592185254
 21
4.8510875472986612
 31
0.0
  0
ARC
  5
2BDB
  8
0
 10
6.2612236020273508
 20
4.7856461013900828
 30
0.0
 40
0.0102225552671106
 50
272.2306805316379723
 51
355.9450580007672897
  0
ARC
  5
2BDC
  8
0
 10
6.1714507962515048
 20
4.7976689855418408
 30
0.0
 40
0.0260821343565964
 50
87.2384983094200237
 51
185.1683538977727892
  0
ARC
  5
2BDD
  8
0
 10
6.1743826573039424
 20
4.7979168859754484
 30
0.0
 40
0.0258582695715078
 50
359.1953265816550243
 51
93.7145780951916834
  0
ARC
  5
2BDE
  8
0
 10
6.173921499717097
 20
4.8008485123455307
 30
0.0
 40
0.0265223217029157
 50
267.376277086815719
 51
352.8639151066577142
  0
ARC
  5
2BDF
  8
0
 10
6.1714431250421127
 20
4.800881224066134
 30
0.0
 40
0.0265573403068198
 50
192.0886836895361967
 51
272.7286200788498718
  0
LINE
  5
2BE0
  8
0
 10
6.0838027476434924
 20
4.7580444774332689
 30
0.0
 11
6.0837336285212764
 21
4.8852815801089253
 31
0.0
  0
LINE
  5
2BE1
  8
0
 10
6.0739942287803919
 20
4.7849232335897174
 30
0.0
 11
6.0739942287803919
 21
4.8747965129175297
 31
0.0
  0
ARC
  5
2BE2
  8
0
 10
6.0841911939334334
 20
4.874073645117166
 30
0.0
 40
0.0102225552671106
 50
116.280708646693995
 51
175.9450580007674034
  0
LINE
  5
2BE3
  8
0
 10
6.0796649600803931
 20
4.8832395516897149
 30
0.0
 11
6.1660224377803932
 21
4.9265815998897171
 31
0.0
  0
LINE
  5
2BE4
  8
0
 10
6.1727073979803917
 20
4.7115671904012224
 30
0.0
 11
6.0838027476434924
 21
4.7580444774332706
 31
0.0
  0
LINE
  5
2BE5
  8
0
 10
6.1727073979803917
 20
4.8964094045299378
 30
0.0
 11
6.0837522037755303
 21
4.8510875472986612
 31
0.0
  0
ARC
  5
2BE6
  8
0
 10
6.0841911939334334
 20
4.7856461013900828
 30
0.0
 40
0.0102225552671106
 50
184.0549419992325966
 51
267.7693194683620845
  0
ARC
  5
2BE7
  8
0
 10
6.1727073979803917
 20
4.9135060888430866
 30
0.0
 40
0.0146852879442696
 50
62.9212452507269191
 51
117.0787547492731022
  0
LINE
  5
2BE8
  8
0
 10
6.2616120483172919
 20
4.532119864622163
 30
0.0
 11
6.2616811674395079
 21
4.6593569672978186
 31
0.0
  0
LINE
  5
2BE9
  8
0
 10
6.2714205671803924
 20
4.5589986207786106
 30
0.0
 11
6.2714205671803924
 21
4.6488719001064238
 31
0.0
  0
ARC
  5
2BEA
  8
0
 10
6.2612236020273508
 20
4.6481490323060601
 30
0.0
 40
0.0102225552671106
 50
4.054941999232609
 51
63.7192913533059979
  0
LINE
  5
2BEB
  8
0
 10
6.265749835880392
 20
4.657314938878609
 30
0.0
 11
6.179392358180392
 21
4.7006569870786112
 31
0.0
  0
LINE
  5
2BEC
  8
0
 10
6.1727073979803917
 20
4.4856425775901156
 30
0.0
 11
6.2616120483172919
 21
4.5321198646221648
 31
0.0
  0
LINE
  5
2BED
  8
0
 10
6.1727073979803917
 20
4.6704847917188319
 30
0.0
 11
6.261662592185254
 21
4.6251629344875553
 31
0.0
  0
ARC
  5
2BEE
  8
0
 10
6.2612236020273508
 20
4.559721488578977
 30
0.0
 40
0.0102225552671106
 50
272.2306805316379723
 51
355.9450580007672897
  0
ARC
  5
2BEF
  8
0
 10
6.1714507962515048
 20
4.571744372730735
 30
0.0
 40
0.0260821343565964
 50
87.2384983094200237
 51
185.1683538977727892
  0
ARC
  5
2BF0
  8
0
 10
6.1743826573039424
 20
4.5719922731643416
 30
0.0
 40
0.0258582695715078
 50
359.1953265816550243
 51
93.7145780951916834
  0
ARC
  5
2BF1
  8
0
 10
6.173921499717097
 20
4.5749238995344248
 30
0.0
 40
0.0265223217029157
 50
267.376277086815719
 51
352.8639151066577142
  0
ARC
  5
2BF2
  8
0
 10
6.1714431250421127
 20
4.5749566112550291
 30
0.0
 40
0.0265573403068198
 50
192.0886836895361967
 51
272.7286200788498718
  0
LINE
  5
2BF3
  8
0
 10
6.0838027476434924
 20
4.532119864622163
 30
0.0
 11
6.0837336285212764
 21
4.6593569672978186
 31
0.0
  0
LINE
  5
2BF4
  8
0
 10
6.0739942287803919
 20
4.5589986207786106
 30
0.0
 11
6.0739942287803919
 21
4.6488719001064238
 31
0.0
  0
ARC
  5
2BF5
  8
0
 10
6.0841911939334334
 20
4.6481490323060601
 30
0.0
 40
0.0102225552671106
 50
116.280708646693995
 51
175.9450580007674034
  0
LINE
  5
2BF6
  8
0
 10
6.0796649600803931
 20
4.657314938878609
 30
0.0
 11
6.1660224377803932
 21
4.7006569870786112
 31
0.0
  0
LINE
  5
2BF7
  8
0
 10
6.1727073979803917
 20
4.4856425775901156
 30
0.0
 11
6.0838027476434924
 21
4.5321198646221648
 31
0.0
  0
LINE
  5
2BF8
  8
0
 10
6.1727073979803917
 20
4.6704847917188319
 30
0.0
 11
6.0837522037755303
 21
4.6251629344875553
 31
0.0
  0
ARC
  5
2BF9
  8
0
 10
6.0841911939334334
 20
4.559721488578977
 30
0.0
 40
0.0102225552671106
 50
184.0549419992325966
 51
267.7693194683620845
  0
ARC
  5
2BFA
  8
0
 10
6.1727073979803917
 20
4.6875814760319807
 30
0.0
 40
0.0146852879442696
 50
62.9212452507269191
 51
117.0787547492731022
  0
LINE
  5
2BFB
  8
0
 10
6.0395344822172934
 20
4.4172869297578501
 30
0.0
 11
6.0396036013395094
 21
4.544524032433503
 31
0.0
  0
LINE
  5
2BFC
  8
0
 10
6.049343001080393
 20
4.4441656859142951
 30
0.0
 11
6.049343001080393
 21
4.53403896524211
 31
0.0
  0
ARC
  5
2BFD
  8
0
 10
6.0391460359273523
 20
4.5333160974417437
 30
0.0
 40
0.0102225552671106
 50
4.054941999232609
 51
63.7192913533059979
  0
LINE
  5
2BFE
  8
0
 10
6.0436722697803917
 20
4.5424820040142961
 30
0.0
 11
5.9573147920803917
 21
4.5858240522142948
 31
0.0
  0
LINE
  5
2BFF
  8
0
 10
5.9506298318803932
 20
4.3708096427258019
 30
0.0
 11
6.0395344822172934
 21
4.4172869297578501
 31
0.0
  0
LINE
  5
2C00
  8
0
 10
5.9506298318803932
 20
4.5556518568545172
 30
0.0
 11
6.0395850260852546
 21
4.5103299996232407
 31
0.0
  0
ARC
  5
2C01
  8
0
 10
6.0391460359273523
 20
4.4448885537146623
 30
0.0
 40
0.0102225552671106
 50
272.2306805316379723
 51
355.9450580007672897
  0
ARC
  5
2C02
  8
0
 10
5.9493732301515063
 20
4.4569114378664203
 30
0.0
 40
0.0260821343565964
 50
87.2384983094200237
 51
185.1683538977727892
  0
ARC
  5
2C03
  8
0
 10
5.952305091203943
 20
4.4571593383000261
 30
0.0
 40
0.0258582695715078
 50
359.1953265816550243
 51
93.7145780951916834
  0
ARC
  5
2C04
  8
0
 10
5.9518439336170976
 20
4.460090964670111
 30
0.0
 40
0.0265223217029157
 50
267.376277086815719
 51
352.8639151066577142
  0
ARC
  5
2C05
  8
0
 10
5.9493655589421142
 20
4.4601236763907153
 30
0.0
 40
0.0265573403068198
 50
192.0886836895361967
 51
272.7286200788498718
  0
LINE
  5
2C06
  8
0
 10
5.8617251815434921
 20
4.4172869297578501
 30
0.0
 11
5.861656062421277
 21
4.544524032433503
 31
0.0
  0
LINE
  5
2C07
  8
0
 10
5.8519166626803933
 20
4.4441656859142951
 30
0.0
 11
5.8519166626803933
 21
4.53403896524211
 31
0.0
  0
ARC
  5
2C08
  8
0
 10
5.862113627833434
 20
4.5333160974417437
 30
0.0
 40
0.0102225552671106
 50
116.280708646693995
 51
175.9450580007674034
  0
LINE
  5
2C09
  8
0
 10
5.8575873939803929
 20
4.5424820040142961
 30
0.0
 11
5.9439448716803929
 21
4.5858240522142948
 31
0.0
  0
LINE
  5
2C0A
  8
0
 10
5.9506298318803932
 20
4.3708096427258019
 30
0.0
 11
5.8617251815434921
 21
4.4172869297578501
 31
0.0
  0
LINE
  5
2C0B
  8
0
 10
5.9506298318803932
 20
4.5556518568545172
 30
0.0
 11
5.86167463767553
 21
4.5103299996232407
 31
0.0
  0
ARC
  5
2C0C
  8
0
 10
5.862113627833434
 20
4.4448885537146623
 30
0.0
 40
0.0102225552671106
 50
184.0549419992325113
 51
267.7693194683620845
  0
ARC
  5
2C0D
  8
0
 10
5.9506298318803932
 20
4.572748541167666
 30
0.0
 40
0.0146852879442696
 50
62.9212452507269191
 51
117.0787547492731022
  0
LINE
  5
2C0E
  8
0
 10
5.817048163517291
 20
4.3041581151578496
 30
0.0
 11
5.817117282639507
 21
4.4313952178335043
 31
0.0
  0
LINE
  5
2C0F
  8
0
 10
5.8268566823803907
 20
4.3310368713142964
 30
0.0
 11
5.8268566823803907
 21
4.4209101506421113
 31
0.0
  0
ARC
  5
2C10
  8
0
 10
5.81665971722735
 20
4.420187282841745
 30
0.0
 40
0.0102225552671106
 50
4.054941999232609
 51
63.7192913533059979
  0
LINE
  5
2C11
  8
0
 10
5.8211859510803912
 20
4.4293531894142957
 30
0.0
 11
5.7348284733803911
 21
4.4726952376142961
 31
0.0
  0
LINE
  5
2C12
  8
0
 10
5.7281435131803908
 20
4.2576808281258032
 30
0.0
 11
5.817048163517291
 21
4.3041581151578496
 31
0.0
  0
LINE
  5
2C13
  8
0
 10
5.7281435131803908
 20
4.4425230422545168
 30
0.0
 11
5.817098707385254
 21
4.3972011850232411
 31
0.0
  0
ARC
  5
2C14
  8
0
 10
5.81665971722735
 20
4.3317597391146618
 30
0.0
 40
0.0102225552671106
 50
272.2306805316379723
 51
355.9450580007672897
  0
ARC
  5
2C15
  8
0
 10
5.726886911451504
 20
4.3437826232664198
 30
0.0
 40
0.0260821343565964
 50
87.2384983094200237
 51
185.1683538977727892
  0
ARC
  5
2C16
  8
0
 10
5.7298187725039407
 20
4.3440305237000274
 30
0.0
 40
0.0258582695715078
 50
359.1953265816550243
 51
93.7145780951916834
  0
ARC
  5
2C17
  8
0
 10
5.7293576149170971
 20
4.3469621500701123
 30
0.0
 40
0.0265223217029157
 50
267.376277086815719
 51
352.8639151066577142
  0
ARC
  5
2C18
  8
0
 10
5.7268792402421118
 20
4.3469948617907148
 30
0.0
 40
0.0265573403068198
 50
192.0886836895361967
 51
272.7286200788498718
  0
LINE
  5
2C19
  8
0
 10
5.6392388628434906
 20
4.3041581151578496
 30
0.0
 11
5.6391697437212747
 21
4.4313952178335043
 31
0.0
  0
LINE
  5
2C1A
  8
0
 10
5.629430343980391
 20
4.3310368713142964
 30
0.0
 11
5.629430343980391
 21
4.4209101506421113
 31
0.0
  0
ARC
  5
2C1B
  8
0
 10
5.6396273091334317
 20
4.420187282841745
 30
0.0
 40
0.0102225552671106
 50
116.280708646693995
 51
175.9450580007674034
  0
LINE
  5
2C1C
  8
0
 10
5.6351010752803923
 20
4.4293531894142957
 30
0.0
 11
5.7214585529803923
 21
4.4726952376142961
 31
0.0
  0
LINE
  5
2C1D
  8
0
 10
5.7281435131803908
 20
4.2576808281258032
 30
0.0
 11
5.6392388628434906
 21
4.3041581151578496
 31
0.0
  0
LINE
  5
2C1E
  8
0
 10
5.7281435131803908
 20
4.4425230422545168
 30
0.0
 11
5.6391883189755294
 21
4.3972011850232411
 31
0.0
  0
ARC
  5
2C1F
  8
0
 10
5.6396273091334317
 20
4.3317597391146618
 30
0.0
 40
0.0102225552671106
 50
184.0549419992325113
 51
267.7693194683620845
  0
ARC
  5
2C20
  8
0
 10
5.7281435131803908
 20
4.4596197265676656
 30
0.0
 40
0.0146852879442696
 50
62.9212452507269191
 51
117.0787547492731022
  0
LINE
  5
2C21
  8
0
 10
6.0395344822172934
 20
5.1018159582791638
 30
0.0
 11
6.0396036013395094
 21
5.2290530609548203
 31
0.0
  0
LINE
  5
2C22
  8
0
 10
6.049343001080393
 20
5.1286947144356123
 30
0.0
 11
6.049343001080393
 21
5.2185679937634246
 31
0.0
  0
ARC
  5
2C23
  8
0
 10
6.0391460359273523
 20
5.21784512596306
 30
0.0
 40
0.0102225552671106
 50
4.054941999232609
 51
63.7192913533059979
  0
LINE
  5
2C24
  8
0
 10
6.0436722697803917
 20
5.2270110325356098
 30
0.0
 11
5.9573147920803917
 21
5.270353080735612
 31
0.0
  0
LINE
  5
2C25
  8
0
 10
5.9506298318803932
 20
5.0553386712471173
 30
0.0
 11
6.0395344822172934
 21
5.1018159582791656
 31
0.0
  0
LINE
  5
2C26
  8
0
 10
5.9506298318803932
 20
5.2401808853758327
 30
0.0
 11
6.0395850260852546
 21
5.1948590281445561
 31
0.0
  0
ARC
  5
2C27
  8
0
 10
6.0391460359273523
 20
5.1294175822359778
 30
0.0
 40
0.0102225552671106
 50
272.2306805316379723
 51
355.9450580007672897
  0
ARC
  5
2C28
  8
0
 10
5.9493732301515063
 20
5.1414404663877358
 30
0.0
 40
0.0260821343565964
 50
87.2384983094200237
 51
185.1683538977727892
  0
ARC
  5
2C29
  8
0
 10
5.952305091203943
 20
5.1416883668213433
 30
0.0
 40
0.0258582695715078
 50
359.1953265816550243
 51
93.7145780951916834
  0
ARC
  5
2C2A
  8
0
 10
5.9518439336170976
 20
5.1446199931914256
 30
0.0
 40
0.0265223217029157
 50
267.376277086815719
 51
352.8639151066577142
  0
ARC
  5
2C2B
  8
0
 10
5.9493655589421142
 20
5.144652704912029
 30
0.0
 40
0.0265573403068198
 50
192.0886836895361967
 51
272.7286200788498718
  0
LINE
  5
2C2C
  8
0
 10
5.8617251815434921
 20
5.1018159582791638
 30
0.0
 11
5.861656062421277
 21
5.2290530609548203
 31
0.0
  0
LINE
  5
2C2D
  8
0
 10
5.8519166626803933
 20
5.1286947144356123
 30
0.0
 11
5.8519166626803933
 21
5.2185679937634246
 31
0.0
  0
ARC
  5
2C2E
  8
0
 10
5.862113627833434
 20
5.21784512596306
 30
0.0
 40
0.0102225552671106
 50
116.280708646693995
 51
175.9450580007674034
  0
LINE
  5
2C2F
  8
0
 10
5.8575873939803929
 20
5.2270110325356098
 30
0.0
 11
5.9439448716803929
 21
5.270353080735612
 31
0.0
  0
LINE
  5
2C30
  8
0
 10
5.9506298318803932
 20
5.0553386712471173
 30
0.0
 11
5.8617251815434921
 21
5.1018159582791656
 31
0.0
  0
LINE
  5
2C31
  8
0
 10
5.9506298318803932
 20
5.2401808853758327
 30
0.0
 11
5.86167463767553
 21
5.1948590281445561
 31
0.0
  0
ARC
  5
2C32
  8
0
 10
5.862113627833434
 20
5.1294175822359778
 30
0.0
 40
0.0102225552671106
 50
184.0549419992325113
 51
267.7693194683620845
  0
ARC
  5
2C33
  8
0
 10
5.9506298318803932
 20
5.2572775696889824
 30
0.0
 40
0.0146852879442696
 50
62.9212452507269191
 51
117.0787547492731022
  0
LINE
  5
2C34
  8
0
 10
5.817048163517291
 20
5.2168029649071661
 30
0.0
 11
5.817117282639507
 21
5.3440400675828217
 31
0.0
  0
LINE
  5
2C35
  8
0
 10
5.8268566823803907
 20
5.2436817210636137
 30
0.0
 11
5.8268566823803907
 21
5.3335550003914269
 31
0.0
  0
ARC
  5
2C36
  8
0
 10
5.81665971722735
 20
5.3328321325910633
 30
0.0
 40
0.0102225552671106
 50
4.054941999232609
 51
63.7192913533059979
  0
LINE
  5
2C37
  8
0
 10
5.8211859510803912
 20
5.341998039163613
 30
0.0
 11
5.7348284733803911
 21
5.3853400873636144
 31
0.0
  0
LINE
  5
2C38
  8
0
 10
5.7281435131803908
 20
5.1703256778751188
 30
0.0
 11
5.817048163517291
 21
5.2168029649071679
 31
0.0
  0
LINE
  5
2C39
  8
0
 10
5.7281435131803908
 20
5.355167892003835
 30
0.0
 11
5.817098707385254
 21
5.3098460347725576
 31
0.0
  0
ARC
  5
2C3A
  8
0
 10
5.81665971722735
 20
5.2444045888639801
 30
0.0
 40
0.0102225552671106
 50
272.2306805316379723
 51
355.9450580007672897
  0
ARC
  5
2C3B
  8
0
 10
5.726886911451504
 20
5.2564274730157381
 30
0.0
 40
0.0260821343565964
 50
87.2384983094200237
 51
185.1683538977727892
  0
ARC
  5
2C3C
  8
0
 10
5.7298187725039407
 20
5.2566753734493448
 30
0.0
 40
0.0258582695715078
 50
359.1953265816550243
 51
93.7145780951916834
  0
ARC
  5
2C3D
  8
0
 10
5.7293576149170971
 20
5.2596069998194279
 30
0.0
 40
0.0265223217029157
 50
267.376277086815719
 51
352.8639151066577142
  0
ARC
  5
2C3E
  8
0
 10
5.7268792402421118
 20
5.2596397115400322
 30
0.0
 40
0.0265573403068198
 50
192.0886836895361967
 51
272.7286200788498718
  0
LINE
  5
2C3F
  8
0
 10
5.6392388628434906
 20
5.2168029649071661
 30
0.0
 11
5.6391697437212747
 21
5.3440400675828217
 31
0.0
  0
LINE
  5
2C40
  8
0
 10
5.629430343980391
 20
5.2436817210636137
 30
0.0
 11
5.629430343980391
 21
5.3335550003914269
 31
0.0
  0
ARC
  5
2C41
  8
0
 10
5.6396273091334317
 20
5.3328321325910633
 30
0.0
 40
0.0102225552671106
 50
116.280708646693995
 51
175.9450580007674034
  0
LINE
  5
2C42
  8
0
 10
5.6351010752803923
 20
5.341998039163613
 30
0.0
 11
5.7214585529803923
 21
5.3853400873636144
 31
0.0
  0
LINE
  5
2C43
  8
0
 10
5.7281435131803908
 20
5.1703256778751188
 30
0.0
 11
5.6392388628434906
 21
5.2168029649071679
 31
0.0
  0
LINE
  5
2C44
  8
0
 10
5.7281435131803908
 20
5.355167892003835
 30
0.0
 11
5.6391883189755294
 21
5.3098460347725576
 31
0.0
  0
ARC
  5
2C45
  8
0
 10
5.6396273091334317
 20
5.2444045888639801
 30
0.0
 40
0.0102225552671106
 50
184.0549419992325113
 51
267.7693194683620845
  0
ARC
  5
2C46
  8
0
 10
5.7281435131803908
 20
5.3722645763169838
 30
0.0
 40
0.0146852879442696
 50
62.9212452507269191
 51
117.0787547492731022
  0
LINE
  5
2C47
  8
0
 10
7.7792176357651046
 20
5.1575026987022801
 30
0.0
 11
7.5549298582685216
 21
5.2754923521399091
 31
0.0
  0
LINE
  5
2C48
  8
0
 10
7.4164021950943742
 20
5.3483667243053388
 30
0.0
 11
7.1110480180155644
 21
5.5090024661696511
 31
0.0
  0
LINE
  5
2C49
  8
0
 10
7.0000005735191042
 20
5.5674204933912694
 30
0.0
 11
6.6712112651156072
 21
5.740384606663631
 31
0.0
  0
LINE
  5
2C4A
  8
0
 10
6.5611005976820307
 20
5.7983098294969251
 30
0.0
 11
6.2285018706335684
 21
5.9732779395574136
 31
0.0
  0
LINE
  5
2C4B
  8
0
 10
6.1207309422896721
 20
6.0299723106367358
 30
0.0
 11
5.7833192744089121
 21
6.207472334059414
 31
0.0
  0
LINE
  5
2C4C
  8
0
 10
7.7818255726192582
 20
4.6969761434485413
 30
0.0
 11
7.5591071853731586
 21
4.8115316023817112
 31
0.0
  0
LINE
  5
2C4D
  8
0
 10
7.4230729414877787
 20
4.8815009723632636
 30
0.0
 11
7.1109970813204022
 21
5.0420175503857836
 31
0.0
  0
LINE
  5
2C4E
  8
0
 10
6.9996550755271461
 20
5.0992864392723218
 30
0.0
 11
6.6664270654972126
 21
5.2706826499326791
 31
0.0
  0
LINE
  5
2C4F
  8
0
 10
6.5550894297103079
 20
5.3279492911014179
 30
0.0
 11
6.2222363494922197
 21
5.4991526561813311
 31
0.0
  0
LINE
  5
2C50
  8
0
 10
6.111317714437086
 20
5.5562037838412213
 30
0.0
 11
5.7832406441471473
 21
5.724950602715162
 31
0.0
  0
LINE
  5
2C51
  8
0
 10
6.4411963581834266
 20
6.634825756751316
 30
0.0
 11
6.2481403839018368
 21
6.528304998976
 31
0.0
  0
LINE
  5
2C52
  8
0
 10
6.1005683070976771
 20
6.4468804820391252
 30
0.0
 11
5.7816997479707757
 21
6.2709412464090573
 31
0.0
  0
LINE
  5
2C53
  8
0
 10
6.9118082811677288
 20
6.4158057387051111
 30
0.0
 11
6.687509618765004
 21
6.2902549032803954
 31
0.0
  0
LINE
  5
2C54
  8
0
 10
6.5452142635592843
 20
6.2106052944429653
 30
0.0
 11
6.226997905230462
 21
6.0324841714455326
 31
0.0
  0
LINE
  5
2C55
  8
0
 10
6.1202185835299154
 20
5.9727146083907261
 30
0.0
 11
6.1202104961242147
 21
5.9727100814776746
 31
0.0
  0
LINE
  5
2C56
  8
0
 10
6.1192736932426701
 20
5.9721857074883387
 30
0.0
 11
5.7864893642438409
 21
5.7859101850465713
 31
0.0
  0
LINE
  5
2C57
  8
0
 10
7.2700478795227603
 20
6.1407393820872684
 30
0.0
 11
7.1329382781287602
 21
6.0638882153148632
 31
0.0
  0
LINE
  5
2C58
  8
0
 10
6.9892700999143091
 20
5.9833609071497804
 30
0.0
 11
6.6714204053810242
 21
5.8052032899239752
 31
0.0
  0
LINE
  5
2C59
  8
0
 10
6.5637288808765621
 20
5.7448412202693202
 30
0.0
 11
6.2364495150827821
 21
5.5613981873521157
 31
0.0
  0
LINE
  5
2C5A
  8
0
 10
6.1264517600825084
 20
5.49974345472822
 30
0.0
 11
5.8268566823803907
 21
5.3318177146882242
 31
0.0
  0
LINE
  5
2C5B
  8
0
 10
7.5306619867284299
 20
5.830300941299563
 30
0.0
 11
7.1188763701804438
 21
5.5817019387189939
 31
0.0
  0
LINE
  5
2C5C
  8
0
 10
7.0096527142772604
 20
5.5203630177436276
 30
0.0
 11
6.6788435597525062
 21
5.3345838802525023
 31
0.0
  0
LINE
  5
2C5D
  8
0
 10
6.5684390908511796
 20
5.2725818264184108
 30
0.0
 11
6.2714205671803924
 21
5.1057791718010712
 31
0.0
  0
LINE
  5
2C5E
  8
0
 10
7.6902545452738522
 20
4.3386890379767724
 30
0.0
 11
7.5803411690728382
 21
4.3900256002410769
 31
0.0
  0
LINE
  5
2C5F
  8
0
 10
7.4322577105379866
 20
4.4591900272848326
 30
0.0
 11
7.116556477155318
 21
4.6066426539317291
 31
0.0
  0
LINE
  5
2C60
  8
0
 10
7.0069116921154349
 20
4.657853766980085
 30
0.0
 11
6.670965355404987
 21
4.814762149090563
 31
0.0
  0
LINE
  5
2C61
  8
0
 10
6.5575437693526251
 20
4.8677372692783454
 30
0.0
 11
6.261621086606163
 21
5.005952050347859
 31
0.0
  0
LINE
  5
2C62
  8
0
 10
7.713915719051708
 20
5.4403582124233871
 30
0.0
 11
7.5801085995440767
 21
5.3667970735130712
 31
0.0
  0
LINE
  5
2C63
  8
0
 10
7.4348850830531417
 20
5.286959712773645
 30
0.0
 11
7.119657921385361
 21
5.1136619905517291
 31
0.0
  0
LINE
  5
2C64
  8
0
 10
7.0097143009803178
 20
5.0532199306473098
 30
0.0
 11
6.6776474681009956
 21
4.8706645142327822
 31
0.0
  0
LINE
  5
2C65
  8
0
 10
6.5667738400427238
 20
4.8097111779297741
 30
0.0
 11
6.2714205671803924
 21
4.6473392263281736
 31
0.0
  0
LINE
  5
2C66
  8
0
 10
7.505694781646131
 20
3.9700518245350431
 30
0.0
 11
7.115878556186467
 21
4.1522383642550373
 31
0.0
  0
LINE
  5
2C67
  8
0
 10
7.0034561575671681
 20
4.2047806815157394
 30
0.0
 11
6.6707008451266629
 21
4.3602989359842246
 31
0.0
  0
LINE
  5
2C68
  8
0
 10
6.55789907160172
 20
4.4130185598750842
 30
0.0
 11
6.2646289574616896
 21
4.550082806586353
 31
0.0
  0
LINE
  5
2C69
  8
0
 10
7.7948383703735571
 20
4.9859133285696462
 30
0.0
 11
7.5907384096732509
 21
4.8809194024852376
 31
0.0
  0
LINE
  5
2C6A
  8
0
 10
7.4539497661425003
 20
4.8105520360302183
 30
0.0
 11
7.1244522884716144
 21
4.6410506128213491
 31
0.0
  0
LINE
  5
2C6B
  8
0
 10
7.013556597010866
 20
4.5840032033443547
 30
0.0
 11
6.6777327144615848
 21
4.4112473253874143
 31
0.0
  0
LINE
  5
2C6C
  8
0
 10
6.5655677520836511
 20
4.3535469724389797
 30
0.0
 11
6.2344086874340396
 21
4.1831907889458471
 31
0.0
  0
LINE
  5
2C6D
  8
0
 10
6.1222414655071482
 20
4.1254892736311142
 30
0.0
 11
5.785922110393428
 21
3.952478512676505
 31
0.0
  0
LINE
  5
2C6E
  8
0
 10
7.7430125402459486
 20
4.5047936533098989
 30
0.0
 11
7.592789668730096
 21
4.4292090256063519
 31
0.0
  0
LINE
  5
2C6F
  8
0
 10
7.4556077196779258
 20
4.3601859371636493
 30
0.0
 11
7.124749153085971
 21
4.1937144716269037
 31
0.0
  0
LINE
  5
2C70
  8
0
 10
7.0132685190554378
 20
4.1376229981094097
 30
0.0
 11
6.6732038155790452
 21
3.966519465418199
 31
0.0
  0
LINE
  5
2C71
  8
0
 10
6.6549313853808121
 20
3.9573256933924341
 30
0.0
 11
6.2305873950525976
 21
3.7438170431879212
 31
0.0
  0
LINE
  5
2C72
  8
0
 10
6.119535881544123
 20
3.68794148163225
 30
0.0
 11
5.7863772945433141
 21
3.5203127609814229
 31
0.0
  0
LINE
  5
2C73
  8
0
 10
7.5058915400733444
 20
3.970355963931067
 30
0.0
 11
7.1361072844010076
 21
3.7798577469257171
 31
0.0
  0
LINE
  5
2C74
  8
0
 10
6.9896175267884981
 20
3.7043920200683318
 30
0.0
 11
6.6889420899420609
 21
3.5494959320442261
 31
0.0
  0
LINE
  5
2C75
  8
0
 10
6.5438546073267911
 20
3.4747526017806059
 30
0.0
 11
6.2482542232766534
 21
3.3224709801489229
 31
0.0
  0
LINE
  5
2C76
  8
0
 10
6.101393252108724
 20
3.2468140187558592
 30
0.0
 11
5.7881056554428456
 21
3.0854206450270869
 31
0.0
  0
LINE
  5
2C77
  8
0
 10
7.5098005224398374
 20
5.8623135267578874
 30
0.0
 11
7.1238316644075246
 21
5.9709778732124859
 31
0.0
  0
LINE
  5
2C78
  8
0
 10
6.9804351944148051
 20
6.049688535212149
 30
0.0
 11
6.6889557879137573
 21
6.209682271781336
 31
0.0
  0
LINE
  5
2C79
  8
0
 10
6.5472522105227418
 20
6.2874637010224736
 30
0.0
 11
6.2457588944837941
 21
6.4529540962539906
 31
0.0
  0
LINE
  5
2C7A
  8
0
 10
6.1006279444556544
 20
6.532616818453044
 30
0.0
 11
5.7281445104803916
 21
6.73707385755303
 31
0.0
  0
LINE
  5
2C7B
  8
0
 10
7.2361600388766076
 20
3.6419861787496588
 30
0.0
 11
7.12788335608544
 21
3.6938491198075658
 31
0.0
  0
LINE
  5
2C7C
  8
0
 10
6.9804340942265064
 20
3.7644751510055379
 30
0.0
 11
6.6616346085412568
 21
3.9171754232079521
 31
0.0
  0
LINE
  5
2C7D
  8
0
 10
6.6345797394239074
 20
3.9301343082254099
 30
0.0
 11
6.2254352611452619
 21
4.1261085052005759
 31
0.0
  0
LINE
  5
2C7E
  8
0
 10
6.112125394115548
 20
4.1803822675984854
 30
0.0
 11
5.8173770738101931
 21
4.3215623847655102
 31
0.0
  0
LINE
  5
2C7F
  8
0
 10
6.8930116485764357
 20
3.3789313068222442
 30
0.0
 11
6.6892255389735773
 21
3.474021456257657
 31
0.0
  0
LINE
  5
2C80
  8
0
 10
6.541646270691662
 20
3.542884514205245
 30
0.0
 11
6.2284892416078721
 21
3.689009040309398
 31
0.0
  0
LINE
  5
2C81
  8
0
 10
6.1170609095786039
 20
3.7410034415207991
 30
0.0
 11
5.7803332229245861
 21
3.898126447133746
 31
0.0
  0
LINE
  5
2C82
  8
0
 10
6.4221522020982214
 20
3.1701661567296848
 30
0.0
 11
6.2454654856016294
 21
3.2525915262199989
 31
0.0
  0
LINE
  5
2C83
  8
0
 10
6.0982136787737531
 20
3.3212853410498089
 30
0.0
 11
5.7863133491260568
 21
3.4667886387799349
 31
0.0
  0
ARC
  5
2C84
  8
0
 10
5.6673454360340818
 20
4.2151949826281481
 30
0.0
 40
2.629461187978281
 50
62.5948669954507508
 51
88.6750740336500769
  0
LINE
  5
2C85
  8
0
 10
7.5122515253360014
 20
5.4116926757164387
 30
0.0
 11
7.5461839935138553
 21
5.8054154498371382
 31
0.0
  0
LINE
  5
2C86
  8
0
 10
7.5054610063803384
 20
5.253712574137265
 30
0.0
 11
7.5082242554429452
 21
4.950599448026737
 31
0.0
  0
LINE
  5
2C87
  8
0
 10
7.5065951818985086
 20
4.4996319598742298
 30
0.0
 11
7.5064075210351291
 21
4.7922689630779507
 31
0.0
  0
LINE
  5
2C88
  8
0
 10
7.5091988076161833
 20
4.341469282229613
 30
0.0
 11
7.5207334601210087
 21
3.993677904868203
 31
0.0
  0
LINE
  5
2C89
  8
0
 10
5.7283110679520268
 20
3.5543280199369529
 30
0.0
 11
5.7282394712935636
 21
3.8566725957761521
 31
0.0
  0
LINE
  5
2C8A
  8
0
 10
5.7282087922912917
 20
3.9862265460302022
 30
0.0
 11
5.7281445104803916
 21
4.2576813494910857
 31
0.0
  0
LINE
  5
2C8B
  8
0
 10
5.7281435131803908
 20
5.3869498642612541
 30
0.0
 11
5.728143719402552
 21
5.6852979644529116
 31
0.0
  0
LINE
  5
2C8C
  8
0
 10
5.728143808843841
 20
5.814695493087898
 30
0.0
 11
5.7281440509369377
 21
6.1649392082473886
 31
0.0
  0
LINE
  5
2C8D
  8
0
 10
5.7281441403987561
 20
6.294366438065226
 30
0.0
 11
5.7281444464039684
 21
6.7370738223813289
 31
0.0
  0
LINE
  5
2C8E
  8
0
 10
5.6665842893803928
 20
2.7451682826258028
 30
0.0
 11
5.6700045094400062
 21
3.4729247214166392
 31
0.0
  0
LINE
  5
2C8F
  8
0
 10
5.2215401735803946
 20
3.032257051925801
 30
0.0
 11
5.2215401735803928
 21
-2.163760768398582
 31
0.0
  0
ARC
  5
2C90
  8
0
 10
5.2412252129803916
 20
-2.163760768398582
 30
0.0
 40
0.0196850394
 50
180.0000000000999876
 51
270.0000000000998739
  0
ARC
  5
2C91
  8
0
 10
1377.1451684717869739
 20
-1.259118622078049
 30
0.0
 40
1371.7733015416140461
 50
179.8313289313205985
 51
179.8453257751685044
  0
ARC
  5
2C92
  8
0
 10
5.0581972580404697
 20
2.7566086072716951
 30
0.0
 40
0.3204106319979276
 50
4.0416459220700531
 51
59.3499952230753323
  0
ARC
  5
2C93
  8
0
 10
5.7202135663171889
 20
5.3000645578796766
 30
0.0
 40
2.3219875186323371
 50
229.6925655723620991
 51
257.5984678629928908
  0
ARC
  5
2C94
  8
0
 10
5.4292340108479404
 20
4.9477395386191692
 30
0.0
 40
1.865088270284454
 50
181.8208266258830861
 51
229.5076724925231133
  0
ARC
  5
2C95
  8
0
 10
5.4277149085959593
 20
5.251170717184638
 30
0.0
 40
1.8626312938957801
 50
125.3072592414032016
 51
179.8834923368517877
  0
ARC
  5
2C96
  8
0
 10
5.7280667124255711
 20
4.8632329920321613
 30
0.0
 40
2.3528978530621498
 50
89.9981055275347046
 51
125.8160472986283054
  0
ARC
  5
2C97
  8
0
 10
5.4522544417143548
 20
4.8767313363877243
 30
0.0
 40
1.8872035334459081
 50
117.5747731411771042
 51
179.6433644578320923
  0
ARC
  5
2C98
  8
0
 10
5.7457895043513734
 20
2.7436542505799149
 30
0.0
 40
0.0792196842434714
 50
178.9049069192446098
 51
224.597246545749698
  0
ARC
  5
2C99
  8
0
 10
5.7094128718092536
 20
4.5278126716643596
 30
0.0
 40
2.21846449000153
 50
106.858661013180793
 51
138.9539480886722913
  0
ARC
  5
2C9A
  8
0
 10
5.361041763127651
 20
4.917695804041629
 30
0.0
 40
1.700959605775261
 50
141.1533911037031999
 51
190.0404789865281998
  0
ARC
  5
2C9B
  8
0
 10
5.5249850060419483
 20
4.9887960663353086
 30
0.0
 40
1.8752456149948351
 50
191.3063884529692871
 51
246.9571478678001881
  0
ARC
  5
2C9C
  8
0
 10
5.7289593806396013
 20
5.35111804815278
 30
0.0
 40
2.288958178966225
 50
245.8086347521737025
 51
268.475871674222617
  0
ARC
  5
2C9D
  8
0
 10
5.7042017160364429
 20
2.4441249875816089
 30
0.0
 40
0.327336254027214
 50
180.0076832224451095
 51
227.5004493854353882
  0
ARC
  5
2C9E
  8
0
 10
4.8427424864216659
 20
3.9168888687516299
 30
0.0
 40
0.0192984899190496
 50
350.244316581495184
 51
80.6881126495747338
  0
ARC
  5
2C9F
  8
0
 10
4.8402410380000482
 20
3.9124432572948029
 30
0.0
 40
0.0241536911818787
 50
76.5352679085343084
 51
157.5769223489299122
  0
ARC
  5
2CA0
  8
0
 10
4.8363668949862522
 20
3.9155903184375811
 30
0.0
 40
0.0194248467807419
 50
161.8026983469937079
 51
258.8376673948193911
  0
ARC
  5
2CA1
  8
0
 10
4.8395702225493942
 20
3.918068388005767
 30
0.0
 40
0.0226333759500226
 50
252.0807007350925915
 51
348.6621193319858776
  0
LINE
  5
2CA2
  8
0
 10
3.5650874655844582
 20
5.2549582678847111
 30
0.0
 11
3.565087467017225
 21
4.8884780918228312
 31
0.0
  0
ARC
  5
2CA3
  8
0
 10
4.8403838201836251
 20
3.9170938538646909
 30
0.0
 40
0.0522847693122655
 50
357.6332625071993903
 51
83.6683257017210025
  0
ARC
  5
2CA4
  8
0
 10
4.8369342162104081
 20
3.9160021377024941
 30
0.0
 40
0.0538519689245516
 50
80.1463892581750201
 51
170.712053303857914
  0
ARC
  5
2CA5
  8
0
 10
4.8377774472132362
 20
3.9252829574221919
 30
0.0
 40
0.0539924002082997
 50
180.625384000232998
 51
272.5865768972784053
  0
ARC
  5
2CA6
  8
0
 10
4.8416552692931001
 20
3.9229151340070709
 30
0.0
 40
0.0515897022303617
 50
268.3991859599021836
 51
351.1011813339316063
  0
LINE
  5
2CA7
  8
0
 10
4.8926519545240872
 20
3.9157750534232751
 30
0.0
 11
4.894057863976462
 21
3.971495586886467
 31
0.0
  0
LINE
  5
2CA8
  8
0
 10
4.7837882632311981
 20
3.924693641541833
 30
0.0
 11
4.7829816163846397
 21
3.9726821092911648
 31
0.0
  0
ARC
  5
2CA9
  8
0
 10
4.8566412085064883
 20
3.9446821683395941
 30
0.0
 40
0.0466869474058104
 50
320.4190053591473202
 51
21.7866159502784598
  0
ARC
  5
2CAA
  8
0
 10
4.8357555146954718
 20
3.9284130339764638
 30
0.0
 40
0.0724932431122075
 50
27.6099949166202592
 51
87.3866154799897146
  0
ARC
  5
2CAB
  8
0
 10
4.8376114616416004
 20
3.9337822634151971
 30
0.0
 40
0.0670642826098466
 50
88.7615527761416558
 51
146.6135764997532931
  0
ARC
  5
2CAC
  8
0
 10
4.8168323224210141
 20
3.949303443317385
 30
0.0
 40
0.0412013615210623
 50
148.7353856788836879
 51
216.6771644135939994
  0
LINE
  5
2CAD
  8
0
 10
5.2835816229803916
 20
3.3586901244987031
 30
0.0
 11
5.283581622980388
 21
3.6434063018867522
 31
0.0
  0
LINE
  5
2CAE
  8
0
 10
5.2835816229803898
 20
3.7728297755584261
 30
0.0
 11
5.2835816229803898
 21
4.090940593709596
 31
0.0
  0
LINE
  5
2CAF
  8
0
 10
5.2835816229803916
 20
4.2203974063671899
 30
0.0
 11
5.2835816229803916
 21
4.4856425775901156
 31
0.0
  0
LINE
  5
2CB0
  8
0
 10
5.2835816229803916
 20
5.1594609246234411
 30
0.0
 11
5.2835816229803916
 21
5.4726455984480991
 31
0.0
  0
LINE
  5
2CB1
  8
0
 10
5.2835816229803916
 20
5.6020431631377363
 30
0.0
 11
5.2835816229803916
 21
5.9273576999844142
 31
0.0
  0
LINE
  5
2CB2
  8
0
 10
5.2835816229803898
 20
6.056784972880334
 30
0.0
 11
5.2835816229803916
 21
6.3947055637595973
 31
0.0
  0
LINE
  5
2CB3
  8
0
 10
5.2835816229803916
 20
6.5714105324461674
 30
0.0
 11
5.2835816229803907
 21
6.715558606492074
 31
0.0
  0
LINE
  5
2CB4
  8
0
 10
4.8390323015472729
 20
6.3196976901286472
 30
0.0
 11
4.8390381237163211
 21
6.5684087834120808
 31
0.0
  0
LINE
  5
2CB5
  8
0
 10
4.839028596677557
 20
6.1614332718511156
 30
0.0
 11
4.8390208393438927
 21
5.830055924219244
 31
0.0
  0
LINE
  5
2CB6
  8
0
 10
4.8390178082596211
 20
5.7005742350158961
 30
0.0
 11
4.8390101212772212
 21
5.372202148822395
 31
0.0
  0
LINE
  5
2CB7
  8
0
 10
4.8390070901710809
 20
5.2427195254876677
 30
0.0
 11
4.838999191647205
 21
4.905310822278909
 31
0.0
  0
LINE
  5
2CB8
  8
0
 10
4.8389961605188558
 20
4.7758272502076764
 30
0.0
 11
4.8389884953380351
 21
4.4483864826299646
 31
0.0
  0
LINE
  5
2CB9
  8
0
 10
4.8389854628739961
 20
4.3188458526102691
 30
0.0
 11
4.838968198529467
 21
3.5813485441645909
 31
0.0
  0
LINE
  5
2CBA
  8
0
 10
4.8389644928197573
 20
3.4230482431468241
 30
0.0
 11
4.8389602609655027
 21
3.2422721286897889
 31
0.0
  0
LINE
  5
2CBB
  8
0
 10
4.3944150595873062
 20
6.0967037309748324
 30
0.0
 11
4.3944150595873062
 21
6.3145318570007802
 31
0.0
  0
LINE
  5
2CBC
  8
0
 10
4.3944150595873062
 20
5.9383237023923359
 30
0.0
 11
4.3944150595873062
 21
5.6104134432991257
 31
0.0
  0
LINE
  5
2CBD
  8
0
 10
4.3944150595873062
 20
5.4809279330068366
 30
0.0
 11
4.3944150595873062
 21
5.1435215364169231
 31
0.0
  0
LINE
  5
2CBE
  8
0
 10
4.3944150595873062
 20
5.0140360261246331
 30
0.0
 11
4.3944150595873062
 21
4.6865961483155738
 31
0.0
  0
LINE
  5
2CBF
  8
0
 10
4.3944150595873062
 20
4.557055156605073
 30
0.0
 11
4.3944150595873062
 21
4.2390421363247759
 31
0.0
  0
LINE
  5
2CC0
  8
0
 10
4.3944150595873062
 20
4.1095133165043576
 30
0.0
 11
4.3944150595873062
 21
3.8150007896219029
 31
0.0
  0
LINE
  5
2CC1
  8
0
 10
4.3944150595873062
 20
3.656700345917979
 30
0.0
 11
4.3944150595873062
 21
3.4926818618940478
 31
0.0
  0
ARC
  5
2CC2
  8
0
 10
4.3981819947314662
 20
4.1550983332997493
 30
0.0
 40
0.0192984899190496
 50
350.244316581495184
 51
80.6881126495747338
  0
ARC
  5
2CC3
  8
0
 10
4.3956805463098467
 20
4.1506527218429223
 30
0.0
 40
0.0241536911818787
 50
76.5352679085343084
 51
157.5769223489299122
  0
ARC
  5
2CC4
  8
0
 10
4.3918064032960507
 20
4.1537997829856996
 30
0.0
 40
0.0194248467807419
 50
161.8026983469937079
 51
258.8376673948193911
  0
ARC
  5
2CC5
  8
0
 10
4.3950097308591927
 20
4.1562778525538864
 30
0.0
 40
0.0226333759500226
 50
252.0807007350925915
 51
348.6621193319858776
  0
ARC
  5
2CC6
  8
0
 10
4.3958233284934236
 20
4.1553033184128081
 30
0.0
 40
0.0522847693122655
 50
357.6332625071993903
 51
83.6683257017210025
  0
ARC
  5
2CC7
  8
0
 10
4.3923737245202084
 20
4.1542116022506121
 30
0.0
 40
0.0538519689245516
 50
80.1463892581750201
 51
170.712053303857914
  0
ARC
  5
2CC8
  8
0
 10
4.3932169555230347
 20
4.16349242197031
 30
0.0
 40
0.0539924002082997
 50
180.625384000232998
 51
272.5865768972784053
  0
ARC
  5
2CC9
  8
0
 10
4.3970947776029004
 20
4.1611245985551903
 30
0.0
 40
0.0515897022303617
 50
268.3991859599021836
 51
351.1011813339316063
  0
LINE
  5
2CCA
  8
0
 10
4.4480914628338857
 20
4.153984517971395
 30
0.0
 11
4.4494973722862614
 21
4.2097050514345851
 31
0.0
  0
LINE
  5
2CCB
  8
0
 10
4.3392277715409966
 20
4.162903106089952
 30
0.0
 11
4.3384211246944391
 21
4.2108915738392829
 31
0.0
  0
ARC
  5
2CCC
  8
0
 10
4.4120807168162868
 20
4.1828916328877126
 30
0.0
 40
0.0466869474058104
 50
320.4190053591473202
 51
21.7866159502784598
  0
ARC
  5
2CCD
  8
0
 10
4.3911950230052721
 20
4.166622498524581
 30
0.0
 40
0.0724932431122075
 50
27.6099949166202592
 51
87.3866154799897146
  0
ARC
  5
2CCE
  8
0
 10
4.3930509699513989
 20
4.1719917279633156
 30
0.0
 40
0.0670642826098466
 50
88.7615527761416558
 51
146.6135764997532931
  0
ARC
  5
2CCF
  8
0
 10
4.3722718307308126
 20
4.1875129078655027
 30
0.0
 40
0.0412013615210623
 50
148.7353856788836879
 51
216.6771644135939994
  0
ARC
  5
2CD0
  8
0
 10
5.2861100418205487
 20
3.6889496043417731
 30
0.0
 40
0.0192984899190496
 50
350.244316581495184
 51
80.6881126495747338
  0
ARC
  5
2CD1
  8
0
 10
5.2836085933989301
 20
3.684503992884947
 30
0.0
 40
0.0241536911818787
 50
76.5352679085343084
 51
157.5769223489299122
  0
ARC
  5
2CD2
  8
0
 10
5.279734450385134
 20
3.6876510540277252
 30
0.0
 40
0.0194248467807419
 50
161.8026983469937079
 51
258.8376673948193911
  0
ARC
  5
2CD3
  8
0
 10
5.282937777948276
 20
3.6901291235959111
 30
0.0
 40
0.0226333759500226
 50
252.0807007350925915
 51
348.6621193319858776
  0
ARC
  5
2CD4
  8
0
 10
5.283751375582507
 20
3.6891545894548341
 30
0.0
 40
0.0522847693122655
 50
357.6332625071993903
 51
83.6683257017210025
  0
ARC
  5
2CD5
  8
0
 10
5.2803017716092908
 20
3.6880628732926368
 30
0.0
 40
0.0538519689245516
 50
80.1463892581750201
 51
170.712053303857914
  0
ARC
  5
2CD6
  8
0
 10
5.2811450026121181
 20
3.6973436930123351
 30
0.0
 40
0.0539924002082997
 50
180.625384000232998
 51
272.5865768972784053
  0
ARC
  5
2CD7
  8
0
 10
5.2850228246919828
 20
3.694975869597215
 30
0.0
 40
0.0515897022303617
 50
268.3991859599021836
 51
351.1011813339316063
  0
LINE
  5
2CD8
  8
0
 10
5.336019509922969
 20
3.6878357890134179
 30
0.0
 11
5.3374254193753439
 21
3.7435563224766102
 31
0.0
  0
LINE
  5
2CD9
  8
0
 10
5.2271558186300799
 20
3.6967543771319762
 30
0.0
 11
5.2263491717835233
 21
3.744742844881308
 31
0.0
  0
ARC
  5
2CDA
  8
0
 10
5.300008763905371
 20
3.7167429039297382
 30
0.0
 40
0.0466869474058104
 50
320.4190053591473202
 51
21.7866159502784598
  0
ARC
  5
2CDB
  8
0
 10
5.2791230700943554
 20
3.700473769566607
 30
0.0
 40
0.0724932431122075
 50
27.6099949166202592
 51
87.3866154799897146
  0
ARC
  5
2CDC
  8
0
 10
5.2809790170404831
 20
3.7058429990053412
 30
0.0
 40
0.0670642826098466
 50
88.7615527761416558
 51
146.6135764997532931
  0
ARC
  5
2CDD
  8
0
 10
5.260199877819896
 20
3.7213641789075278
 30
0.0
 40
0.0412013615210623
 50
148.7353856788836879
 51
216.6771644135939994
  0
ARC
  5
2CDE
  8
0
 10
4.8430710633728342
 20
4.3644370014385769
 30
0.0
 40
0.0192984899190496
 50
350.244316581495184
 51
80.6881126495747338
  0
ARC
  5
2CDF
  8
0
 10
4.8405696149512147
 20
4.35999138998175
 30
0.0
 40
0.0241536911818787
 50
76.5352679085343084
 51
157.5769223489299122
  0
ARC
  5
2CE0
  8
0
 10
4.8366954719374187
 20
4.3631384511245273
 30
0.0
 40
0.0194248467807419
 50
161.8026983469937079
 51
258.8376673948193911
  0
ARC
  5
2CE1
  8
0
 10
4.8398987995005607
 20
4.365616520692714
 30
0.0
 40
0.0226333759500226
 50
252.0807007350925915
 51
348.6621193319858776
  0
ARC
  5
2CE2
  8
0
 10
4.8407123971347916
 20
4.3646419865516366
 30
0.0
 40
0.0522847693122655
 50
357.6332625071993903
 51
83.6683257017210025
  0
ARC
  5
2CE3
  8
0
 10
4.8372627931615764
 20
4.3635502703894398
 30
0.0
 40
0.0538519689245516
 50
80.1463892581750201
 51
170.712053303857914
  0
ARC
  5
2CE4
  8
0
 10
4.8381060241644027
 20
4.3728310901091367
 30
0.0
 40
0.0539924002082997
 50
180.625384000232998
 51
272.5865768972784053
  0
ARC
  5
2CE5
  8
0
 10
4.8419838462442684
 20
4.3704632666940171
 30
0.0
 40
0.0515897022303617
 50
268.3991859599021836
 51
351.1011813339316063
  0
LINE
  5
2CE6
  8
0
 10
4.8929805314752537
 20
4.3633231861102209
 30
0.0
 11
4.8943864409276294
 21
4.4190437195734118
 31
0.0
  0
LINE
  5
2CE7
  8
0
 10
4.7841168401823646
 20
4.3722417742287787
 30
0.0
 11
4.7833101933358071
 21
4.4202302419781097
 31
0.0
  0
ARC
  5
2CE8
  8
0
 10
4.8569697854576548
 20
4.3922303010265402
 30
0.0
 40
0.0466869474058104
 50
320.4190053591473202
 51
21.7866159502784598
  0
ARC
  5
2CE9
  8
0
 10
4.8360840916466401
 20
4.3759611666634104
 30
0.0
 40
0.0724932431122075
 50
27.6099949166202592
 51
87.3866154799897146
  0
ARC
  5
2CEA
  8
0
 10
4.8379400385927669
 20
4.3813303961021433
 30
0.0
 40
0.0670642826098466
 50
88.7615527761416558
 51
146.6135764997532931
  0
ARC
  5
2CEB
  8
0
 10
4.8171608993721806
 20
4.3968515760043303
 30
0.0
 40
0.0412013615210623
 50
148.7353856788836879
 51
216.6771644135939994
  0
ARC
  5
2CEC
  8
0
 10
4.3985105716826327
 20
4.6026464659866937
 30
0.0
 40
0.0192984899190496
 50
350.244316581495184
 51
80.6881126495747338
  0
ARC
  5
2CED
  8
0
 10
4.396009123261015
 20
4.5982008545298667
 30
0.0
 40
0.0241536911818787
 50
76.5352679085343084
 51
157.5769223489299122
  0
ARC
  5
2CEE
  8
0
 10
4.392134980247218
 20
4.6013479156726467
 30
0.0
 40
0.0194248467807419
 50
161.8026983469937079
 51
258.8376673948193911
  0
ARC
  5
2CEF
  8
0
 10
4.3953383078103601
 20
4.6038259852408308
 30
0.0
 40
0.0226333759500226
 50
252.0807007350925915
 51
348.6621193319858776
  0
ARC
  5
2CF0
  8
0
 10
4.396151905444591
 20
4.602851451099756
 30
0.0
 40
0.0522847693122655
 50
357.6332625071993903
 51
83.6683257017210025
  0
ARC
  5
2CF1
  8
0
 10
4.3927023014713749
 20
4.6017597349375592
 30
0.0
 40
0.0538519689245516
 50
80.1463892581750201
 51
170.712053303857914
  0
ARC
  5
2CF2
  8
0
 10
4.3935455324742021
 20
4.611040554657257
 30
0.0
 40
0.0539924002082997
 50
180.625384000232998
 51
272.5865768972784053
  0
ARC
  5
2CF3
  8
0
 10
4.3974233545540669
 20
4.6086727312421374
 30
0.0
 40
0.0515897022303617
 50
268.3991859599021836
 51
351.1011813339316063
  0
LINE
  5
2CF4
  8
0
 10
4.4484200397850531
 20
4.6015326506583403
 30
0.0
 11
4.4498259492374279
 21
4.6572531841215321
 31
0.0
  0
LINE
  5
2CF5
  8
0
 10
4.339556348492164
 20
4.6104512387768981
 30
0.0
 11
4.3387497016456074
 21
4.65843970652623
 31
0.0
  0
ARC
  5
2CF6
  8
0
 10
4.4124092937674551
 20
4.6304397655746596
 30
0.0
 40
0.0466869474058104
 50
320.4190053591473202
 51
21.7866159502784598
  0
ARC
  5
2CF7
  8
0
 10
4.3915235999564386
 20
4.614170631211528
 30
0.0
 40
0.0724932431122075
 50
27.6099949166202592
 51
87.3866154799897146
  0
ARC
  5
2CF8
  8
0
 10
4.3933795469025672
 20
4.6195398606502627
 30
0.0
 40
0.0670642826098466
 50
88.7615527761416558
 51
146.6135764997532931
  0
ARC
  5
2CF9
  8
0
 10
4.37260040768198
 20
4.6350610405524497
 30
0.0
 40
0.0412013615210623
 50
148.7353856788836879
 51
216.6771644135939994
  0
ARC
  5
2CFA
  8
0
 10
5.2864386187717161
 20
4.1364977370287193
 30
0.0
 40
0.0192984899190496
 50
350.244316581495184
 51
80.6881126495747338
  0
ARC
  5
2CFB
  8
0
 10
5.2839371703500984
 20
4.1320521255718923
 30
0.0
 40
0.0241536911818787
 50
76.5352679085343084
 51
157.5769223489299122
  0
ARC
  5
2CFC
  8
0
 10
5.2800630273363023
 20
4.1351991867146722
 30
0.0
 40
0.0194248467807419
 50
161.8026983469937079
 51
258.8376673948193911
  0
ARC
  5
2CFD
  8
0
 10
5.2832663548994443
 20
4.1376772562828563
 30
0.0
 40
0.0226333759500226
 50
252.0807007350925915
 51
348.6621193319858776
  0
ARC
  5
2CFE
  8
0
 10
5.2840799525336752
 20
4.1367027221417798
 30
0.0
 40
0.0522847693122655
 50
357.6332625071993903
 51
83.6683257017210025
  0
ARC
  5
2CFF
  8
0
 10
5.2806303485604591
 20
4.135611005979583
 30
0.0
 40
0.0538519689245516
 50
80.1463892581750201
 51
170.712053303857914
  0
ARC
  5
2D00
  8
0
 10
5.2814735795632863
 20
4.1448918256992817
 30
0.0
 40
0.0539924002082997
 50
180.625384000232998
 51
272.5865768972784053
  0
ARC
  5
2D01
  8
0
 10
5.2853514016431511
 20
4.1425240022841621
 30
0.0
 40
0.0515897022303617
 50
268.3991859599021836
 51
351.1011813339316063
  0
LINE
  5
2D02
  8
0
 10
5.3363480868741373
 20
4.1353839217003641
 30
0.0
 11
5.3377539963265122
 21
4.1911044551635568
 31
0.0
  0
LINE
  5
2D03
  8
0
 10
5.2274843955812482
 20
4.1443025098189219
 30
0.0
 11
5.2266777487346898
 21
4.1922909775682546
 31
0.0
  0
ARC
  5
2D04
  8
0
 10
5.3003373408565384
 20
4.1642910366166852
 30
0.0
 40
0.0466869474058104
 50
320.4190053591473202
 51
21.7866159502784598
  0
ARC
  5
2D05
  8
0
 10
5.2794516470455219
 20
4.1480219022535527
 30
0.0
 40
0.0724932431122075
 50
27.6099949166202592
 51
87.3866154799897146
  0
ARC
  5
2D06
  8
0
 10
5.2813075939916496
 20
4.1533911316922882
 30
0.0
 40
0.0670642826098466
 50
88.7615527761416558
 51
146.6135764997532931
  0
ARC
  5
2D07
  8
0
 10
5.2605284547710642
 20
4.1689123115944753
 30
0.0
 40
0.0412013615210623
 50
148.7353856788836879
 51
216.6771644135939994
  0
ARC
  5
2D08
  8
0
 10
4.8421478151497794
 20
4.82139510105588
 30
0.0
 40
0.0192984899190496
 50
350.244316581495184
 51
80.6881126495747338
  0
ARC
  5
2D09
  8
0
 10
4.83964636672816
 20
4.816949489599053
 30
0.0
 40
0.0241536911818787
 50
76.5352679085343084
 51
157.5769223489299122
  0
ARC
  5
2D0A
  8
0
 10
4.8357722237143639
 20
4.820096550741833
 30
0.0
 40
0.0194248467807419
 50
161.8026983469937079
 51
258.8376673948193911
  0
ARC
  5
2D0B
  8
0
 10
4.8389755512775059
 20
4.822574620310017
 30
0.0
 40
0.0226333759500226
 50
252.0807007350925915
 51
348.6621193319858776
  0
ARC
  5
2D0C
  8
0
 10
4.8397891489117368
 20
4.8216000861689423
 30
0.0
 40
0.0522847693122655
 50
357.6332625071993903
 51
83.6683257017210025
  0
ARC
  5
2D0D
  8
0
 10
4.8363395449385207
 20
4.8205083700067446
 30
0.0
 40
0.0538519689245516
 50
80.1463892581750201
 51
170.712053303857914
  0
ARC
  5
2D0E
  8
0
 10
4.8371827759413479
 20
4.8297891897264442
 30
0.0
 40
0.0539924002082997
 50
180.625384000232998
 51
272.5865768972784053
  0
ARC
  5
2D0F
  8
0
 10
4.8410605980212127
 20
4.8274213663113228
 30
0.0
 40
0.0515897022303617
 50
268.3991859599021836
 51
351.1011813339316063
  0
LINE
  5
2D10
  8
0
 10
4.8920572832521989
 20
4.8202812857275257
 30
0.0
 11
4.8934631927045737
 21
4.8760018191907193
 31
0.0
  0
LINE
  5
2D11
  8
0
 10
4.7831935919593098
 20
4.8291998738460844
 30
0.0
 11
4.7823869451127532
 21
4.8771883415954171
 31
0.0
  0
ARC
  5
2D12
  8
0
 10
4.8560465372346
 20
4.8491884006438459
 30
0.0
 40
0.0466869474058104
 50
320.4190053591473202
 51
21.7866159502784598
  0
ARC
  5
2D13
  8
0
 10
4.8351608434235853
 20
4.8329192662807152
 30
0.0
 40
0.0724932431122075
 50
27.6099949166202592
 51
87.3866154799897146
  0
ARC
  5
2D14
  8
0
 10
4.8370167903697121
 20
4.838288495719449
 30
0.0
 40
0.0670642826098466
 50
88.7615527761416558
 51
146.6135764997532931
  0
ARC
  5
2D15
  8
0
 10
4.8162376511491258
 20
4.853809675621636
 30
0.0
 40
0.0412013615210623
 50
148.7353856788836879
 51
216.6771644135939994
  0
ARC
  5
2D16
  8
0
 10
4.3975873234595779
 20
5.0596045656040012
 30
0.0
 40
0.0192984899190496
 50
350.244316581495184
 51
80.6881126495747338
  0
ARC
  5
2D17
  8
0
 10
4.3950858750379602
 20
5.0551589541471742
 30
0.0
 40
0.0241536911818787
 50
76.5352679085343084
 51
157.5769223489299122
  0
ARC
  5
2D18
  8
0
 10
4.3912117320241641
 20
5.0583060152899497
 30
0.0
 40
0.0194248467807419
 50
161.8026983469937079
 51
258.8376673948193911
  0
ARC
  5
2D19
  8
0
 10
4.3944150595873062
 20
5.0607840848581382
 30
0.0
 40
0.0226333759500226
 50
252.0807007350925915
 51
348.6621193319858776
  0
ARC
  5
2D1A
  8
0
 10
4.3952286572215371
 20
5.05980955071706
 30
0.0
 40
0.0522847693122655
 50
357.6332625071993903
 51
83.6683257017210025
  0
ARC
  5
2D1B
  8
0
 10
4.3917790532483201
 20
5.058717834554864
 30
0.0
 40
0.0538519689245516
 50
80.1463892581750201
 51
170.712053303857914
  0
ARC
  5
2D1C
  8
0
 10
4.3926222842511482
 20
5.0679986542745601
 30
0.0
 40
0.0539924002082997
 50
180.625384000232998
 51
272.5865768972784053
  0
ARC
  5
2D1D
  8
0
 10
4.3965001063310121
 20
5.0656308308594404
 30
0.0
 40
0.0515897022303617
 50
268.3991859599021836
 51
351.1011813339316063
  0
LINE
  5
2D1E
  8
0
 10
4.4474967915619992
 20
5.0584907502756451
 30
0.0
 11
4.448902701014374
 21
5.114211283738836
 31
0.0
  0
LINE
  5
2D1F
  8
0
 10
4.3386331002691101
 20
5.067409338394202
 30
0.0
 11
4.3378264534225517
 21
5.115397806143533
 31
0.0
  0
ARC
  5
2D20
  8
0
 10
4.4114860455444003
 20
5.0873978651919627
 30
0.0
 40
0.0466869474058104
 50
320.4190053591473202
 51
21.7866159502784598
  0
ARC
  5
2D21
  8
0
 10
4.3906003517333838
 20
5.0711287308288329
 30
0.0
 40
0.0724932431122075
 50
27.6099949166202592
 51
87.3866154799897146
  0
ARC
  5
2D22
  8
0
 10
4.3924562986795124
 20
5.0764979602675657
 30
0.0
 40
0.0670642826098466
 50
88.7615527761416558
 51
146.6135764997532931
  0
ARC
  5
2D23
  8
0
 10
4.3716771594589261
 20
5.0920191401697528
 30
0.0
 40
0.0412013615210623
 50
148.7353856788836879
 51
216.6771644135939994
  0
ARC
  5
2D24
  8
0
 10
4.8421478151497794
 20
5.2882870079380844
 30
0.0
 40
0.0192984899190496
 50
350.244316581495184
 51
80.6881126495747338
  0
ARC
  5
2D25
  8
0
 10
4.83964636672816
 20
5.2838413964812574
 30
0.0
 40
0.0241536911818787
 50
76.5352679085343084
 51
157.5769223489299122
  0
ARC
  5
2D26
  8
0
 10
4.8357722237143639
 20
5.2869884576240374
 30
0.0
 40
0.0194248467807419
 50
161.8026983469937079
 51
258.8376673948193911
  0
ARC
  5
2D27
  8
0
 10
4.8389755512775059
 20
5.2894665271922214
 30
0.0
 40
0.0226333759500226
 50
252.0807007350925915
 51
348.6621193319858776
  0
ARC
  5
2D28
  8
0
 10
4.8397891489117368
 20
5.2884919930511449
 30
0.0
 40
0.0522847693122655
 50
357.6332625071993903
 51
83.6683257017210025
  0
ARC
  5
2D29
  8
0
 10
4.8363395449385207
 20
5.2874002768889481
 30
0.0
 40
0.0538519689245516
 50
80.1463892581750201
 51
170.712053303857914
  0
ARC
  5
2D2A
  8
0
 10
4.8371827759413479
 20
5.2966810966086468
 30
0.0
 40
0.0539924002082997
 50
180.625384000232998
 51
272.5865768972784053
  0
ARC
  5
2D2B
  8
0
 10
4.8410605980212127
 20
5.2943132731935272
 30
0.0
 40
0.0515897022303617
 50
268.3991859599021836
 51
351.1011813339316063
  0
LINE
  5
2D2C
  8
0
 10
4.8920572832521989
 20
5.2871731926097301
 30
0.0
 11
4.8934631927045737
 21
5.3428937260729219
 31
0.0
  0
LINE
  5
2D2D
  8
0
 10
4.7831935919593098
 20
5.296091780728287
 30
0.0
 11
4.7823869451127532
 21
5.3440802484776198
 31
0.0
  0
ARC
  5
2D2E
  8
0
 10
4.8560465372346
 20
5.3160803075260503
 30
0.0
 40
0.0466869474058104
 50
320.4190053591473202
 51
21.7866159502784598
  0
ARC
  5
2D2F
  8
0
 10
4.8351608434235853
 20
5.2998111731629178
 30
0.0
 40
0.0724932431122075
 50
27.6099949166202592
 51
87.3866154799897146
  0
ARC
  5
2D30
  8
0
 10
4.8370167903697121
 20
5.3051804026016534
 30
0.0
 40
0.0670642826098466
 50
88.7615527761416558
 51
146.6135764997532931
  0
ARC
  5
2D31
  8
0
 10
4.8162376511491258
 20
5.3207015825038404
 30
0.0
 40
0.0412013615210623
 50
148.7353856788836879
 51
216.6771644135939994
  0
ARC
  5
2D32
  8
0
 10
4.3975873234595779
 20
5.5264964724862038
 30
0.0
 40
0.0192984899190496
 50
350.244316581495184
 51
80.6881126495747338
  0
ARC
  5
2D33
  8
0
 10
4.3950858750379602
 20
5.5220508610293768
 30
0.0
 40
0.0241536911818787
 50
76.5352679085343084
 51
157.5769223489299122
  0
ARC
  5
2D34
  8
0
 10
4.3912117320241641
 20
5.5251979221721541
 30
0.0
 40
0.0194248467807419
 50
161.8026983469937079
 51
258.8376673948193911
  0
ARC
  5
2D35
  8
0
 10
4.3944150595873062
 20
5.5276759917403409
 30
0.0
 40
0.0226333759500226
 50
252.0807007350925915
 51
348.6621193319858776
  0
ARC
  5
2D36
  8
0
 10
4.3952286572215371
 20
5.5267014575992643
 30
0.0
 40
0.0522847693122655
 50
357.6332625071993903
 51
83.6683257017210025
  0
ARC
  5
2D37
  8
0
 10
4.3917790532483201
 20
5.5256097414370666
 30
0.0
 40
0.0538519689245516
 50
80.1463892581750201
 51
170.712053303857914
  0
ARC
  5
2D38
  8
0
 10
4.3926222842511482
 20
5.5348905611567636
 30
0.0
 40
0.0539924002082997
 50
180.625384000232998
 51
272.5865768972784053
  0
ARC
  5
2D39
  8
0
 10
4.3965001063310121
 20
5.532522737741643
 30
0.0
 40
0.0515897022303617
 50
268.3991859599021836
 51
351.1011813339316063
  0
LINE
  5
2D3A
  8
0
 10
4.4474967915619992
 20
5.5253826571578477
 30
0.0
 11
4.448902701014374
 21
5.5811031906210387
 31
0.0
  0
LINE
  5
2D3B
  8
0
 10
4.3386331002691101
 20
5.5343012452764064
 30
0.0
 11
4.3378264534225517
 21
5.5822897130257374
 31
0.0
  0
ARC
  5
2D3C
  8
0
 10
4.4114860455444003
 20
5.5542897720741671
 30
0.0
 40
0.0466869474058104
 50
320.4190053591473202
 51
21.7866159502784598
  0
ARC
  5
2D3D
  8
0
 10
4.3906003517333838
 20
5.5380206377110373
 30
0.0
 40
0.0724932431122075
 50
27.6099949166202592
 51
87.3866154799897146
  0
ARC
  5
2D3E
  8
0
 10
4.3924562986795124
 20
5.5433898671497701
 30
0.0
 40
0.0670642826098466
 50
88.7615527761416558
 51
146.6135764997532931
  0
ARC
  5
2D3F
  8
0
 10
4.3716771594589261
 20
5.5589110470519572
 30
0.0
 40
0.0412013615210623
 50
148.7353856788836879
 51
216.6771644135939994
  0
ARC
  5
2D40
  8
0
 10
4.8421478151497794
 20
5.7461413540472028
 30
0.0
 40
0.0192984899190496
 50
350.244316581495184
 51
80.6881126495747338
  0
ARC
  5
2D41
  8
0
 10
4.83964636672816
 20
5.7416957425903759
 30
0.0
 40
0.0241536911818787
 50
76.5352679085343084
 51
157.5769223489299122
  0
ARC
  5
2D42
  8
0
 10
4.8357722237143639
 20
5.7448428037331531
 30
0.0
 40
0.0194248467807419
 50
161.8026983469937079
 51
258.8376673948193911
  0
ARC
  5
2D43
  8
0
 10
4.8389755512775059
 20
5.7473208733013399
 30
0.0
 40
0.0226333759500226
 50
252.0807007350925915
 51
348.6621193319858776
  0
ARC
  5
2D44
  8
0
 10
4.8397891489117368
 20
5.7463463391602634
 30
0.0
 40
0.0522847693122655
 50
357.6332625071993903
 51
83.6683257017210025
  0
ARC
  5
2D45
  8
0
 10
4.8363395449385207
 20
5.7452546229980657
 30
0.0
 40
0.0538519689245516
 50
80.1463892581750201
 51
170.712053303857914
  0
ARC
  5
2D46
  8
0
 10
4.8371827759413479
 20
5.7545354427177626
 30
0.0
 40
0.0539924002082997
 50
180.625384000232998
 51
272.5865768972784053
  0
ARC
  5
2D47
  8
0
 10
4.8410605980212127
 20
5.7521676193026421
 30
0.0
 40
0.0515897022303617
 50
268.3991859599021836
 51
351.1011813339316063
  0
LINE
  5
2D48
  8
0
 10
4.8920572832521989
 20
5.7450275387188467
 30
0.0
 11
4.8934631927045737
 21
5.8007480721820377
 31
0.0
  0
LINE
  5
2D49
  8
0
 10
4.7831935919593098
 20
5.7539461268374046
 30
0.0
 11
4.7823869451127532
 21
5.8019345945867364
 31
0.0
  0
ARC
  5
2D4A
  8
0
 10
4.8560465372346
 20
5.7739346536351661
 30
0.0
 40
0.0466869474058104
 50
320.4190053591473202
 51
21.7866159502784598
  0
ARC
  5
2D4B
  8
0
 10
4.8351608434235853
 20
5.7576655192720363
 30
0.0
 40
0.0724932431122075
 50
27.6099949166202592
 51
87.3866154799897146
  0
ARC
  5
2D4C
  8
0
 10
4.8370167903697121
 20
5.7630347487107692
 30
0.0
 40
0.0670642826098466
 50
88.7615527761416558
 51
146.6135764997532931
  0
ARC
  5
2D4D
  8
0
 10
4.8162376511491258
 20
5.7785559286129562
 30
0.0
 40
0.0412013615210623
 50
148.7353856788836879
 51
216.6771644135939994
  0
ARC
  5
2D4E
  8
0
 10
5.2855153705486622
 20
5.5182020896373452
 30
0.0
 40
0.0192984899190496
 50
350.244316581495184
 51
80.6881126495747338
  0
ARC
  5
2D4F
  8
0
 10
5.2830139221270427
 20
5.5137564781805182
 30
0.0
 40
0.0241536911818787
 50
76.5352679085343084
 51
157.5769223489299122
  0
ARC
  5
2D50
  8
0
 10
5.2791397791132466
 20
5.5169035393232981
 30
0.0
 40
0.0194248467807419
 50
161.8026983469937079
 51
258.8376673948193911
  0
ARC
  5
2D51
  8
0
 10
5.2823431066763886
 20
5.5193816088914822
 30
0.0
 40
0.0226333759500226
 50
252.0807007350925915
 51
348.6621193319858776
  0
ARC
  5
2D52
  8
0
 10
5.2831567043106196
 20
5.5184070747504057
 30
0.0
 40
0.0522847693122655
 50
357.6332625071993903
 51
83.6683257017210025
  0
ARC
  5
2D53
  8
0
 10
5.2797071003374043
 20
5.5173153585882089
 30
0.0
 40
0.0538519689245516
 50
80.1463892581750201
 51
170.712053303857914
  0
ARC
  5
2D54
  8
0
 10
5.2805503313402307
 20
5.5265961783079076
 30
0.0
 40
0.0539924002082997
 50
180.625384000232998
 51
272.5865768972784053
  0
ARC
  5
2D55
  8
0
 10
5.2844281534200963
 20
5.5242283548927871
 30
0.0
 40
0.0515897022303617
 50
268.3991859599021836
 51
351.1011813339316063
  0
LINE
  5
2D56
  8
0
 10
5.3354248386510816
 20
5.51708827430899
 30
0.0
 11
5.3368307481034574
 21
5.5728088077721827
 31
0.0
  0
LINE
  5
2D57
  8
0
 10
5.2265611473581934
 20
5.5260068624275478
 30
0.0
 11
5.225754500511635
 21
5.5739953301768814
 31
0.0
  0
ARC
  5
2D58
  8
0
 10
5.2994140926334827
 20
5.5459953892253111
 30
0.0
 40
0.0466869474058104
 50
320.4190053591473202
 51
21.7866159502784598
  0
ARC
  5
2D59
  8
0
 10
5.278528398822468
 20
5.5297262548621786
 30
0.0
 40
0.0724932431122075
 50
27.6099949166202592
 51
87.3866154799897146
  0
ARC
  5
2D5A
  8
0
 10
5.2803843457685948
 20
5.5350954843009141
 30
0.0
 40
0.0670642826098466
 50
88.7615527761416558
 51
146.6135764997532931
  0
ARC
  5
2D5B
  8
0
 10
5.2596052065480086
 20
5.5506166642031012
 30
0.0
 40
0.0412013615210623
 50
148.7353856788836879
 51
216.6771644135939994
  0
ARC
  5
2D5C
  8
0
 10
5.2861458112489368
 20
5.9729026064381401
 30
0.0
 40
0.0192984899190496
 50
350.2443165814952977
 51
80.6881126495747338
  0
ARC
  5
2D5D
  8
0
 10
5.2836443628273191
 20
5.9684569949813131
 30
0.0
 40
0.0241536911818787
 50
76.5352679085343084
 51
157.5769223489299122
  0
ARC
  5
2D5E
  8
0
 10
5.279770219813523
 20
5.9716040561240886
 30
0.0
 40
0.0194248467807419
 50
161.8026983469937079
 51
258.8376673948193911
  0
ARC
  5
2D5F
  8
0
 10
5.282973547376665
 20
5.9740821256922771
 30
0.0
 40
0.0226333759500226
 50
252.0807007350925915
 51
348.6621193319858776
  0
ARC
  5
2D60
  8
0
 10
5.2837871450108951
 20
5.9731075915511989
 30
0.0
 40
0.0522847693122655
 50
357.6332625071993903
 51
83.6683257017210025
  0
ARC
  5
2D61
  8
0
 10
5.2803375410376789
 20
5.972015875389002
 30
0.0
 40
0.0538519689245516
 50
80.1463892581750201
 51
170.712053303857914
  0
ARC
  5
2D62
  8
0
 10
5.2811807720405071
 20
5.981296695108699
 30
0.0
 40
0.0539924002082997
 50
180.625384000232998
 51
272.5865768972784053
  0
ARC
  5
2D63
  8
0
 10
5.2850585941203709
 20
5.9789288716935793
 30
0.0
 40
0.0515897022303617
 50
268.3991859599021836
 51
351.1011813339316063
  0
LINE
  5
2D64
  8
0
 10
5.336055279351358
 20
5.971788791109784
 30
0.0
 11
5.337461188803732
 21
6.0275093245729741
 31
0.0
  0
LINE
  5
2D65
  8
0
 10
5.2271915880584681
 20
5.9807073792283409
 30
0.0
 11
5.2263849412119114
 21
6.0286958469776719
 31
0.0
  0
ARC
  5
2D66
  8
0
 10
5.3000445333337591
 20
6.0006959060261016
 30
0.0
 40
0.0466869474058104
 50
320.4190053591473202
 51
21.7866159502784598
  0
ARC
  5
2D67
  8
0
 10
5.2791588395227427
 20
5.9844267716629718
 30
0.0
 40
0.0724932431122075
 50
27.6099949166202592
 51
87.3866154799897146
  0
ARC
  5
2D68
  8
0
 10
5.2810147864688712
 20
5.9897960011017046
 30
0.0
 40
0.0670642826098466
 50
88.7615527761416558
 51
146.6135764997532931
  0
ARC
  5
2D69
  8
0
 10
5.2602356472482841
 20
6.0053171810038917
 30
0.0
 40
0.0412013615210623
 50
148.7353856788836879
 51
216.6771644135939994
  0
ARC
  5
2D6A
  8
0
 10
5.2855739111151498
 20
3.2594047479195019
 30
0.0
 40
0.0201111964834572
 50
358.1936767116692977
 51
95.6852527123072747
  0
ARC
  5
2D6B
  8
0
 10
5.28288942638211
 20
3.2571684312368081
 30
0.0
 40
0.0222593534004068
 50
88.2179923327667268
 51
170.473194262079204
  0
ARC
  5
2D6C
  8
0
 10
5.283695231634316
 20
3.26298746539798
 30
0.0
 40
0.022858080891165
 50
185.359150587955213
 51
269.7152287973393072
  0
ARC
  5
2D6D
  8
0
 10
5.2847699937295953
 20
3.2611343871348311
 30
0.0
 40
0.0210383102902863
 50
266.7618650140830141
 51
353.5494422035279172
  0
ARC
  5
2D6E
  8
0
 10
5.2815202082471391
 20
3.250282059704336
 30
0.0
 40
0.0781015297921497
 50
9.342246341005346
 51
88.4875573863867686
  0
ARC
  5
2D6F
  8
0
 10
5.282645157089326
 20
3.2540710886602362
 30
0.0
 40
0.0742911940381561
 50
89.2777479896248281
 51
173.8925737958244895
  0
ARC
  5
2D70
  8
0
 10
5.2802923311086696
 20
3.2726678699988949
 30
0.0
 40
0.0723116391904934
 50
188.5035101262984085
 51
272.6071542130858916
  0
ARC
  5
2D71
  8
0
 10
5.2888061591234781
 20
3.27041282353012
 30
0.0
 40
0.0701764925088872
 50
265.7304636468622903
 51
353.9039482170592805
  0
LINE
  5
2D72
  8
0
 10
5.3585858221193892
 20
3.262960392180152
 30
0.0
 11
5.3567665288228863
 21
3.323125257377181
 31
0.0
  0
LINE
  5
2D73
  8
0
 10
5.2087756277803878
 20
3.261975147826123
 30
0.0
 11
5.2077556200803938
 21
3.322088043825802
 31
0.0
  0
ARC
  5
2D74
  8
0
 10
5.3145932195989269
 20
3.2917400622351929
 30
0.0
 40
0.0525701292085178
 50
326.8075533795978913
 51
36.6564641726191525
  0
ARC
  5
2D75
  8
0
 10
5.2791068406116111
 20
3.256400085788111
 30
0.0
 40
0.1023878688940399
 50
40.6691578682209212
 51
87.4951345724827547
  0
ARC
  5
2D76
  8
0
 10
5.2796687174352668
 20
3.2699534334209042
 30
0.0
 40
0.0888229203147584
 50
87.4751387416805386
 51
144.0591337738474067
  0
ARC
  5
2D77
  8
0
 10
5.2543875689361998
 20
3.2928142022576039
 30
0.0
 40
0.0550590270005809
 50
147.8808925358235058
 51
214.0633334873589888
  0
ARC
  5
2D78
  8
0
 10
4.8414532692494836
 20
3.482042808621058
 30
0.0
 40
0.0201111964834572
 50
358.1936767116694114
 51
95.6852527123072747
  0
ARC
  5
2D79
  8
0
 10
4.8387687845164438
 20
3.4798064919383651
 30
0.0
 40
0.0222593534004068
 50
88.2179923327667268
 51
170.473194262079204
  0
ARC
  5
2D7A
  8
0
 10
4.8395745897686497
 20
3.485625526099537
 30
0.0
 40
0.022858080891165
 50
185.359150587955213
 51
269.7152287973393072
  0
ARC
  5
2D7B
  8
0
 10
4.8406493518639291
 20
3.4837724478363872
 30
0.0
 40
0.0210383102902863
 50
266.7618650140830141
 51
353.5494422035279172
  0
ARC
  5
2D7C
  8
0
 10
4.8373995663814719
 20
3.472920120405893
 30
0.0
 40
0.0781015297921497
 50
9.342246341005346
 51
88.4875573863867686
  0
ARC
  5
2D7D
  8
0
 10
4.8385245152236598
 20
3.4767091493617919
 30
0.0
 40
0.0742911940381561
 50
89.2777479896248281
 51
173.8925737958244895
  0
ARC
  5
2D7E
  8
0
 10
4.8361716892430042
 20
3.495305930700451
 30
0.0
 40
0.0723116391904934
 50
188.5035101262984085
 51
272.6071542130858916
  0
ARC
  5
2D7F
  8
0
 10
4.8446855172578109
 20
3.493050884231677
 30
0.0
 40
0.0701764925088872
 50
265.7304636468622903
 51
353.9039482170592805
  0
LINE
  5
2D80
  8
0
 10
4.914465180253722
 20
3.485598452881709
 30
0.0
 11
4.91264588695722
 21
3.5457633180787371
 31
0.0
  0
LINE
  5
2D81
  8
0
 10
4.7646549859147216
 20
3.4846132085276791
 30
0.0
 11
4.7636349782147276
 21
3.544726104527359
 31
0.0
  0
ARC
  5
2D82
  8
0
 10
4.8704725777332607
 20
3.5143781229367499
 30
0.0
 40
0.0525701292085178
 50
326.8075533795978913
 51
36.6564641726191525
  0
ARC
  5
2D83
  8
0
 10
4.8349861987459439
 20
3.4790381464896671
 30
0.0
 40
0.1023878688940399
 50
40.6691578682209212
 51
87.4951345724827547
  0
ARC
  5
2D84
  8
0
 10
4.8355480755696014
 20
3.4925914941224612
 30
0.0
 40
0.0888229203147584
 50
87.4751387416805386
 51
144.0591337738474067
  0
ARC
  5
2D85
  8
0
 10
4.8102669270705336
 20
3.51545226295916
 30
0.0
 40
0.0550590270005809
 50
147.8808925358235058
 51
214.0633334873589888
  0
ARC
  5
2D86
  8
0
 10
4.3969038356220631
 20
3.7156949113769491
 30
0.0
 40
0.0201111964834572
 50
358.1936767116694114
 51
95.6852527123072747
  0
ARC
  5
2D87
  8
0
 10
4.3942193508890242
 20
3.7134585946942549
 30
0.0
 40
0.0222593534004068
 50
88.2179923327667268
 51
170.473194262079204
  0
ARC
  5
2D88
  8
0
 10
4.3950251561412301
 20
3.7192776288554268
 30
0.0
 40
0.022858080891165
 50
185.359150587955213
 51
269.7152287973393072
  0
ARC
  5
2D89
  8
0
 10
4.3960999182365077
 20
3.7174245505922769
 30
0.0
 40
0.0210383102902863
 50
266.7618650140830141
 51
353.5494422035279172
  0
ARC
  5
2D8A
  8
0
 10
4.3928501327540523
 20
3.7065722231617828
 30
0.0
 40
0.0781015297921497
 50
9.342246341005346
 51
88.4875573863867686
  0
ARC
  5
2D8B
  8
0
 10
4.3939750815962402
 20
3.7103612521176821
 30
0.0
 40
0.0742911940381561
 50
89.2777479896248281
 51
173.8925737958244895
  0
ARC
  5
2D8C
  8
0
 10
4.3916222556155828
 20
3.7289580334563421
 30
0.0
 40
0.0723116391904934
 50
188.5035101262984085
 51
272.6071542130858916
  0
ARC
  5
2D8D
  8
0
 10
4.4001360836303913
 20
3.7267029869875672
 30
0.0
 40
0.0701764925088872
 50
265.7304636468622903
 51
353.9039482170592805
  0
LINE
  5
2D8E
  8
0
 10
4.4699157466263024
 20
3.7192505556375992
 30
0.0
 11
4.4680964533297987
 21
3.7794154208346269
 31
0.0
  0
LINE
  5
2D8F
  8
0
 10
4.3201055522873011
 20
3.7182653112835702
 30
0.0
 11
4.3190855445873071
 21
3.7783782072832488
 31
0.0
  0
ARC
  5
2D90
  8
0
 10
4.4259231441058411
 20
3.7480302256926401
 30
0.0
 40
0.0525701292085178
 50
326.8075533795978913
 51
36.6564641726191525
  0
ARC
  5
2D91
  8
0
 10
4.3904367651185243
 20
3.7126902492455569
 30
0.0
 40
0.1023878688940399
 50
40.6691578682209212
 51
87.4951345724827547
  0
ARC
  5
2D92
  8
0
 10
4.39099864194218
 20
3.7262435968783509
 30
0.0
 40
0.0888229203147584
 50
87.4751387416805386
 51
144.0591337738474067
  0
ARC
  5
2D93
  8
0
 10
4.3657174934431131
 20
3.7491043657150511
 30
0.0
 40
0.0550590270005809
 50
147.8808925358235058
 51
214.0633334873589888
  0
ARC
  5
2D94
  8
0
 10
3.9495469066844828
 20
4.4004626005395506
 30
0.0
 40
0.0201111964834572
 50
358.1936767116694114
 51
95.6852527123072747
  0
ARC
  5
2D95
  8
0
 10
3.946862421951443
 20
4.3982262838568591
 30
0.0
 40
0.0222593534004068
 50
88.2179923327667268
 51
170.473194262079204
  0
ARC
  5
2D96
  8
0
 10
3.947668227203649
 20
4.4040453180180306
 30
0.0
 40
0.022858080891165
 50
185.359150587955213
 51
269.7152287973393072
  0
ARC
  5
2D97
  8
0
 10
3.9487429892989279
 20
4.4021922397548821
 30
0.0
 40
0.0210383102902863
 50
266.7618650140830141
 51
353.5494422035279172
  0
ARC
  5
2D98
  8
0
 10
3.9454932038164721
 20
4.391339912324387
 30
0.0
 40
0.0781015297921497
 50
9.342246341005346
 51
88.4875573863867686
  0
ARC
  5
2D99
  8
0
 10
3.946618152658659
 20
4.3951289412802872
 30
0.0
 40
0.0742911940381561
 50
89.2777479896248281
 51
173.8925737958244895
  0
ARC
  5
2D9A
  8
0
 10
3.944265326678003
 20
4.4137257226189446
 30
0.0
 40
0.0723116391904934
 50
188.5035101262984085
 51
272.6071542130858916
  0
ARC
  5
2D9B
  8
0
 10
3.952779154692811
 20
4.4114706761501701
 30
0.0
 40
0.0701764925088872
 50
265.7304636468622903
 51
353.9039482170592805
  0
LINE
  5
2D9C
  8
0
 10
4.0225588176887221
 20
4.4040182448002021
 30
0.0
 11
4.0207395243922193
 21
4.4641831099972311
 31
0.0
  0
LINE
  5
2D9D
  8
0
 10
3.8727486233497208
 20
4.4030330004461726
 30
0.0
 11
3.8717286156497268
 21
4.4631458964458508
 31
0.0
  0
ARC
  5
2D9E
  8
0
 10
3.9785662151682599
 20
4.4327979148552421
 30
0.0
 40
0.0525701292085178
 50
326.8075533795978913
 51
36.6564641726191525
  0
ARC
  5
2D9F
  8
0
 10
3.943079836180944
 20
4.3974579384081611
 30
0.0
 40
0.1023878688940399
 50
40.6691578682209212
 51
87.4951345724827547
  0
ARC
  5
2DA0
  8
0
 10
3.9436417130046002
 20
4.4110112860409538
 30
0.0
 40
0.0888229203147584
 50
87.4751387416805386
 51
144.0591337738474067
  0
ARC
  5
2DA1
  8
0
 10
3.9183605645055328
 20
4.4338720548776527
 30
0.0
 40
0.0550590270005809
 50
147.8808925358235058
 51
214.0633334873589888
  0
ARC
  5
2DA2
  8
0
 10
3.951668283715152
 20
4.8512576689695024
 30
0.0
 40
0.0201111964834572
 50
358.1936767116694114
 51
95.6852527123072747
  0
ARC
  5
2DA3
  8
0
 10
3.9489837989821122
 20
4.8490213522868091
 30
0.0
 40
0.0222593534004068
 50
88.2179923327667268
 51
170.473194262079204
  0
ARC
  5
2DA4
  8
0
 10
3.9497896042343181
 20
4.8548403864479823
 30
0.0
 40
0.022858080891165
 50
185.359150587955213
 51
269.7152287973393072
  0
ARC
  5
2DA5
  8
0
 10
3.950864366329597
 20
4.852987308184832
 30
0.0
 40
0.0210383102902863
 50
266.7618650140830141
 51
353.5494422035279172
  0
ARC
  5
2DA6
  8
0
 10
3.9476145808471399
 20
4.842134980754337
 30
0.0
 40
0.0781015297921497
 50
9.342246341005346
 51
88.4875573863867686
  0
ARC
  5
2DA7
  8
0
 10
3.9487395296893282
 20
4.8459240097102381
 30
0.0
 40
0.0742911940381561
 50
89.2777479896248281
 51
173.8925737958244895
  0
ARC
  5
2DA8
  8
0
 10
3.9463867037086722
 20
4.8645207910488963
 30
0.0
 40
0.0723116391904934
 50
188.5035101262984085
 51
272.6071542130858916
  0
ARC
  5
2DA9
  8
0
 10
3.9549005317234789
 20
4.8622657445801201
 30
0.0
 40
0.0701764925088872
 50
265.7304636468622903
 51
353.9039482170592805
  0
LINE
  5
2DAA
  8
0
 10
4.02468019471939
 20
4.8548133132301521
 30
0.0
 11
4.0228609014228871
 21
4.9149781784271811
 31
0.0
  0
LINE
  5
2DAB
  8
0
 10
3.87487000038039
 20
4.8538280688761244
 30
0.0
 11
3.873849992680396
 21
4.9139409648758017
 31
0.0
  0
ARC
  5
2DAC
  8
0
 10
3.9806875921989291
 20
4.883592983285193
 30
0.0
 40
0.0525701292085178
 50
326.8075533795978913
 51
36.6564641726191525
  0
ARC
  5
2DAD
  8
0
 10
3.9452012132116119
 20
4.848253006838112
 30
0.0
 40
0.1023878688940399
 50
40.6691578682209212
 51
87.4951345724827547
  0
ARC
  5
2DAE
  8
0
 10
3.9457630900352689
 20
4.8618063544709047
 30
0.0
 40
0.0888229203147584
 50
87.4751387416805386
 51
144.0591337738474067
  0
ARC
  5
2DAF
  8
0
 10
3.920481941536202
 20
4.8846671233076044
 30
0.0
 40
0.0550590270005809
 50
147.8808925358235058
 51
214.0633334873589888
  0
ARC
  5
2DB0
  8
0
 10
3.9584014849151501
 20
5.3127247618195019
 30
0.0
 40
0.0201111964834572
 50
358.1936767116694114
 51
95.6852527123072747
  0
ARC
  5
2DB1
  8
0
 10
3.9557170001821098
 20
5.3104884451368077
 30
0.0
 40
0.0222593534004068
 50
88.2179923327667268
 51
170.473194262079204
  0
ARC
  5
2DB2
  8
0
 10
3.9565228054343158
 20
5.3163074792979792
 30
0.0
 40
0.022858080891165
 50
185.359150587955213
 51
269.7152287973393072
  0
ARC
  5
2DB3
  8
0
 10
3.9575975675295938
 20
5.3144544010348289
 30
0.0
 40
0.0210383102902863
 50
266.7618650140830141
 51
353.5494422035279172
  0
ARC
  5
2DB4
  8
0
 10
3.954347782047138
 20
5.3036020736043357
 30
0.0
 40
0.0781015297921497
 50
9.342246341005346
 51
88.4875573863867686
  0
ARC
  5
2DB5
  8
0
 10
3.9554727308893258
 20
5.3073911025602341
 30
0.0
 40
0.0742911940381561
 50
89.2777479896248281
 51
173.8925737958244895
  0
ARC
  5
2DB6
  8
0
 10
3.9531199049086689
 20
5.3259878838988941
 30
0.0
 40
0.0723116391904934
 50
188.5035101262984085
 51
272.6071542130858916
  0
ARC
  5
2DB7
  8
0
 10
3.961633732923477
 20
5.3237328374301214
 30
0.0
 40
0.0701764925088872
 50
265.7304636468622903
 51
353.9039482170592805
  0
LINE
  5
2DB8
  8
0
 10
4.0314133959193876
 20
5.3162804060801534
 30
0.0
 11
4.0295941026228848
 21
5.3764452712771797
 31
0.0
  0
LINE
  5
2DB9
  8
0
 10
3.8816032015803881
 20
5.315295161726123
 30
0.0
 11
3.8805831938803941
 21
5.3754080577258021
 31
0.0
  0
ARC
  5
2DBA
  8
0
 10
3.9874207933989272
 20
5.3450600761351943
 30
0.0
 40
0.0525701292085178
 50
326.8075533795978913
 51
36.6564641726191525
  0
ARC
  5
2DBB
  8
0
 10
3.95193441441161
 20
5.3097200996881098
 30
0.0
 40
0.1023878688940399
 50
40.6691578682209212
 51
87.4951345724827547
  0
ARC
  5
2DBC
  8
0
 10
3.952496291235267
 20
5.3232734473209042
 30
0.0
 40
0.0888229203147584
 50
87.4751387416805386
 51
144.0591337738474067
  0
ARC
  5
2DBD
  8
0
 10
3.9272151427362001
 20
5.346134216157604
 30
0.0
 40
0.0550590270005809
 50
147.8808925358235058
 51
214.0633334873589888
  0
ARC
  5
2DBE
  8
0
 10
4.398215880615151
 20
5.997357056819502
 30
0.0
 40
0.0201111964834572
 50
358.1936767116694114
 51
95.6852527123072747
  0
ARC
  5
2DBF
  8
0
 10
4.3955313958821112
 20
5.9951207401368078
 30
0.0
 40
0.0222593534004068
 50
88.2179923327667268
 51
170.473194262079204
  0
ARC
  5
2DC0
  8
0
 10
4.3963372011343171
 20
6.0009397742979793
 30
0.0
 40
0.022858080891165
 50
185.359150587955213
 51
269.7152287973393072
  0
ARC
  5
2DC1
  8
0
 10
4.3974119632295947
 20
5.999086696034829
 30
0.0
 40
0.0210383102902863
 50
266.7618650140830141
 51
353.5494422035279172
  0
ARC
  5
2DC2
  8
0
 10
4.3941621777471394
 20
5.9882343686043358
 30
0.0
 40
0.0781015297921497
 50
9.342246341005346
 51
88.4875573863867686
  0
ARC
  5
2DC3
  8
0
 10
4.3952871265893272
 20
5.9920233975602351
 30
0.0
 40
0.0742911940381561
 50
89.2777479896248281
 51
173.8925737958244895
  0
ARC
  5
2DC4
  8
0
 10
4.3929343006086699
 20
6.0106201788988951
 30
0.0
 40
0.0723116391904934
 50
188.5035101262984085
 51
272.6071542130858916
  0
ARC
  5
2DC5
  8
0
 10
4.4014481286234783
 20
6.0083651324301206
 30
0.0
 40
0.0701764925088872
 50
265.7304636468622903
 51
353.9039482170592805
  0
LINE
  5
2DC6
  8
0
 10
4.4712277916193894
 20
6.0009127010801526
 30
0.0
 11
4.4694084983228857
 21
6.0610775662771799
 31
0.0
  0
LINE
  5
2DC7
  8
0
 10
4.3214175972803881
 20
5.9999274567261232
 30
0.0
 11
4.3203975895803941
 21
6.0600403527258031
 31
0.0
  0
ARC
  5
2DC8
  8
0
 10
4.4272351890989281
 20
6.0296923711351944
 30
0.0
 40
0.0525701292085178
 50
326.8075533795978913
 51
36.6564641726191525
  0
ARC
  5
2DC9
  8
0
 10
4.3917488101116113
 20
5.9943523946881099
 30
0.0
 40
0.1023878688940399
 50
40.6691578682209212
 51
87.4951345724827547
  0
ARC
  5
2DCA
  8
0
 10
4.3923106869352671
 20
6.0079057423209044
 30
0.0
 40
0.0888229203147584
 50
87.4751387416805386
 51
144.0591337738474067
  0
ARC
  5
2DCB
  8
0
 10
4.367029538436201
 20
6.0307665111576041
 30
0.0
 40
0.0550590270005809
 50
147.8808925358235058
 51
214.0633334873589888
  0
ARC
  5
2DCC
  8
0
 10
4.840826812015151
 20
6.2204211571195032
 30
0.0
 40
0.0201111964834572
 50
358.1936767116694114
 51
95.6852527123072747
  0
ARC
  5
2DCD
  8
0
 10
4.838142327282112
 20
6.2181848404368099
 30
0.0
 40
0.0222593534004068
 50
88.2179923327667268
 51
170.473194262079204
  0
ARC
  5
2DCE
  8
0
 10
4.8389481325343171
 20
6.2240038745979831
 30
0.0
 40
0.022858080891165
 50
185.359150587955213
 51
269.7152287973393072
  0
ARC
  5
2DCF
  8
0
 10
4.8400228946295956
 20
6.2221507963348328
 30
0.0
 40
0.0210383102902863
 50
266.7618650140830141
 51
353.5494422035279172
  0
ARC
  5
2DD0
  8
0
 10
4.8367731091471402
 20
6.2112984689043378
 30
0.0
 40
0.0781015297921497
 50
9.342246341005346
 51
88.4875573863867686
  0
ARC
  5
2DD1
  8
0
 10
4.837898057989328
 20
6.215087497860238
 30
0.0
 40
0.0742911940381561
 50
89.2777479896248281
 51
173.8925737958244895
  0
ARC
  5
2DD2
  8
0
 10
4.8355452320086707
 20
6.2336842791988971
 30
0.0
 40
0.0723116391904934
 50
188.5035101262984085
 51
272.6071542130858916
  0
ARC
  5
2DD3
  8
0
 10
4.8440590600234792
 20
6.2314292327301208
 30
0.0
 40
0.0701764925088872
 50
265.7304636468622903
 51
353.9039482170592805
  0
LINE
  5
2DD4
  8
0
 10
4.9138387230193903
 20
6.2239768013801529
 30
0.0
 11
4.9120194297228874
 21
6.2841416665771819
 31
0.0
  0
LINE
  5
2DD5
  8
0
 10
4.764028528680389
 20
6.2229915570261252
 30
0.0
 11
4.763008520980395
 21
6.2831044530258033
 31
0.0
  0
ARC
  5
2DD6
  8
0
 10
4.8698461204989281
 20
6.2527564714351938
 30
0.0
 40
0.0525701292085178
 50
326.8075533795978913
 51
36.6564641726191525
  0
ARC
  5
2DD7
  8
0
 10
4.8343597415116122
 20
6.2174164949881119
 30
0.0
 40
0.1023878688940399
 50
40.6691578682209212
 51
87.4951345724827547
  0
ARC
  5
2DD8
  8
0
 10
4.8349216183352679
 20
6.2309698426209064
 30
0.0
 40
0.0888229203147584
 50
87.4751387416805386
 51
144.0591337738474067
  0
ARC
  5
2DD9
  8
0
 10
4.809640469836201
 20
6.2538306114576052
 30
0.0
 40
0.0550590270005809
 50
147.8808925358235058
 51
214.0633334873589888
  0
ARC
  5
2DDA
  8
0
 10
5.2884840517651499
 20
6.4537013277195028
 30
0.0
 40
0.0201111964834572
 50
358.1936767116694114
 51
95.6852527123072747
  0
ARC
  5
2DDB
  8
0
 10
5.2857995670321101
 20
6.4514650110368086
 30
0.0
 40
0.0222593534004068
 50
88.2179923327667268
 51
170.473194262079204
  0
ARC
  5
2DDC
  8
0
 10
5.286605372284316
 20
6.45728404519798
 30
0.0
 40
0.022858080891165
 50
185.359150587955213
 51
269.7152287973393072
  0
ARC
  5
2DDD
  8
0
 10
5.2876801343795954
 20
6.4554309669348298
 30
0.0
 40
0.0210383102902863
 50
266.7618650140830141
 51
353.5494422035279172
  0
ARC
  5
2DDE
  8
0
 10
5.2850795454480197
 20
6.4629224325562742
 30
0.0
 40
0.0733808322219834
 50
0.0
 51
91.1696596281906011
  0
ARC
  5
2DDF
  8
0
 10
5.2801675876380472
 20
6.4648931263081071
 30
0.0
 40
0.0714764297252481
 50
87.2622545315098535
 51
180.4702595767643913
  0
ARC
  5
2DE0
  8
0
 10
5.2844594533540219
 20
6.4707389498790571
 30
0.0
 40
0.0760384533703567
 50
184.8527304431987091
 51
271.5315496877834107
  0
ARC
  5
2DE1
  8
0
 10
5.286313473571906
 20
6.466988851710421
 30
0.0
 40
0.0722614111104802
 50
270.1413656070054117
 51
356.7740486098185215
  0
LINE
  5
2DE2
  8
0
 10
5.3584603776700011
 20
6.4629224325562751
 30
0.0
 11
5.3598125620803936
 21
6.525649904725797
 31
0.0
  0
LINE
  5
2DE3
  8
0
 10
5.2086935653803792
 20
6.4643064845261096
 30
0.0
 11
5.2066739507803907
 21
6.5255215771257999
 31
0.0
  0
ARC
  5
2DE4
  8
0
 10
5.3026113338157863
 20
6.4955046524270283
 30
0.0
 40
0.0646584623319817
 50
329.7407989383946756
 51
27.7893912585473615
  0
ARC
  5
2DE5
  8
0
 10
5.2834977525251201
 20
6.4848953493399524
 30
0.0
 40
0.0865152237594968
 50
28.1036465524788213
 51
89.9444557425060935
  0
ARC
  5
2DE6
  8
0
 10
5.281367096019177
 20
6.4877307234073838
 30
0.0
 40
0.0837091068548046
 50
88.4840615535056969
 51
153.1629579152161114
  0
ARC
  5
2DE7
  8
0
 10
5.281338834019893
 20
6.4973440666292532
 30
0.0
 40
0.0798048675642774
 50
159.3241761540188861
 51
204.4550694771897099
  0
LINE
  5
2DE8
  8
0
 10
5.1946769726434923
 20
4.989314025269354
 30
0.0
 11
5.1946078535212763
 21
5.1165511279450104
 31
0.0
  0
LINE
  5
2DE9
  8
0
 10
5.1848684537803917
 20
5.0161927814258016
 30
0.0
 11
5.1848684537803917
 21
5.1060660607536148
 31
0.0
  0
ARC
  5
2DEA
  8
0
 10
5.1950654189334333
 20
5.1053431929532511
 30
0.0
 40
0.0102225552671106
 50
116.280708646693995
 51
175.9450580007674034
  0
LINE
  5
2DEB
  8
0
 10
5.190539185080393
 20
5.1145090995258
 30
0.0
 11
5.276896662780393
 21
5.1578511477258022
 31
0.0
  0
LINE
  5
2DEC
  8
0
 10
5.2835816229803916
 20
4.9428367382373066
 30
0.0
 11
5.1946769726434923
 21
4.9893140252693557
 31
0.0
  0
LINE
  5
2DED
  8
0
 10
5.2835816229803916
 20
5.1276789523660229
 30
0.0
 11
5.1946264287755302
 21
5.0823570951347463
 31
0.0
  0
ARC
  5
2DEE
  8
0
 10
5.1950654189334333
 20
5.016915649226168
 30
0.0
 40
0.0102225552671106
 50
184.0549419992325966
 51
267.7693194683620845
  0
ARC
  5
2DEF
  8
0
 10
5.2848382247092793
 20
5.028938533377926
 30
0.0
 40
0.0260821343565964
 50
354.8316461022271824
 51
92.7615016905800616
  0
ARC
  5
2DF0
  8
0
 10
5.2819063636568417
 20
5.0291864338115326
 30
0.0
 40
0.0258582695715078
 50
86.2854219048082314
 51
180.8046734183450042
  0
ARC
  5
2DF1
  8
0
 10
5.2823675212436871
 20
5.0321180601816158
 30
0.0
 40
0.0265223217029157
 50
187.1360848933422005
 51
272.623722913184281
  0
ARC
  5
2DF2
  8
0
 10
5.2848458959186706
 20
5.03215077190222
 30
0.0
 40
0.0265573403068198
 50
267.2713799211501282
 51
347.9113163104638033
  0
LINE
  5
2DF3
  8
0
 10
5.3724862733172918
 20
4.989314025269354
 30
0.0
 11
5.3725553924395077
 21
5.1165511279450104
 31
0.0
  0
LINE
  5
2DF4
  8
0
 10
5.3822947921803923
 20
5.0161927814258016
 30
0.0
 11
5.3822947921803923
 21
5.1060660607536148
 31
0.0
  0
ARC
  5
2DF5
  8
0
 10
5.3720978270273507
 20
5.1053431929532511
 30
0.0
 40
0.0102225552671106
 50
4.054941999232609
 51
63.7192913533059979
  0
LINE
  5
2DF6
  8
0
 10
5.376624060880391
 20
5.1145090995258
 30
0.0
 11
5.290266583180391
 21
5.1578511477258022
 31
0.0
  0
LINE
  5
2DF7
  8
0
 10
5.2835816229803916
 20
4.9428367382373066
 30
0.0
 11
5.3724862733172918
 21
4.9893140252693557
 31
0.0
  0
LINE
  5
2DF8
  8
0
 10
5.2835816229803916
 20
5.1276789523660229
 30
0.0
 11
5.3725368171852539
 21
5.0823570951347463
 31
0.0
  0
ARC
  5
2DF9
  8
0
 10
5.3720978270273507
 20
5.016915649226168
 30
0.0
 40
0.0102225552671106
 50
272.2306805316379155
 51
355.9450580007672897
  0
ARC
  5
2DFA
  8
0
 10
5.2835816229803916
 20
5.1447756366791717
 30
0.0
 40
0.0146852879442696
 50
62.9212452507268196
 51
117.0787547492731022
  0
LINE
  5
2DFB
  8
0
 10
5.1946769726434923
 20
4.7580444774332689
 30
0.0
 11
5.1946078535212763
 21
4.8852815801089253
 31
0.0
  0
LINE
  5
2DFC
  8
0
 10
5.1848684537803917
 20
4.7849232335897174
 30
0.0
 11
5.1848684537803917
 21
4.8747965129175297
 31
0.0
  0
ARC
  5
2DFD
  8
0
 10
5.1950654189334333
 20
4.874073645117166
 30
0.0
 40
0.0102225552671106
 50
116.280708646693995
 51
175.9450580007674034
  0
LINE
  5
2DFE
  8
0
 10
5.190539185080393
 20
4.8832395516897149
 30
0.0
 11
5.276896662780393
 21
4.9265815998897171
 31
0.0
  0
LINE
  5
2DFF
  8
0
 10
5.2835816229803916
 20
4.7115671904012224
 30
0.0
 11
5.1946769726434923
 21
4.7580444774332706
 31
0.0
  0
LINE
  5
2E00
  8
0
 10
5.2835816229803916
 20
4.8964094045299378
 30
0.0
 11
5.1946264287755302
 21
4.8510875472986612
 31
0.0
  0
ARC
  5
2E01
  8
0
 10
5.1950654189334333
 20
4.7856461013900828
 30
0.0
 40
0.0102225552671106
 50
184.0549419992325966
 51
267.7693194683620845
  0
ARC
  5
2E02
  8
0
 10
5.2848382247092793
 20
4.7976689855418408
 30
0.0
 40
0.0260821343565964
 50
354.8316461022271824
 51
92.7615016905800616
  0
ARC
  5
2E03
  8
0
 10
5.2819063636568417
 20
4.7979168859754484
 30
0.0
 40
0.0258582695715078
 50
86.2854219048082314
 51
180.8046734183450042
  0
ARC
  5
2E04
  8
0
 10
5.2823675212436871
 20
4.8008485123455307
 30
0.0
 40
0.0265223217029157
 50
187.1360848933422005
 51
272.623722913184281
  0
ARC
  5
2E05
  8
0
 10
5.2848458959186706
 20
4.800881224066134
 30
0.0
 40
0.0265573403068198
 50
267.2713799211501282
 51
347.9113163104638033
  0
LINE
  5
2E06
  8
0
 10
5.3724862733172918
 20
4.7580444774332689
 30
0.0
 11
5.3725553924395077
 21
4.8852815801089253
 31
0.0
  0
LINE
  5
2E07
  8
0
 10
5.3822947921803923
 20
4.7849232335897174
 30
0.0
 11
5.3822947921803923
 21
4.8747965129175297
 31
0.0
  0
ARC
  5
2E08
  8
0
 10
5.3720978270273507
 20
4.874073645117166
 30
0.0
 40
0.0102225552671106
 50
4.054941999232609
 51
63.7192913533059979
  0
LINE
  5
2E09
  8
0
 10
5.376624060880391
 20
4.8832395516897149
 30
0.0
 11
5.290266583180391
 21
4.9265815998897171
 31
0.0
  0
LINE
  5
2E0A
  8
0
 10
5.2835816229803916
 20
4.7115671904012224
 30
0.0
 11
5.3724862733172918
 21
4.7580444774332706
 31
0.0
  0
LINE
  5
2E0B
  8
0
 10
5.2835816229803916
 20
4.8964094045299378
 30
0.0
 11
5.3725368171852539
 21
4.8510875472986612
 31
0.0
  0
ARC
  5
2E0C
  8
0
 10
5.3720978270273507
 20
4.7856461013900828
 30
0.0
 40
0.0102225552671106
 50
272.2306805316379155
 51
355.9450580007674034
  0
ARC
  5
2E0D
  8
0
 10
5.2835816229803916
 20
4.9135060888430866
 30
0.0
 40
0.0146852879442696
 50
62.9212452507268196
 51
117.0787547492731022
  0
LINE
  5
2E0E
  8
0
 10
5.1946769726434923
 20
4.532119864622163
 30
0.0
 11
5.1946078535212763
 21
4.6593569672978186
 31
0.0
  0
LINE
  5
2E0F
  8
0
 10
5.1848684537803917
 20
4.5589986207786106
 30
0.0
 11
5.1848684537803917
 21
4.6488719001064238
 31
0.0
  0
ARC
  5
2E10
  8
0
 10
5.1950654189334333
 20
4.6481490323060601
 30
0.0
 40
0.0102225552671106
 50
116.280708646693995
 51
175.9450580007674034
  0
LINE
  5
2E11
  8
0
 10
5.190539185080393
 20
4.657314938878609
 30
0.0
 11
5.276896662780393
 21
4.7006569870786112
 31
0.0
  0
LINE
  5
2E12
  8
0
 10
5.2835816229803916
 20
4.4856425775901156
 30
0.0
 11
5.1946769726434923
 21
4.5321198646221648
 31
0.0
  0
LINE
  5
2E13
  8
0
 10
5.2835816229803916
 20
4.6704847917188319
 30
0.0
 11
5.1946264287755302
 21
4.6251629344875553
 31
0.0
  0
ARC
  5
2E14
  8
0
 10
5.1950654189334333
 20
4.559721488578977
 30
0.0
 40
0.0102225552671106
 50
184.0549419992325966
 51
267.7693194683620845
  0
ARC
  5
2E15
  8
0
 10
5.2848382247092793
 20
4.571744372730735
 30
0.0
 40
0.0260821343565964
 50
354.8316461022271824
 51
92.7615016905800616
  0
ARC
  5
2E16
  8
0
 10
5.2819063636568417
 20
4.5719922731643416
 30
0.0
 40
0.0258582695715078
 50
86.2854219048082314
 51
180.8046734183450042
  0
ARC
  5
2E17
  8
0
 10
5.2823675212436871
 20
4.5749238995344248
 30
0.0
 40
0.0265223217029157
 50
187.1360848933422005
 51
272.623722913184281
  0
ARC
  5
2E18
  8
0
 10
5.2848458959186706
 20
4.5749566112550291
 30
0.0
 40
0.0265573403068198
 50
267.2713799211501282
 51
347.9113163104638033
  0
LINE
  5
2E19
  8
0
 10
5.3724862733172918
 20
4.532119864622163
 30
0.0
 11
5.3725553924395077
 21
4.6593569672978186
 31
0.0
  0
LINE
  5
2E1A
  8
0
 10
5.3822947921803923
 20
4.5589986207786106
 30
0.0
 11
5.3822947921803923
 21
4.6488719001064238
 31
0.0
  0
ARC
  5
2E1B
  8
0
 10
5.3720978270273507
 20
4.6481490323060601
 30
0.0
 40
0.0102225552671106
 50
4.054941999232609
 51
63.7192913533059979
  0
LINE
  5
2E1C
  8
0
 10
5.376624060880391
 20
4.657314938878609
 30
0.0
 11
5.290266583180391
 21
4.7006569870786112
 31
0.0
  0
LINE
  5
2E1D
  8
0
 10
5.2835816229803916
 20
4.4856425775901156
 30
0.0
 11
5.3724862733172918
 21
4.5321198646221648
 31
0.0
  0
LINE
  5
2E1E
  8
0
 10
5.2835816229803916
 20
4.6704847917188319
 30
0.0
 11
5.3725368171852539
 21
4.6251629344875553
 31
0.0
  0
ARC
  5
2E1F
  8
0
 10
5.3720978270273507
 20
4.559721488578977
 30
0.0
 40
0.0102225552671106
 50
272.2306805316379155
 51
355.9450580007674034
  0
ARC
  5
2E20
  8
0
 10
5.2835816229803916
 20
4.6875814760319807
 30
0.0
 40
0.0146852879442696
 50
62.9212452507268196
 51
117.0787547492731022
  0
LINE
  5
2E21
  8
0
 10
5.4167545387434908
 20
4.4172869297578501
 30
0.0
 11
5.4166854196212748
 21
4.544524032433503
 31
0.0
  0
LINE
  5
2E22
  8
0
 10
5.406946019880392
 20
4.4441656859142951
 30
0.0
 11
5.406946019880392
 21
4.53403896524211
 31
0.0
  0
ARC
  5
2E23
  8
0
 10
5.4171429850334318
 20
4.5333160974417437
 30
0.0
 40
0.0102225552671106
 50
116.280708646693995
 51
175.9450580007674034
  0
LINE
  5
2E24
  8
0
 10
5.4126167511803924
 20
4.5424820040142961
 30
0.0
 11
5.4989742288803916
 21
4.5858240522142948
 31
0.0
  0
LINE
  5
2E25
  8
0
 10
5.505659189080391
 20
4.3708096427258019
 30
0.0
 11
5.4167545387434908
 21
4.4172869297578501
 31
0.0
  0
LINE
  5
2E26
  8
0
 10
5.505659189080391
 20
4.5556518568545172
 30
0.0
 11
5.4167039948755287
 21
4.5103299996232407
 31
0.0
  0
ARC
  5
2E27
  8
0
 10
5.4171429850334318
 20
4.4448885537146623
 30
0.0
 40
0.0102225552671106
 50
184.0549419992325966
 51
267.7693194683620845
  0
ARC
  5
2E28
  8
0
 10
5.5069157908092778
 20
4.4569114378664203
 30
0.0
 40
0.0260821343565964
 50
354.8316461022271824
 51
92.7615016905800616
  0
ARC
  5
2E29
  8
0
 10
5.503983929756842
 20
4.4571593383000261
 30
0.0
 40
0.0258582695715078
 50
86.2854219048082314
 51
180.8046734183450042
  0
ARC
  5
2E2A
  8
0
 10
5.5044450873436856
 20
4.460090964670111
 30
0.0
 40
0.0265223217029157
 50
187.1360848933422005
 51
272.623722913184281
  0
ARC
  5
2E2B
  8
0
 10
5.50692346201867
 20
4.4601236763907153
 30
0.0
 40
0.0265573403068198
 50
267.2713799211501282
 51
347.9113163104638033
  0
LINE
  5
2E2C
  8
0
 10
5.5945638394172921
 20
4.4172869297578501
 30
0.0
 11
5.594632958539508
 21
4.544524032433503
 31
0.0
  0
LINE
  5
2E2D
  8
0
 10
5.6043723582803908
 20
4.4441656859142951
 30
0.0
 11
5.6043723582803908
 21
4.53403896524211
 31
0.0
  0
ARC
  5
2E2E
  8
0
 10
5.594175393127351
 20
4.5333160974417437
 30
0.0
 40
0.0102225552671106
 50
4.054941999232609
 51
63.7192913533059979
  0
LINE
  5
2E2F
  8
0
 10
5.5987016269803913
 20
4.5424820040142961
 30
0.0
 11
5.5123441492803913
 21
4.5858240522142948
 31
0.0
  0
LINE
  5
2E30
  8
0
 10
5.505659189080391
 20
4.3708096427258019
 30
0.0
 11
5.5945638394172921
 21
4.4172869297578501
 31
0.0
  0
LINE
  5
2E31
  8
0
 10
5.505659189080391
 20
4.5556518568545172
 30
0.0
 11
5.5946143832852542
 21
4.5103299996232407
 31
0.0
  0
ARC
  5
2E32
  8
0
 10
5.594175393127351
 20
4.4448885537146623
 30
0.0
 40
0.0102225552671106
 50
272.2306805316379155
 51
355.9450580007674034
  0
ARC
  5
2E33
  8
0
 10
5.505659189080391
 20
4.572748541167666
 30
0.0
 40
0.0146852879442696
 50
62.9212452507268196
 51
117.0787547492731022
  0
LINE
  5
2E34
  8
0
 10
5.4167545387434908
 20
5.1018159582791638
 30
0.0
 11
5.4166854196212748
 21
5.2290530609548203
 31
0.0
  0
LINE
  5
2E35
  8
0
 10
5.406946019880392
 20
5.1286947144356123
 30
0.0
 11
5.406946019880392
 21
5.2185679937634246
 31
0.0
  0
ARC
  5
2E36
  8
0
 10
5.4171429850334318
 20
5.21784512596306
 30
0.0
 40
0.0102225552671106
 50
116.280708646693995
 51
175.9450580007674034
  0
LINE
  5
2E37
  8
0
 10
5.4126167511803924
 20
5.2270110325356098
 30
0.0
 11
5.4989742288803916
 21
5.270353080735612
 31
0.0
  0
LINE
  5
2E38
  8
0
 10
5.505659189080391
 20
5.0553386712471173
 30
0.0
 11
5.4167545387434908
 21
5.1018159582791656
 31
0.0
  0
LINE
  5
2E39
  8
0
 10
5.505659189080391
 20
5.2401808853758327
 30
0.0
 11
5.4167039948755287
 21
5.1948590281445561
 31
0.0
  0
ARC
  5
2E3A
  8
0
 10
5.4171429850334318
 20
5.1294175822359778
 30
0.0
 40
0.0102225552671106
 50
184.0549419992325966
 51
267.7693194683620845
  0
ARC
  5
2E3B
  8
0
 10
5.5069157908092778
 20
5.1414404663877358
 30
0.0
 40
0.0260821343565964
 50
354.8316461022271824
 51
92.7615016905800616
  0
ARC
  5
2E3C
  8
0
 10
5.503983929756842
 20
5.1416883668213433
 30
0.0
 40
0.0258582695715078
 50
86.2854219048082314
 51
180.8046734183450042
  0
ARC
  5
2E3D
  8
0
 10
5.5044450873436856
 20
5.1446199931914256
 30
0.0
 40
0.0265223217029157
 50
187.1360848933422005
 51
272.623722913184281
  0
ARC
  5
2E3E
  8
0
 10
5.50692346201867
 20
5.144652704912029
 30
0.0
 40
0.0265573403068198
 50
267.2713799211501282
 51
347.9113163104638033
  0
LINE
  5
2E3F
  8
0
 10
5.5945638394172921
 20
5.1018159582791638
 30
0.0
 11
5.594632958539508
 21
5.2290530609548203
 31
0.0
  0
LINE
  5
2E40
  8
0
 10
5.6043723582803908
 20
5.1286947144356123
 30
0.0
 11
5.6043723582803908
 21
5.2185679937634246
 31
0.0
  0
ARC
  5
2E41
  8
0
 10
5.594175393127351
 20
5.21784512596306
 30
0.0
 40
0.0102225552671106
 50
4.054941999232609
 51
63.7192913533059979
  0
LINE
  5
2E42
  8
0
 10
5.5987016269803913
 20
5.2270110325356098
 30
0.0
 11
5.5123441492803913
 21
5.270353080735612
 31
0.0
  0
LINE
  5
2E43
  8
0
 10
5.505659189080391
 20
5.0553386712471173
 30
0.0
 11
5.5945638394172921
 21
5.1018159582791656
 31
0.0
  0
LINE
  5
2E44
  8
0
 10
5.505659189080391
 20
5.2401808853758327
 30
0.0
 11
5.5946143832852542
 21
5.1948590281445561
 31
0.0
  0
ARC
  5
2E45
  8
0
 10
5.594175393127351
 20
5.1294175822359778
 30
0.0
 40
0.0102225552671106
 50
272.2306805316379155
 51
355.9450580007675171
  0
ARC
  5
2E46
  8
0
 10
5.505659189080391
 20
5.2572775696889824
 30
0.0
 40
0.0146852879442696
 50
62.9212452507268196
 51
117.0787547492731022
  0
LINE
  5
2E47
  8
0
 10
3.6770713851956791
 20
5.1575026987022801
 30
0.0
 11
3.9013591626922621
 21
5.2754923521399091
 31
0.0
  0
LINE
  5
2E48
  8
0
 10
4.03988682586641
 20
5.3483667243053388
 30
0.0
 11
4.3452410029452198
 21
5.5090024661696511
 31
0.0
  0
LINE
  5
2E49
  8
0
 10
4.45628844744168
 20
5.5674204933912694
 30
0.0
 11
4.7850777558451769
 21
5.740384606663631
 31
0.0
  0
LINE
  5
2E4A
  8
0
 10
4.8951884232787526
 20
5.7983098294969251
 30
0.0
 11
5.2277871503272157
 21
5.9732779395574136
 31
0.0
  0
LINE
  5
2E4B
  8
0
 10
5.3355580786711121
 20
6.0299723106367358
 30
0.0
 11
5.675482136139121
 21
6.208794010969358
 31
0.0
  0
LINE
  5
2E4C
  8
0
 10
3.6744634483415259
 20
4.6969761434485413
 30
0.0
 11
3.8971818355876251
 21
4.8115316023817112
 31
0.0
  0
LINE
  5
2E4D
  8
0
 10
4.0332160794730054
 20
4.8815009723632636
 30
0.0
 11
4.345291939640382
 21
5.0420175503857836
 31
0.0
  0
LINE
  5
2E4E
  8
0
 10
4.4566339454336381
 20
5.0992864392723218
 30
0.0
 11
4.7898619554635706
 21
5.2706826499326791
 31
0.0
  0
LINE
  5
2E4F
  8
0
 10
4.9011995912504762
 20
5.3279492911014179
 30
0.0
 11
5.2340526714685636
 21
5.4991526561813311
 31
0.0
  0
LINE
  5
2E50
  8
0
 10
5.3449713065236981
 20
5.5562037838412213
 30
0.0
 11
5.6766973031551231
 21
5.7268274321805279
 31
0.0
  0
LINE
  5
2E51
  8
0
 10
5.0150926627773567
 20
6.634825756751316
 30
0.0
 11
5.2081486370589474
 21
6.528304998976
 31
0.0
  0
LINE
  5
2E52
  8
0
 10
4.5444807397930553
 20
6.4158057387051111
 30
0.0
 11
4.768779402195781
 21
6.2902549032803954
 31
0.0
  0
LINE
  5
2E53
  8
0
 10
4.9110747574014999
 20
6.2106052944429653
 30
0.0
 11
5.229291115730323
 21
6.0324841714455326
 31
0.0
  0
LINE
  5
2E54
  8
0
 10
5.3360704374308687
 20
5.9727146083907261
 30
0.0
 11
5.3360785248365694
 21
5.9727100814776746
 31
0.0
  0
LINE
  5
2E55
  8
0
 10
5.337015327718114
 20
5.9721857074883387
 30
0.0
 11
5.6736661000811326
 21
5.783745949249103
 31
0.0
  0
LINE
  5
2E56
  8
0
 10
4.1862411414380238
 20
6.1407393820872684
 30
0.0
 11
4.3233507428320239
 21
6.0638882153148632
 31
0.0
  0
LINE
  5
2E57
  8
0
 10
4.467018921046475
 20
5.9833609071497804
 30
0.0
 11
4.78486861557976
 21
5.8052032899239752
 31
0.0
  0
LINE
  5
2E58
  8
0
 10
4.892560140084222
 20
5.7448412202693202
 30
0.0
 11
5.2198395058780021
 21
5.5613981873521157
 31
0.0
  0
LINE
  5
2E59
  8
0
 10
5.3298372608782758
 20
5.49974345472822
 30
0.0
 11
5.6294323385803926
 21
5.3318177146882242
 31
0.0
  0
LINE
  5
2E5A
  8
0
 10
3.9256270342323538
 20
5.830300941299563
 30
0.0
 11
4.3374126507803403
 21
5.5817019387189939
 31
0.0
  0
LINE
  5
2E5B
  8
0
 10
4.4466363066835237
 20
5.5203630177436276
 30
0.0
 11
4.777445461208278
 21
5.3345838802525023
 31
0.0
  0
LINE
  5
2E5C
  8
0
 10
4.8878499301096037
 20
5.2725818264184108
 30
0.0
 11
5.1848684537803917
 21
5.1057791718010712
 31
0.0
  0
LINE
  5
2E5D
  8
0
 10
3.7660344756869319
 20
4.3386890379767724
 30
0.0
 11
3.875947851887946
 21
4.3900256002410769
 31
0.0
  0
LINE
  5
2E5E
  8
0
 10
4.0240313104227967
 20
4.4591900272848326
 30
0.0
 11
4.3397325438054661
 21
4.6066426539317291
 31
0.0
  0
LINE
  5
2E5F
  8
0
 10
4.4493773288453493
 20
4.657853766980085
 30
0.0
 11
4.7853236655557971
 21
4.814762149090563
 31
0.0
  0
LINE
  5
2E60
  8
0
 10
4.8987452516081591
 20
4.8677372692783454
 30
0.0
 11
5.1946679343546212
 21
5.005952050347859
 31
0.0
  0
LINE
  5
2E61
  8
0
 10
3.7423733019090761
 20
5.4403582124233871
 30
0.0
 11
3.876180421416707
 21
5.3667970735130712
 31
0.0
  0
LINE
  5
2E62
  8
0
 10
4.0214039379076416
 20
5.286959712773645
 30
0.0
 11
4.336631099575424
 21
5.1136619905517291
 31
0.0
  0
LINE
  5
2E63
  8
0
 10
4.4465747199804664
 20
5.0532199306473098
 30
0.0
 11
4.7786415528597876
 21
4.8706645142327822
 31
0.0
  0
LINE
  5
2E64
  8
0
 10
4.8895151809180604
 20
4.8097111779297741
 30
0.0
 11
5.1848684537803917
 21
4.6473392263281736
 31
0.0
  0
LINE
  5
2E65
  8
0
 10
3.950594239314654
 20
3.9700518245350431
 30
0.0
 11
4.3404104647743171
 21
4.1522383642550373
 31
0.0
  0
LINE
  5
2E66
  8
0
 10
4.4528328633936161
 20
4.2047806815157394
 30
0.0
 11
4.7855881758341212
 21
4.3602989359842246
 31
0.0
  0
LINE
  5
2E67
  8
0
 10
4.8983899493590641
 20
4.4130185598750842
 30
0.0
 11
5.1916600634990937
 21
4.550082806586353
 31
0.0
  0
LINE
  5
2E68
  8
0
 10
3.6614506505872271
 20
4.9859133285696462
 30
0.0
 11
3.8655506112875329
 21
4.8809194024852376
 31
0.0
  0
LINE
  5
2E69
  8
0
 10
4.0023392548182839
 20
4.8105520360302183
 30
0.0
 11
4.3318367324891698
 21
4.6410506128213491
 31
0.0
  0
LINE
  5
2E6A
  8
0
 10
4.4427324239499182
 20
4.5840032033443547
 30
0.0
 11
4.7785563064991994
 21
4.4112473253874143
 31
0.0
  0
LINE
  5
2E6B
  8
0
 10
4.8907212688771331
 20
4.3535469724389797
 30
0.0
 11
5.2218803335267436
 21
4.1831907889458471
 31
0.0
  0
LINE
  5
2E6C
  8
0
 10
5.334047555453636
 20
4.1254892736311142
 30
0.0
 11
5.6689844713932382
 21
3.9531896726197302
 31
0.0
  0
LINE
  5
2E6D
  8
0
 10
3.7132764807148351
 20
4.5047936533098989
 30
0.0
 11
3.8634993522306882
 21
4.4292090256063519
 31
0.0
  0
LINE
  5
2E6E
  8
0
 10
4.0006813012828584
 20
4.3601859371636493
 30
0.0
 11
4.3315398678748132
 21
4.1937144716269037
 31
0.0
  0
LINE
  5
2E6F
  8
0
 10
4.4430205019053464
 20
4.1376229981094097
 30
0.0
 11
4.783085205381739
 21
3.966519465418199
 31
0.0
  0
LINE
  5
2E70
  8
0
 10
4.8013576355799721
 20
3.9573256933924341
 30
0.0
 11
5.2257016259081857
 21
3.7438170431879212
 31
0.0
  0
LINE
  5
2E71
  8
0
 10
5.3367531394166612
 20
3.68794148163225
 30
0.0
 11
5.6699117264174701
 21
3.5203127609814229
 31
0.0
  0
LINE
  5
2E72
  8
0
 10
3.9503974808874398
 20
3.970355963931067
 30
0.0
 11
4.3201817365597757
 21
3.7798577469257171
 31
0.0
  0
LINE
  5
2E73
  8
0
 10
4.466671494172286
 20
3.7043920200683318
 30
0.0
 11
4.7673469310187233
 21
3.5494959320442261
 31
0.0
  0
LINE
  5
2E74
  8
0
 10
4.912434413633993
 20
3.4747526017806059
 30
0.0
 11
5.2080347976841308
 21
3.3224709801489229
 31
0.0
  0
LINE
  5
2E75
  8
0
 10
5.3548957688520602
 20
3.2468140187558592
 30
0.0
 11
5.6681833655179377
 21
3.0854206450270869
 31
0.0
  0
LINE
  5
2E76
  8
0
 10
3.9464884985209472
 20
5.8623135267578874
 30
0.0
 11
4.3324573565532587
 21
5.9709778732124859
 31
0.0
  0
LINE
  5
2E77
  8
0
 10
4.4758538265459791
 20
6.049688535212149
 30
0.0
 11
4.7673332330470268
 21
6.209682271781336
 31
0.0
  0
LINE
  5
2E78
  8
0
 10
4.9090368104380424
 20
6.2874637010224736
 30
0.0
 11
5.2105301264769901
 21
6.4529540962539906
 31
0.0
  0
LINE
  5
2E79
  8
0
 10
4.2201289820841756
 20
3.6419861787496588
 30
0.0
 11
4.3284056648753442
 21
3.6938491198075658
 31
0.0
  0
LINE
  5
2E7A
  8
0
 10
4.4758549267342778
 20
3.7644751510055379
 30
0.0
 11
4.7946544124195274
 21
3.9171754232079521
 31
0.0
  0
LINE
  5
2E7B
  8
0
 10
4.8217092815368767
 20
3.9301343082254099
 30
0.0
 11
5.2308537598155223
 21
4.1261085052005759
 31
0.0
  0
LINE
  5
2E7C
  8
0
 10
5.344163626845237
 20
4.1803822675984854
 30
0.0
 11
5.6389119471505911
 21
4.3215623847655102
 31
0.0
  0
LINE
  5
2E7D
  8
0
 10
4.5632773723843476
 20
3.3789313068222442
 30
0.0
 11
4.7670634819872069
 21
3.474021456257657
 31
0.0
  0
LINE
  5
2E7E
  8
0
 10
4.9146427502691221
 20
3.542884514205245
 30
0.0
 11
5.2277997793529121
 21
3.689009040309398
 31
0.0
  0
LINE
  5
2E7F
  8
0
 10
5.3392281113821802
 20
3.7410034415207991
 30
0.0
 11
5.6735951511891134
 21
3.897024928183848
 31
0.0
  0
LINE
  5
2E80
  8
0
 10
5.0341368188625628
 20
3.1701661567296848
 30
0.0
 11
5.2108235353591548
 21
3.2525915262199989
 31
0.0
  0
LINE
  5
2E81
  8
0
 10
5.3580753421870311
 20
3.3212853410498089
 30
0.0
 11
5.6699756718347274
 21
3.4667886387799349
 31
0.0
  0
ARC
  5
2E82
  8
0
 10
5.7889435849267024
 20
4.2151949826281481
 30
0.0
 40
2.629461187978281
 50
91.3249259663498378
 51
117.4051330045492989
  0
LINE
  5
2E83
  8
0
 10
3.9440374956247828
 20
5.4116926757164387
 30
0.0
 11
3.9101050274469289
 21
5.8054154498371382
 31
0.0
  0
LINE
  5
2E84
  8
0
 10
3.9508280145804462
 20
5.253712574137265
 30
0.0
 11
3.9480647655178389
 21
4.950599448026737
 31
0.0
  0
LINE
  5
2E85
  8
0
 10
3.9496938390622751
 20
4.4996319598742298
 30
0.0
 11
3.9498814999256551
 21
4.7922689630779507
 31
0.0
  0
LINE
  5
2E86
  8
0
 10
3.9470902133446009
 20
4.341469282229613
 30
0.0
 11
3.935555560839775
 21
3.993677904868203
 31
0.0
  0
LINE
  5
2E87
  8
0
 10
5.3556610765051298
 20
6.532616818453044
 30
0.0
 11
5.7281445104803916
 21
6.7370738575530282
 31
0.0
  0
ARC
  5
2E88
  8
0
 10
5.7281445104803899
 20
2.5605604487488831
 30
0.0
 40
0.4336703667143313
 50
235.5877303115034067
 51
304.4122696884969059
  0
ARC
  5
2E89
  8
0
 10
5.7281445104803916
 20
2.7259687991434882
 30
0.0
 40
0.0542384895456898
 50
224.3815185905417877
 51
315.6184814094581839
  0
ARC
  5
2E8A
  8
0
 10
5.7281445104803899
 20
4.8205025714804668
 30
0.0
 40
1.9465028992468121
 50
70.1136893859288364
 51
109.8863106140711068
  0
LINE
  5
2E8B
  8
0
 10
5.3557207138631071
 20
6.4468804820391252
 30
0.0
 11
5.6776046564399953
 21
6.269277475415846
 31
0.0
  0
LINE
  5
2F86
  8
0
 10
5.3866681256803899
 20
-2.537776516398548
 30
0.0
 11
6.0696208815803896
 21
-2.537776516398548
 31
0.0
  0
LINE
  5
2F87
  8
0
 10
5.32297970758039
 20
-2.450197928798548
 30
0.0
 11
5.3669830862803911
 21
-2.4728096420985479
 31
0.0
  0
LINE
  5
2F88
  8
0
 10
6.1333333213803902
 20
-2.4002983291985478
 30
0.0
 11
6.089305920980391
 21
-2.3776546094985478
 31
0.0
  0
LINE
  5
2F89
  8
0
 10
5.3866681256803899
 20
-2.537776516398548
 30
0.0
 11
5.3669830862803911
 21
-2.5180914769985479
 31
0.0
  0
LINE
  5
2F8A
  8
0
 10
5.3229808956803897
 20
-2.4501985479985482
 30
0.0
 11
5.3224011257803898
 21
-2.449596096798548
 31
0.0
  0
LINE
  5
2F8B
  8
0
 10
5.3223866074803903
 20
-2.4365907047985478
 30
0.0
 11
5.3224011257803898
 21
-2.449596096798548
 31
0.0
  0
LINE
  5
2F8C
  8
0
 10
5.3669830862803911
 20
-2.4014431834985479
 30
0.0
 11
5.3669830862803911
 21
-2.413021054498548
 31
0.0
  0
LINE
  5
2F8D
  8
0
 10
5.3669830862803911
 20
-2.4728096420985479
 30
0.0
 11
5.3669830862803911
 21
-2.5180914769985479
 31
0.0
  0
LINE
  5
2F8E
  8
0
 10
6.089305920980391
 20
-2.3659903224985479
 30
0.0
 11
6.089305920980391
 21
-2.3776546094985478
 31
0.0
  0
LINE
  5
2F8F
  8
0
 10
6.089305920980391
 20
-2.4374429872985481
 30
0.0
 11
6.089305920980391
 21
-2.5180914769985479
 31
0.0
  0
LINE
  5
2F90
  8
0
 10
6.1312999634803891
 20
-2.4840314020985481
 30
0.0
 11
6.1312999634803891
 21
-2.4710261249985481
 31
0.0
  0
LINE
  5
2F91
  8
0
 10
6.1338955854803912
 20
-2.413904060498548
 30
0.0
 11
6.1339090845803899
 21
-2.4008985076985478
 31
0.0
  0
LINE
  5
2F92
  8
0
 10
6.0696208815803896
 20
-2.537776516398548
 30
0.0
 11
6.089305920980391
 21
-2.5180914769985479
 31
0.0
  0
LINE
  5
2F93
  8
0
 10
5.3669830862803911
 20
-2.413021054498548
 30
0.0
 11
5.3229575599803898
 21
-2.4359938441985478
 31
0.0
  0
LINE
  5
2F94
  8
0
 10
6.089305920980391
 20
-2.4374429872985481
 30
0.0
 11
6.1333224470788901
 21
-2.414500541921297
 31
0.0
  0
ARC
  5
2F95
  8
0
 10
5.6241210028779181
 20
-3.3854040336828271
 30
0.0
 40
1.045618218073709
 50
60.9841361336142995
 51
63.5837092453254371
  0
ARC
  5
2F96
  8
0
 10
5.3038799262460898
 20
-1.1110542859541279
 30
0.0
 40
1.603025289717245
 50
299.3382692074958982
 51
301.0751270449819117
  0
ARC
  5
2F97
  8
0
 10
5.2954466504752409
 20
-2.4102486234674401
 30
0.0
 40
0.0376784624459911
 50
315.6428867261981281
 51
316.8989263808477972
  0
ARC
  5
2F98
  8
0
 10
6.1221473579076697
 20
-2.4116055067653979
 30
0.0
 40
0.0159052835039596
 50
42.3123927159076416
 51
45.30876029143311
  0
ARC
  5
2F99
  8
0
 10
6.3237062664930521
 20
-2.5968601845267312
 30
0.0
 40
0.2636304950985489
 50
136.0534546634507933
 51
136.2332354861769943
  0
ARC
  5
2F9A
  8
0
 10
5.3415582282971661
 20
-2.5239848916589782
 30
0.0
 40
0.0768159317955943
 50
94.7325338319031829
 51
104.4414009801006955
  0
ARC
  5
2F9B
  8
0
 10
5.5887933944601489
 20
-5.579134121531264
 30
0.0
 40
3.1419523492987218
 50
90.5248798833135027
 51
94.6291187431950647
  0
ARC
  5
2F9C
  8
0
 10
9.873473678588482
 20
-148.5188019863985005
 30
0.0
 40
146.1451580061882964
 50
91.5637717042244361
 51
91.6913260838954329
  0
ARC
  5
2F9D
  8
0
 10
5.5506893072294119
 20
8.7016421555050005
 30
0.0
 40
11.1347418134487892
 50
271.7217188237012806
 51
272.6905230184980837
  0
ARC
  5
2F9E
  8
0
 10
6.0710265926905009
 20
-2.132226113592171
 30
0.0
 40
0.2886086901460297
 50
270.4647860579067924
 51
282.5818873563019906
  0
ARC
  5
2F9F
  8
0
 10
5.3415429129344458
 20
-2.5109735755865321
 30
0.0
 40
0.0768099961288308
 50
94.7323461516308214
 51
104.4419272603094981
  0
ARC
  5
2FA0
  8
0
 10
5.5887788195601491
 20
-5.566128700131264
 30
0.0
 40
3.1419523492987218
 50
90.5248798833135027
 51
94.6291187431950647
  0
ARC
  5
2FA1
  8
0
 10
9.8734591036884822
 20
-148.5057965649984908
 30
0.0
 40
146.1451580061882964
 50
91.5637717042244361
 51
91.6913260838954329
  0
ARC
  5
2FA2
  8
0
 10
5.5506747323294121
 20
8.7146475769049996
 30
0.0
 40
11.1347418134487892
 50
271.7217188237012806
 51
272.6905230184980837
  0
ARC
  5
2FA3
  8
0
 10
6.0581694107962889
 20
-1.8967627287384159
 30
0.0
 40
0.5112826672511199
 50
271.7017884344330128
 51
278.1108188394363765
  0
ARC
  5
2FA4
  8
0
 10
6.1287150006519324
 20
-2.3959003249857389
 30
0.0
 40
0.0072083519813121
 50
282.7457723770846769
 51
316.1011221898473877
  0
LINE
  5
2FA5
  8
0
 10
5.32297970758039
 20
-2.378831470198548
 30
0.0
 11
5.3669830862803911
 21
-2.4014431834985479
 31
0.0
  0
LINE
  5
2FA6
  8
0
 10
6.1333333213803902
 20
-2.3289318705985491
 30
0.0
 11
6.089305920980391
 21
-2.3062881508985491
 31
0.0
  0
LINE
  5
2FA7
  8
0
 10
5.3229808956803897
 20
-2.3788320893985491
 30
0.0
 11
5.3224011257803898
 21
-2.3782296381985479
 31
0.0
  0
LINE
  5
2FA8
  8
0
 10
5.3223866074803903
 20
-2.3652242461985491
 30
0.0
 11
5.3224011257803898
 21
-2.3782296381985479
 31
0.0
  0
LINE
  5
2FA9
  8
0
 10
5.3669830862803911
 20
-2.3300767248985488
 30
0.0
 11
5.3669830862803911
 21
-2.341654595898548
 31
0.0
  0
LINE
  5
2FAA
  8
0
 10
6.089305920980391
 20
-2.2946238638985492
 30
0.0
 11
6.089305920980391
 21
-2.3062881508985491
 31
0.0
  0
LINE
  5
2FAB
  8
0
 10
6.1338955854803912
 20
-2.342537601898548
 30
0.0
 11
6.1339090845803899
 21
-2.3295320490985492
 31
0.0
  0
LINE
  5
2FAC
  8
0
 10
5.3669830862803911
 20
-2.341654595898548
 30
0.0
 11
5.3229575599803898
 21
-2.3646273855985491
 31
0.0
  0
LINE
  5
2FAD
  8
0
 10
6.089305920980391
 20
-2.366076528698549
 30
0.0
 11
6.1333224470788901
 21
-2.3431340833212979
 31
0.0
  0
ARC
  5
2FAE
  8
0
 10
5.2954466504752409
 20
-2.3388821648674409
 30
0.0
 40
0.0376784624459911
 50
315.6428867261981281
 51
316.8989263808477972
  0
ARC
  5
2FAF
  8
0
 10
6.1221473579076697
 20
-2.3402390481653979
 30
0.0
 40
0.0159052835039596
 50
42.3123927159076416
 51
45.30876029143311
  0
ARC
  5
2FB0
  8
0
 10
6.3237062664930521
 20
-2.525493725926732
 30
0.0
 40
0.2636304950985489
 50
136.0534546634507933
 51
136.2332354861769943
  0
ARC
  5
2FB1
  8
0
 10
5.3415582282971661
 20
-2.4526184330589791
 30
0.0
 40
0.0768159317955943
 50
94.7325338319031829
 51
104.4414009801006955
  0
ARC
  5
2FB2
  8
0
 10
5.5887933944601489
 20
-5.507767662931264
 30
0.0
 40
3.1419523492987218
 50
90.5248798833135027
 51
94.6291187431950647
  0
ARC
  5
2FB3
  8
0
 10
9.873473678588482
 20
-148.4474355277984046
 30
0.0
 40
146.1451580061882964
 50
91.5637717042244361
 51
91.6913260838954329
  0
ARC
  5
2FB4
  8
0
 10
5.5506893072294119
 20
8.7730086141050005
 30
0.0
 40
11.1347418134487892
 50
271.7217188237012806
 51
272.6905230184980837
  0
ARC
  5
2FB5
  8
0
 10
6.0710265926905009
 20
-2.0608596549921709
 30
0.0
 40
0.2886086901460297
 50
270.4647860579067924
 51
282.5818873563019906
  0
ARC
  5
2FB6
  8
0
 10
5.3415429129344458
 20
-2.4396071169865321
 30
0.0
 40
0.0768099961288308
 50
94.7323461516308214
 51
104.4419272603094981
  0
ARC
  5
2FB7
  8
0
 10
5.5887788195601491
 20
-5.494762241531264
 30
0.0
 40
3.1419523492987218
 50
90.5248798833135027
 51
94.6291187431950647
  0
ARC
  5
2FB8
  8
0
 10
9.8734591036884822
 20
-148.4344301063983949
 30
0.0
 40
146.1451580061882964
 50
91.5637717042244361
 51
91.6913260838954329
  0
ARC
  5
2FB9
  8
0
 10
5.5506747323294121
 20
8.7860140355049996
 30
0.0
 40
11.1347418134487892
 50
271.7217188237012806
 51
272.6905230184980837
  0
ARC
  5
2FBA
  8
0
 10
6.0581694107962889
 20
-1.8253962701384161
 30
0.0
 40
0.5112826672511199
 50
271.7017884344330128
 51
278.1108188394363765
  0
ARC
  5
2FBB
  8
0
 10
6.1287150006519324
 20
-2.3245338663857389
 30
0.0
 40
0.0072083519813121
 50
282.7457723770846769
 51
316.1011221898473877
  0
LINE
  5
2FBC
  8
0
 10
5.32297970758039
 20
-2.3074650115985489
 30
0.0
 11
5.3669830862803911
 21
-2.3300767248985488
 31
0.0
  0
LINE
  5
2FBD
  8
0
 10
6.1333333213803902
 20
-2.2575654119985491
 30
0.0
 11
6.089305920980391
 21
-2.2349216922985491
 31
0.0
  0
LINE
  5
2FBE
  8
0
 10
5.3229808956803897
 20
-2.307465630798549
 30
0.0
 11
5.3224011257803898
 21
-2.3068631795985488
 31
0.0
  0
LINE
  5
2FBF
  8
0
 10
5.3223866074803903
 20
-2.2938577875985491
 30
0.0
 11
5.3224011257803898
 21
-2.3068631795985488
 31
0.0
  0
LINE
  5
2FC0
  8
0
 10
5.3669830862803911
 20
-2.2587102662985492
 30
0.0
 11
5.3669830862803911
 21
-2.2702881372985488
 31
0.0
  0
LINE
  5
2FC1
  8
0
 10
6.089305920980391
 20
-2.2232574052985492
 30
0.0
 11
6.089305920980391
 21
-2.2349216922985491
 31
0.0
  0
LINE
  5
2FC2
  8
0
 10
6.1338955854803912
 20
-2.2711711432985489
 30
0.0
 11
6.1339090845803899
 21
-2.2581655904985491
 31
0.0
  0
LINE
  5
2FC3
  8
0
 10
5.3669830862803911
 20
-2.2702881372985488
 30
0.0
 11
5.3229575599803898
 21
-2.2932609269985491
 31
0.0
  0
LINE
  5
2FC4
  8
0
 10
6.089305920980391
 20
-2.294710070098549
 30
0.0
 11
6.1333224470788901
 21
-2.2717676247212979
 31
0.0
  0
ARC
  5
2FC5
  8
0
 10
5.2954466504752409
 20
-2.2675157062674409
 30
0.0
 40
0.0376784624459911
 50
315.6428867261981281
 51
316.8989263808477972
  0
ARC
  5
2FC6
  8
0
 10
6.1221473579076697
 20
-2.2688725895653992
 30
0.0
 40
0.0159052835039596
 50
42.3123927159076416
 51
45.30876029143311
  0
ARC
  5
2FC7
  8
0
 10
6.3237062664930521
 20
-2.454127267326732
 30
0.0
 40
0.2636304950985489
 50
136.0534546634507933
 51
136.2332354861769943
  0
ARC
  5
2FC8
  8
0
 10
5.3415582282971661
 20
-2.3812519744589791
 30
0.0
 40
0.0768159317955943
 50
94.7325338319031829
 51
104.4414009801006955
  0
ARC
  5
2FC9
  8
0
 10
5.5887933944601489
 20
-5.4364012043312639
 30
0.0
 40
3.1419523492987218
 50
90.5248798833135027
 51
94.6291187431950647
  0
ARC
  5
2FCA
  8
0
 10
9.873473678588482
 20
-148.3760690691985076
 30
0.0
 40
146.1451580061882964
 50
91.5637717042244361
 51
91.6913260838954329
  0
ARC
  5
2FCB
  8
0
 10
5.5506893072294119
 20
8.8443750727050006
 30
0.0
 40
11.1347418134487892
 50
271.7217188237012806
 51
272.6905230184980837
  0
ARC
  5
2FCC
  8
0
 10
6.0710265926905009
 20
-1.989493196392172
 30
0.0
 40
0.2886086901460297
 50
270.4647860579067924
 51
282.5818873563019906
  0
ARC
  5
2FCD
  8
0
 10
5.3415429129344458
 20
-2.368240658386533
 30
0.0
 40
0.0768099961288308
 50
94.7323461516308214
 51
104.4419272603094981
  0
ARC
  5
2FCE
  8
0
 10
5.5887788195601491
 20
-5.423395782931264
 30
0.0
 40
3.1419523492987218
 50
90.5248798833135027
 51
94.6291187431950647
  0
ARC
  5
2FCF
  8
0
 10
9.8734591036884822
 20
-148.3630636477984979
 30
0.0
 40
146.1451580061882964
 50
91.5637717042244361
 51
91.6913260838954329
  0
ARC
  5
2FD0
  8
0
 10
5.5506747323294121
 20
8.8573804941049996
 30
0.0
 40
11.1347418134487892
 50
271.7217188237012806
 51
272.6905230184980837
  0
ARC
  5
2FD1
  8
0
 10
6.0581694107962889
 20
-1.754029811538417
 30
0.0
 40
0.5112826672511199
 50
271.7017884344330128
 51
278.1108188394363765
  0
ARC
  5
2FD2
  8
0
 10
6.1287150006519324
 20
-2.2531674077857402
 30
0.0
 40
0.0072083519813121
 50
282.7457723770846769
 51
316.1011221898473877
  0
LINE
  5
2FD3
  8
0
 10
5.32297970758039
 20
-2.2360985529985489
 30
0.0
 11
5.3669830862803911
 21
-2.2587102662985492
 31
0.0
  0
LINE
  5
2FD4
  8
0
 10
6.1333333213803902
 20
-2.1861989533985491
 30
0.0
 11
6.1279802323252586
 21
-2.1834458076985488
 31
0.0
  0
LINE
  5
2FD5
  8
0
 10
5.3229808956803897
 20
-2.236099172198549
 30
0.0
 11
5.3224011257803898
 21
-2.2354967209985488
 31
0.0
  0
LINE
  5
2FD6
  8
0
 10
5.3223866074803903
 20
-2.2224913289985491
 30
0.0
 11
5.3224011257803898
 21
-2.2354967209985488
 31
0.0
  0
LINE
  5
2FD7
  8
0
 10
5.3669830862803911
 20
-2.1873438076985501
 30
0.0
 11
5.3669830862803911
 21
-2.1989216786985488
 31
0.0
  0
LINE
  5
2FD8
  8
0
 10
6.1338955854803912
 20
-2.1998046846985488
 30
0.0
 11
6.1339090845803899
 21
-2.18679913189855
 31
0.0
  0
LINE
  5
2FD9
  8
0
 10
5.3669830862803911
 20
-2.1989216786985488
 30
0.0
 11
5.3229575599803898
 21
-2.2218944683985491
 31
0.0
  0
LINE
  5
2FDA
  8
0
 10
6.089305920980391
 20
-2.223343611498549
 30
0.0
 11
6.1333224470788901
 21
-2.2004011661212979
 31
0.0
  0
ARC
  5
2FDB
  8
0
 10
5.2954466504752409
 20
-2.1961492476674418
 30
0.0
 40
0.0376784624459911
 50
315.6428867261981281
 51
316.8989263808477972
  0
ARC
  5
2FDC
  8
0
 10
6.1221473579076697
 20
-2.1975061309653992
 30
0.0
 40
0.0159052835039596
 50
42.3123927159076416
 51
45.30876029143311
  0
ARC
  5
2FDD
  8
0
 10
6.3237062664930521
 20
-2.382760808726732
 30
0.0
 40
0.2636304950985489
 50
136.0534546634507933
 51
136.2332354861769943
  0
ARC
  5
2FDE
  8
0
 10
5.3415582282971661
 20
-2.3098855158589791
 30
0.0
 40
0.0768159317955943
 50
94.7325338319031829
 51
104.4414009801006955
  0
ARC
  5
2FDF
  8
0
 10
5.5887933944601489
 20
-5.3650347457312657
 30
0.0
 40
3.1419523492987218
 50
90.5248798833135027
 51
94.6291187431950647
  0
ARC
  5
2FE0
  8
0
 10
9.873473678588482
 20
-148.3047026105984116
 30
0.0
 40
146.1451580061882964
 50
91.5637717042244361
 51
91.6913260838954329
  0
ARC
  5
2FE1
  8
0
 10
5.5506893072294119
 20
8.9157415313049988
 30
0.0
 40
11.1347418134487892
 50
271.7217188237012806
 51
272.6905230184980837
  0
ARC
  5
2FE2
  8
0
 10
6.0710265926905009
 20
-1.918126737792172
 30
0.0
 40
0.2886086901460297
 50
270.4647860579067924
 51
282.5818873563019906
  0
ARC
  5
2FE3
  8
0
 10
5.3415429129344458
 20
-2.296874199786533
 30
0.0
 40
0.0768099961288308
 50
94.7323461516308214
 51
104.4419272603094981
  0
ARC
  5
2FE4
  8
0
 10
5.5887788195601491
 20
-5.3520293243312649
 30
0.0
 40
3.1419523492987218
 50
90.5248798833135027
 51
94.6291187431950647
  0
ARC
  5
2FE5
  8
0
 10
9.8734591036884822
 20
-148.2916971891984872
 30
0.0
 40
146.1451580061882964
 50
91.5637717042244361
 51
91.6913260838954329
  0
ARC
  5
2FE6
  8
0
 10
5.5506747323294121
 20
8.9287469527049979
 30
0.0
 40
11.1347418134487892
 50
271.7217188237012806
 51
272.6905230184980837
  0
ARC
  5
2FE7
  8
0
 10
6.0581694107962889
 20
-1.682663352938417
 30
0.0
 40
0.5112826672511199
 50
271.7017884344330128
 51
278.1108188394363765
  0
ARC
  5
2FE8
  8
0
 10
6.1287150006519324
 20
-2.1818009491857402
 30
0.0
 40
0.0072083519813121
 50
282.7457723770846769
 51
316.1011221898473877
  0
LINE
  5
2FE9
  8
0
 10
5.3593974085435061
 20
-2.1834458076985479
 30
0.0
 11
5.3669830862803911
 21
-2.1873438076985501
 31
0.0
  0
ENDSEC
  0
EOF
