  0
SECTION
  2
HEADER
  9
$ACADVER
  1
AC1009
  9
$INSBASE
 10
356.7857756349894203
 20
29.8084900421990113
 30
0.0
  9
$EXTMIN
 10
354.6222376605660997
 20
25.6819098856267303
 30
-0.0000000349181948
  9
$EXTMAX
 10
358.9555640153433274
 20
29.8150929253875994
 30
0.0000000814935746
  9
$LIMMIN
 10
0.0
 20
0.0
  9
$LIMMAX
 10
11.6929133858000007
 20
8.2677165353999982
  9
$ORTHOMODE
 70
     0
  9
$REGENMODE
 70
     1
  9
$FILLMODE
 70
     1
  9
$QTEXTMODE
 70
     0
  9
$MIRRTEXT
 70
     0
  9
$DRAGMODE
 70
     2
  9
$LTSCALE
 40
0.6431102362
  9
$OSMODE
 70
  4095
  9
$ATTMODE
 70
     1
  9
$TEXTSIZE
 40
0.2
  9
$TRACEWID
 40
0.05
  9
$TEXTSTYLE
  7
STANDARD
  9
$CLAYER
  8
0
  9
$CELTYPE
  6
BYLAYER
  9
$CECOLOR
 62
   256
  9
$DIMSCALE
 40
1.0
  9
$DIMASZ
 40
0.1875
  9
$DIMEXO
 40
0.0625
  9
$DIMDLI
 40
0.4443307087
  9
$DIMRND
 40
0.0
  9
$DIMDLE
 40
0.0
  9
$DIMEXE
 40
0.125
  9
$DIMTP
 40
0.01
  9
$DIMTM
 40
0.01
  9
$DIMTXT
 40
1.0
  9
$DIMCEN
 40
0.1052362205
  9
$DIMTSZ
 40
0.0
  9
$DIMTOL
 70
     1
  9
$DIMLIM
 70
     0
  9
$DIMTIH
 70
     0
  9
$DIMTOH
 70
     1
  9
$DIMSE1
 70
     0
  9
$DIMSE2
 70
     0
  9
$DIMTAD
 70
     0
  9
$DIMZIN
 70
     0
  9
$DIMBLK
  1

  9
$DIMASO
 70
     1
  9
$DIMSHO
 70
     1
  9
$DIMPOST
  1
\X
  9
$DIMAPOST
  1

  9
$DIMALT
 70
     1
  9
$DIMALTD
 70
     2
  9
$DIMALTF
 40
25.3999999999999986
  9
$DIMLFAC
 40
1.0
  9
$DIMTOFL
 70
     0
  9
$DIMTVP
 40
0.0
  9
$DIMTIX
 70
     0
  9
$DIMSOXD
 70
     0
  9
$DIMSAH
 70
     0
  9
$DIMBLK1
  1

  9
$DIMBLK2
  1

  9
$DIMSTYLE
  2
STANDARD
  9
$DIMCLRD
 70
     0
  9
$DIMCLRE
 70
     0
  9
$DIMCLRT
 70
     0
  9
$DIMTFAC
 40
1.0
  9
$DIMGAP
 40
0.09
  9
$LUNITS
 70
     2
  9
$LUPREC
 70
     4
  9
$SKETCHINC
 40
0.1
  9
$FILLETRAD
 40
0.0
  9
$AUNITS
 70
     0
  9
$AUPREC
 70
     0
  9
$MENU
  1
.
  9
$ELEVATION
 40
0.0
  9
$PELEVATION
 40
0.0
  9
$THICKNESS
 40
0.0
  9
$LIMCHECK
 70
     0
  9
$BLIPMODE
 70
     0
  9
$CHAMFERA
 40
0.0
  9
$CHAMFERB
 40
0.0
  9
$SKPOLY
 70
     0
  9
$TDCREATE
 40
2458172.5207638889551163
  9
$TDUPDATE
 40
2459906.6264120368286967
  9
$TDINDWG
 40
0.1038255093
  9
$TDUSRTIMER
 40
0.1038255093
  9
$USRTIMER
 70
     1
  9
$ANGBASE
 50
0.0
  9
$ANGDIR
 70
     0
  9
$PDMODE
 70
     0
  9
$PDSIZE
 40
0.3125
  9
$PLINEWID
 40
0.0
  9
$COORDS
 70
     1
  9
$SPLFRAME
 70
     0
  9
$SPLINETYPE
 70
     6
  9
$SPLINESEGS
 70
     8
  9
$ATTDIA
 70
     1
  9
$ATTREQ
 70
     1
  9
$HANDLING
 70
     1
  9
$HANDSEED
  5
7A15
  9
$SURFTAB1
 70
     6
  9
$SURFTAB2
 70
     6
  9
$SURFTYPE
 70
     6
  9
$SURFU
 70
     6
  9
$SURFV
 70
     6
  9
$UCSNAME
  2

  9
$UCSORG
 10
0.0
 20
0.0
 30
0.0
  9
$UCSXDIR
 10
1.0
 20
0.0
 30
0.0
  9
$UCSYDIR
 10
0.0
 20
1.0
 30
0.0
  9
$PUCSNAME
  2

  9
$PUCSORG
 10
0.0
 20
0.0
 30
0.0
  9
$PUCSXDIR
 10
1.0
 20
0.0
 30
0.0
  9
$PUCSYDIR
 10
0.0
 20
1.0
 30
0.0
  9
$USERI1
 70
     0
  9
$USERI2
 70
     0
  9
$USERI3
 70
     0
  9
$USERI4
 70
     0
  9
$USERI5
 70
     0
  9
$USERR1
 40
0.0
  9
$USERR2
 40
0.0
  9
$USERR3
 40
0.0
  9
$USERR4
 40
0.0
  9
$USERR5
 40
0.0
  9
$WORLDVIEW
 70
     1
  9
$SHADEDGE
 70
     3
  9
$SHADEDIF
 70
    70
  9
$TILEMODE
 70
     1
  9
$MAXACTVP
 70
    64
  9
$PLIMCHECK
 70
     0
  9
$PEXTMIN
 10
1.0000000000000000E+20
 20
1.0000000000000000E+20
 30
1.0000000000000000E+20
  9
$PEXTMAX
 10
-1.0000000000000000E+20
 20
-1.0000000000000000E+20
 30
-1.0000000000000000E+20
  9
$PLIMMIN
 10
0.0
 20
0.0
  9
$PLIMMAX
 10
12.0
 20
9.0
  9
$UNITMODE
 70
     0
  9
$VISRETAIN
 70
     1
  9
$PLINEGEN
 70
     0
  9
$PSLTSCALE
 70
     1
  0
ENDSEC
  0
SECTION
  2
TABLES
  0
TABLE
  2
VPORT
 70
     1
  0
VPORT
  2
*ACTIVE
 70
     0
 10
0.0
 20
0.0
 11
1.0
 21
1.0
 12
12.7324548814136698
 22
-0.259396303558038
 13
0.0
 23
0.0
 14
1.0
 24
1.0
 15
0.0
 25
0.0
 16
0.0
 26
0.0
 36
17.1680623797043488
 17
344.0564459565409834
 27
28.007897709065201
 37
0.0
 40
4.1659427468131449
 41
2.1441798941798931
 42
50.0
 43
0.0
 44
0.0
 50
0.0
 51
0.0
 71
     0
 72
   100
 73
     1
 74
     1
 75
     0
 76
     0
 77
     0
 78
     0
  0
ENDTAB
  0
TABLE
  2
LTYPE
 70
     2
  0
LTYPE
  2
CONTINUOUS
 70
     0
  3
Solid line
 72
    65
 73
     0
 40
0.0
  0
LTYPE
  2
PHANTOM2
 70
     0
  3
___ _ _ ___ _ _ ___ _ _ ___ _ _
 72
    65
 73
     6
 40
1.25
 49
0.625
 49
-0.125
 49
0.125
 49
-0.125
 49
0.125
 49
-0.125
  0
ENDTAB
  0
TABLE
  2
LAYER
 70
     2
  0
LAYER
  2
0
 70
     0
 62
   255
  6
CONTINUOUS
  0
LAYER
  2
DEFPOINTS
 70
     0
 62
     7
  6
CONTINUOUS
  0
ENDTAB
  0
TABLE
  2
STYLE
 70
     1
  0
STYLE
  2
STANDARD
 70
     0
 40
0.0
 41
0.8
 50
0.0
 71
     0
 42
0.2
  3
txt
  4

  0
ENDTAB
  0
TABLE
  2
VIEW
 70
     0
  0
ENDTAB
  0
TABLE
  2
UCS
 70
     0
  0
ENDTAB
  0
TABLE
  2
APPID
 70
    10
  0
APPID
  2
ACAD
 70
     0
  0
APPID
  2
ACAD_MLEADERVER
 70
     0
  0
APPID
  2
ACAD_EXEMPT_FROM_CAD_STANDARDS
 70
     0
  0
APPID
  2
ACAD_DSTYLE_DIMJAG
 70
     0
  0
APPID
  2
ACAD_DSTYLE_DIMTALN
 70
     0
  0
APPID
  2
ACAD_NAV_VCDISPLAY
 70
     0
  0
APPID
  2
ACAECLAYERSTANDARD
 70
     0
  0
APPID
  2
ACCMTRANSPARENCY
 70
     0
  0
APPID
  2
DCO15
 70
     0
  0
APPID
  2
ACDBATTR
 70
     0
  0
ENDTAB
  0
TABLE
  2
DIMSTYLE
 70
     1
  0
DIMSTYLE
  2
STANDARD
 70
     0
  3

  4

  5

  6

  7

 40
1.0
 41
0.1875
 42
0.0625
 43
0.38
 44
0.125
 45
0.0
 46
0.0
 47
0.01
 48
0.01
140
0.15625
141
0.09
142
0.0
143
25.3999999999999986
144
1.0
145
0.0
146
1.0
147
0.09
 71
     1
 72
     0
 73
     1
 74
     1
 75
     0
 76
     0
 77
     0
 78
     4
170
     0
171
     2
172
     0
173
     0
174
     0
175
     0
176
     0
177
     0
178
     0
  0
ENDTAB
  0
ENDSEC
  0
SECTION
  2
BLOCKS
  0
BLOCK
  8
0
  2
$MODEL_SPACE
 70
     0
 10
0.0
 20
0.0
 30
0.0
  3
$MODEL_SPACE
  1

  0
ENDBLK
  5
21
  8
0
  0
BLOCK
 67
     1
  8
0
  2
$PAPER_SPACE
 70
     0
 10
0.0
 20
0.0
 30
0.0
  3
$PAPER_SPACE
  1

  0
ENDBLK
  5
1D
 67
     1
  8
0
  0
ENDSEC
  0
SECTION
  2
ENTITIES
  0
ATTDEF
  5
829
  8
DEFPOINTS
 10
356.7812188426340754
 20
29.8127968067383797
 30
0.0
 40
0.001
  1
K-72419-Y
  3

  2
MODELNUMBER
 70
     0
1001
ACDBATTR
1070
     0
1070
     1
  0
ATTDEF
  5
82A
  8
DEFPOINTS
 10
356.7812188426340754
 20
29.8111301400717217
 30
0.0
 40
0.001
  1
AWAKEN
  3

  2
TRADENAME
 70
     0
1001
ACDBATTR
1070
     0
1070
     1
  0
ATTDEF
  5
82B
  8
DEFPOINTS
 10
356.7812188426340754
 20
29.8094634734050601
 30
0.0
 40
0.001
  1
SHOWERHEAD
  3

  2
PRODUCT
 70
     0
1001
ACDBATTR
1070
     0
1070
     1
  0
LINE
  5
7286
  8
0
 10
354.6305400781239996
 20
28.2925019867730683
 30
0.0
 11
354.6223340960893893
 21
27.6434238480730698
 31
0.0
  0
LINE
  5
7287
  8
0
 10
356.697737012647508
 20
27.8604313086474811
 30
0.0
 11
356.6967502611474856
 21
27.9008737261474806
 31
0.0
  0
LINE
  5
7288
  8
0
 10
356.697737012647508
 20
27.8604313086474811
 30
0.0
 11
356.6974669902475057
 21
27.78677414144747
 31
0.0
  0
LINE
  5
7289
  8
0
 10
356.7865303702474762
 20
27.8969789368474785
 30
0.0
 11
356.697737012647508
 21
27.8604313086474811
 31
0.0
  0
LINE
  5
728A
  8
0
 10
356.8749700269611935
 20
27.8082736348182991
 30
0.0
 11
356.8778035043475256
 21
27.8094297546474785
 31
0.0
  0
LINE
  5
728B
  8
0
 10
356.6926560395475008
 20
27.8094297511474799
 30
0.0
 11
356.6975427307643827
 21
27.8074347678073295
 31
0.0
  0
LINE
  5
728C
  8
0
 10
356.8750967171475281
 20
27.8601249285474815
 30
0.0
 11
356.8768570836475078
 21
27.8993095419474813
 31
0.0
  0
LINE
  5
728D
  8
0
 10
356.8750967171475281
 20
27.8601249285474815
 30
0.0
 11
356.7865303702474762
 21
27.8969789368474785
 31
0.0
  0
ARC
  5
728E
  8
0
 10
339.5462202979147719
 20
27.8723599118275516
 30
0.0
 40
17.3375932552888585
 50
359.8182542410892211
 51
0.062272357002502
  0
ARC
  5
728F
  8
0
 10
374.0232853560343074
 20
27.8723587984116605
 30
0.0
 40
17.336639373008591
 50
179.9377206888393061
 51
180.1817522856250093
  0
LINE
  5
7290
  8
0
 10
356.8749168217474903
 20
27.7864980005474713
 30
0.0
 11
356.8750967171475281
 21
27.8601249285474815
 31
0.0
  0
ARC
  5
7291
  8
0
 10
356.7769119644268017
 20
27.1074264565571497
 30
0.0
 40
2.7010781288841468
 50
89.8119818082023329
 51
102.2467163481498034
  0
ARC
  5
7292
  8
0
 10
356.6338498861317134
 20
27.3892831329938602
 30
0.0
 40
2.3966252261976342
 50
100.3333687462265971
 51
128.5218438228604896
  0
ARC
  5
7293
  8
0
 10
355.9478147070418004
 20
28.2204053985010503
 30
0.0
 40
1.319246135499837
 50
127.6922818572050033
 51
176.8672341912655099
  0
ARC
  5
7294
  8
0
 10
355.996604840735813
 20
27.6984799769142001
 30
0.0
 40
1.3753731337036901
 50
182.2941606214677108
 51
240.0997303385535986
  0
ARC
  5
7295
  8
0
 10
356.6486607895882912
 20
28.5769211629521003
 30
0.0
 40
2.4652259196617758
 50
237.1381786083408088
 51
257.0121740556147074
  0
ARC
  5
7296
  8
0
 10
356.7494821860977936
 20
28.8933017320281813
 30
0.0
 40
2.796303481104164
 50
256.456122041883873
 51
269.5553492936310249
  0
ARC
  5
7297
  8
0
 10
355.7735774496517251
 20
27.6205505503654614
 30
0.0
 40
1.151470558403173
 50
151.3935314274046959
 51
178.861777561763887
  0
ARC
  5
7298
  8
0
 10
356.2276155215017752
 20
27.3353301378970102
 30
0.0
 40
1.686967747194779
 50
118.6396693602350041
 51
150.2721828112429137
  0
ARC
  5
7299
  8
0
 10
356.6844609453377188
 20
26.5765831764635188
 30
0.0
 40
2.5721191089235869
 50
101.0885565328547955
 51
119.4702229852823052
  0
ARC
  5
729A
  8
0
 10
356.8285908116984047
 20
25.8535779589195904
 30
0.0
 40
3.3093473887591571
 50
90.7412933961747257
 51
101.1298736915614001
  0
ARC
  5
729B
  8
0
 10
356.7588565525364857
 20
26.4157092991482614
 30
0.0
 40
2.6367598311362959
 50
89.4150485044856538
 51
114.9636416199962952
  0
ARC
  5
729C
  8
0
 10
356.3653073038232151
 20
27.2178864982299196
 30
0.0
 40
1.7435259732905219
 50
114.3645922320910984
 51
142.8512077720154991
  0
ARC
  5
729D
  8
0
 10
355.8255997895328733
 20
27.6165219400601991
 30
0.0
 40
1.0726417815402209
 50
142.4141569522950874
 51
194.8758012939300102
  0
ARC
  5
729E
  8
0
 10
356.2571029383511245
 20
27.8533337750977701
 30
0.0
 40
1.5549695021854619
 50
199.2315205840714043
 51
246.8582036741318007
  0
ARC
  5
729F
  8
0
 10
356.7596757985386944
 20
28.8153097103995002
 30
0.0
 40
2.6383949672577889
 50
245.0322371375488899
 51
268.8488292996399878
  0
ARC
  5
72A0
  8
0
 10
356.7048356606571247
 20
26.1488186076924904
 30
0.0
 40
0.0286873199949946
 50
34.6640742933572596
 51
86.3349139555772354
  0
ARC
  5
72A1
  8
0
 10
356.7657460719157143
 20
26.3700693908167807
 30
0.0
 40
2.7186079476852769
 50
89.5778649094575172
 51
114.5689483918574041
  0
ARC
  5
72A2
  8
0
 10
356.3703965300886125
 20
27.2003662214117696
 30
0.0
 40
1.799160348798571
 50
114.1126631055822997
 51
141.7342674087811076
  0
ARC
  5
72A3
  8
0
 10
355.8580643185072745
 20
27.6095555396286585
 30
0.0
 40
1.143496371308631
 50
141.9337634665718895
 51
178.343550279723388
  0
ARC
  5
72A4
  8
0
 10
355.8563139718988282
 20
27.6448454650659698
 30
0.0
 40
1.1412703704604541
 50
180.1122288603822881
 51
218.9784541571355021
  0
ARC
  5
72A5
  8
0
 10
356.2281559940739726
 20
27.9129071324530287
 30
0.0
 40
1.5991557205121909
 50
218.0643297374523115
 51
248.6510287043448102
  0
LINE
  5
72A6
  8
0
 10
356.7001928685475036
 20
27.7827454992474792
 30
0.0
 11
356.7860858311412926
 21
27.7466265099369487
 31
0.0
  0
LINE
  5
72A7
  8
0
 10
356.7860858311412926
 20
27.7466265099369487
 30
0.0
 11
356.8721888389475225
 21
27.7824737535474817
 31
0.0
  0
ARC
  5
72A8
  8
0
 10
356.8707233129982228
 20
27.7864039687205988
 30
0.0
 40
0.0041945628634269
 50
290.4498290094649064
 51
1.2845386642185681
  0
ARC
  5
72A9
  8
0
 10
356.7017149689856979
 20
27.7867119090209691
 30
0.0
 40
0.0042484345629161
 50
179.1606831027727935
 51
249.0058120850432033
  0
ARC
  5
72AA
  8
0
 10
356.6950404748648111
 20
27.8173874941999308
 30
0.0
 40
0.0083072983758135
 50
180.1618844807375979
 51
253.3198318676228951
  0
ARC
  5
72AB
  8
0
 10
356.875419104191792
 20
27.8173874647888688
 30
0.0
 40
0.0083072567552261
 50
286.6800011203221175
 51
359.8387486282941268
  0
ARC
  5
72AC
  8
0
 10
356.7009755978584167
 20
27.8863599562821598
 30
0.0
 40
0.0151163152264198
 50
106.2316547512386933
 51
161.3123446541121098
  0
ARC
  5
72AD
  8
0
 10
356.9907038086290072
 20
27.3174292252961592
 30
0.0
 40
0.6533116971634757
 50
108.6776611994739028
 51
116.7400782620184003
  0
ARC
  5
72AE
  8
0
 10
356.5716966576258073
 20
27.2988419502555004
 30
0.0
 40
0.6735608467555911
 50
63.0601106155701103
 51
71.1316536048650647
  0
ARC
  5
72AF
  8
0
 10
356.8726977708200252
 20
27.8887161705546696
 30
0.0
 40
0.0113806590610209
 50
12.6238333281172501
 51
68.5633634874797337
  0
ARC
  5
72B0
  8
0
 10
356.7848666727992963
 20
27.8956152107558317
 30
0.0
 40
0.0408593776155926
 50
83.456844378325215
 51
94.7476122155239864
  0
ARC
  5
72B1
  8
0
 10
356.7866293350593878
 20
27.8040521419955802
 30
0.0
 40
0.0262413957972956
 50
58.5733711215339667
 51
135.7423447718967964
  0
ARC
  5
72B2
  8
0
 10
356.7863040980843152
 20
27.8275797900061583
 30
0.0
 40
0.027537556278951
 50
241.1421035250164948
 51
298.7999046603441116
  0
ARC
  5
72B3
  8
0
 10
356.7779714387385184
 20
27.8149811957569604
 30
0.0
 40
0.0125410188795557
 50
143.9263986853667063
 51
246.712467538858192
  0
ARC
  5
72B4
  8
0
 10
356.7946099496749071
 20
27.815118162872821
 30
0.0
 40
0.0126802467159445
 50
293.0287684970296027
 51
63.2780570158123723
  0
LINE
  5
72B5
  8
0
 10
356.9214300245956224
 20
27.772112887423539
 30
0.0
 11
356.9204432730956
 21
27.8125553049235386
 31
0.0
  0
LINE
  5
72B6
  8
0
 10
356.9214300245956224
 20
27.772112887423539
 30
0.0
 11
356.9211600021956201
 21
27.6984557202235386
 31
0.0
  0
LINE
  5
72B7
  8
0
 10
357.0102233821955906
 20
27.80866051562354
 30
0.0
 11
356.9214300245956224
 21
27.772112887423539
 31
0.0
  0
LINE
  5
72B8
  8
0
 10
357.0986630389093079
 20
27.7199552135943605
 30
0.0
 11
357.1014965162955832
 21
27.7211113334235293
 31
0.0
  0
LINE
  5
72B9
  8
0
 10
356.9163490514956152
 20
27.7211113299235414
 30
0.0
 11
356.9212357427124971
 21
27.719116346583391
 31
0.0
  0
LINE
  5
72BA
  8
0
 10
357.0987897290955857
 20
27.7718065073235287
 30
0.0
 11
357.1005500955956222
 21
27.8109911207235392
 31
0.0
  0
LINE
  5
72BB
  8
0
 10
357.0987897290955857
 20
27.7718065073235287
 30
0.0
 11
357.0102233821955906
 21
27.80866051562354
 31
0.0
  0
ARC
  5
72BC
  8
0
 10
339.769913309863
 20
27.7840414906036095
 30
0.0
 40
17.3375932552888585
 50
359.8182542410892211
 51
0.062272357002502
  0
ARC
  5
72BD
  8
0
 10
374.2469783679824218
 20
27.7840403771877185
 30
0.0
 40
17.336639373008591
 50
179.9377206888393061
 51
180.1817522856250093
  0
LINE
  5
72BE
  8
0
 10
357.0986098336956047
 20
27.6981795793235399
 30
0.0
 11
357.0987897290955857
 21
27.7718065073235287
 31
0.0
  0
LINE
  5
72BF
  8
0
 10
356.923885880495618
 20
27.69442707802353
 30
0.0
 11
357.009778843089407
 21
27.6583080887129995
 31
0.0
  0
LINE
  5
72C0
  8
0
 10
357.009778843089407
 20
27.6583080887129995
 30
0.0
 11
357.0958818508955801
 21
27.694155332323529
 31
0.0
  0
ARC
  5
72C1
  8
0
 10
357.0944163249462804
 20
27.6980855474966603
 30
0.0
 40
0.0041945628634269
 50
290.4498290094649064
 51
1.2845386642185681
  0
ARC
  5
72C2
  8
0
 10
356.9254079809338123
 20
27.6983934877970306
 30
0.0
 40
0.0042484345629161
 50
179.1606831027725946
 51
249.0058120850432033
  0
ARC
  5
72C3
  8
0
 10
356.9187334868129255
 20
27.7290690729759994
 30
0.0
 40
0.0083072983758135
 50
180.1618844807375979
 51
253.3198318676228951
  0
ARC
  5
72C4
  8
0
 10
357.0991121161397928
 20
27.7290690435649303
 30
0.0
 40
0.0083072567552261
 50
286.6800011203221175
 51
359.8387486282941268
  0
ARC
  5
72C5
  8
0
 10
356.9246686098064743
 20
27.7980415350582106
 30
0.0
 40
0.0151163152264198
 50
106.2316547512386933
 51
161.3123446541121098
  0
ARC
  5
72C6
  8
0
 10
357.2143968205771216
 20
27.2291108040722207
 30
0.0
 40
0.6533116971634757
 50
108.6776611994739028
 51
116.7400782620184003
  0
ARC
  5
72C7
  8
0
 10
356.7953896695739218
 20
27.2105235290315512
 30
0.0
 40
0.6735608467555911
 50
63.0601106155701103
 51
71.1316536048650647
  0
ARC
  5
72C8
  8
0
 10
357.0963907827680828
 20
27.800397749330731
 30
0.0
 40
0.0113806590610209
 50
12.6238333281172501
 51
68.5633634874797337
  0
ARC
  5
72C9
  8
0
 10
357.0085596847475244
 20
27.807296789531879
 30
0.0
 40
0.0408593776155926
 50
83.456844378325215
 51
94.7476122155239864
  0
ARC
  5
72CA
  8
0
 10
357.0103223470075022
 20
27.715733720771631
 30
0.0
 40
0.0262413957972956
 50
58.5733711215339667
 51
135.7423447718967964
  0
ARC
  5
72CB
  8
0
 10
357.0099971100323728
 20
27.7392613687822198
 30
0.0
 40
0.027537556278951
 50
241.1421035250164948
 51
298.7999046603441116
  0
ARC
  5
72CC
  8
0
 10
357.0016644506865759
 20
27.7266627745330183
 30
0.0
 40
0.0125410188795557
 50
143.9263986853667063
 51
246.712467538858192
  0
ARC
  5
72CD
  8
0
 10
357.0183029616230215
 20
27.7267997416488683
 30
0.0
 40
0.0126802467159445
 50
293.0287684970296027
 51
63.2780570158123723
  0
LINE
  5
72CE
  8
0
 10
357.1426647275956157
 20
27.6770788560235417
 30
0.0
 11
357.1416779760955933
 21
27.7175212735235412
 31
0.0
  0
LINE
  5
72CF
  8
0
 10
357.1426647275956157
 20
27.6770788560235417
 30
0.0
 11
357.1423947051956134
 21
27.6034216888235306
 31
0.0
  0
LINE
  5
72D0
  8
0
 10
357.2314580851955839
 20
27.7136264842235285
 30
0.0
 11
357.1426647275956157
 21
27.6770788560235417
 31
0.0
  0
LINE
  5
72D1
  8
0
 10
357.3198977419093012
 20
27.6249211821943597
 30
0.0
 11
357.3227312192955765
 21
27.6260773020235284
 31
0.0
  0
LINE
  5
72D2
  8
0
 10
357.1375837544956084
 20
27.6260772985235405
 30
0.0
 11
357.1424704457124903
 21
27.6240823151833901
 31
0.0
  0
LINE
  5
72D3
  8
0
 10
357.320024432095579
 20
27.6767724759235314
 30
0.0
 11
357.3217847985956155
 21
27.7159570893235383
 31
0.0
  0
LINE
  5
72D4
  8
0
 10
357.320024432095579
 20
27.6767724759235314
 30
0.0
 11
357.2314580851955839
 21
27.7136264842235285
 31
0.0
  0
ARC
  5
72D5
  8
0
 10
339.9911480128629933
 20
27.6890074592036015
 30
0.0
 40
17.3375932552888585
 50
359.8182542410892211
 51
0.062272357002502
  0
ARC
  5
72D6
  8
0
 10
374.468213070982415
 20
27.6890063457877211
 30
0.0
 40
17.336639373008591
 50
179.9377206888393061
 51
180.1817522856250093
  0
LINE
  5
72D7
  8
0
 10
357.319844536695598
 20
27.6031455479235284
 30
0.0
 11
357.320024432095579
 21
27.6767724759235314
 31
0.0
  0
LINE
  5
72D8
  8
0
 10
357.1451205834956113
 20
27.5993930466235291
 30
0.0
 11
357.231013546089514
 21
27.5632740573129986
 31
0.0
  0
LINE
  5
72D9
  8
0
 10
357.231013546089514
 20
27.5632740573129986
 30
0.0
 11
357.3171165538955734
 21
27.5991213009235317
 31
0.0
  0
ARC
  5
72DA
  8
0
 10
357.3156510279462736
 20
27.6030515160966594
 30
0.0
 40
0.0041945628634269
 50
290.4498290094649064
 51
1.2845386642185681
  0
ARC
  5
72DB
  8
0
 10
357.1466426839338055
 20
27.6033594563970297
 30
0.0
 40
0.0042484345629161
 50
179.1606831027725946
 51
249.0058120850432033
  0
ARC
  5
72DC
  8
0
 10
357.1399681898129188
 20
27.6340350415759914
 30
0.0
 40
0.0083072983758135
 50
180.1618844807375979
 51
253.3198318676228951
  0
ARC
  5
72DD
  8
0
 10
357.320346819139786
 20
27.6340350121649294
 30
0.0
 40
0.0083072567552261
 50
286.6800011203221175
 51
359.8387486282941268
  0
ARC
  5
72DE
  8
0
 10
357.1459033128065244
 20
27.7030075036582097
 30
0.0
 40
0.0151163152264198
 50
106.2316547512386933
 51
161.3123446541121098
  0
ARC
  5
72DF
  8
0
 10
357.4356315235771149
 20
27.1340767726722198
 30
0.0
 40
0.6533116971634757
 50
108.6776611994739028
 51
116.7400782620184003
  0
ARC
  5
72E0
  8
0
 10
357.016624372573915
 20
27.1154894976315504
 30
0.0
 40
0.6735608467555911
 50
63.0601106155701103
 51
71.1316536048650647
  0
ARC
  5
72E1
  8
0
 10
357.317625485768076
 20
27.7053637179307302
 30
0.0
 40
0.0113806590610209
 50
12.6238333281172501
 51
68.5633634874797337
  0
ARC
  5
72E2
  8
0
 10
357.2297943877475177
 20
27.7122627581318817
 30
0.0
 40
0.0408593776155926
 50
83.456844378325215
 51
94.7476122155239864
  0
ARC
  5
72E3
  8
0
 10
357.2315570500074955
 20
27.6206996893716301
 30
0.0
 40
0.0262413957972956
 50
58.5733711215339667
 51
135.7423447718967964
  0
ARC
  5
72E4
  8
0
 10
357.2312318130324229
 20
27.6442273373822189
 30
0.0
 40
0.027537556278951
 50
241.1421035250164948
 51
298.7999046603441116
  0
ARC
  5
72E5
  8
0
 10
357.2228991536866261
 20
27.631628743133021
 30
0.0
 40
0.0125410188795557
 50
143.9263986853667063
 51
246.712467538858192
  0
ARC
  5
72E6
  8
0
 10
357.2395376646231284
 20
27.631765710248871
 30
0.0
 40
0.0126802467159445
 50
293.0287684970296027
 51
63.2780570158123723
  0
LINE
  5
72E7
  8
0
 10
357.1389639271455962
 20
27.4954221763235296
 30
0.0
 11
357.1379771756455739
 21
27.5358645938235291
 31
0.0
  0
LINE
  5
72E8
  8
0
 10
357.1389639271455962
 20
27.4954221763235296
 30
0.0
 11
357.138693904745594
 21
27.4217650091235292
 31
0.0
  0
LINE
  5
72E9
  8
0
 10
357.2277572847456213
 20
27.5319698045235306
 30
0.0
 11
357.1389639271455962
 21
27.4954221763235296
 31
0.0
  0
LINE
  5
72EA
  8
0
 10
357.3161969414592818
 20
27.4432645024943582
 30
0.0
 11
357.3190304188456139
 21
27.4444206223235412
 31
0.0
  0
LINE
  5
72EB
  8
0
 10
357.133882954045589
 20
27.4444206188235285
 30
0.0
 11
357.1387696452625278
 21
27.4424256354833886
 31
0.0
  0
LINE
  5
72EC
  8
0
 10
357.3163236316456164
 20
27.4951157962235406
 30
0.0
 11
357.3180839981455961
 21
27.5343004096235298
 31
0.0
  0
LINE
  5
72ED
  8
0
 10
357.3163236316456164
 20
27.4951157962235406
 30
0.0
 11
357.2277572847456213
 21
27.5319698045235306
 31
0.0
  0
ARC
  5
72EE
  8
0
 10
339.9874472124129738
 20
27.5073507795036107
 30
0.0
 40
17.3375932552888585
 50
359.8182542410892211
 51
0.062272357002502
  0
ARC
  5
72EF
  8
0
 10
374.4645122705325093
 20
27.507349666087709
 30
0.0
 40
17.336639373008591
 50
179.9377206888393061
 51
180.1817522856250093
  0
LINE
  5
72F0
  8
0
 10
357.3161437362455786
 20
27.4214888682235411
 30
0.0
 11
357.3163236316456164
 21
27.4951157962235406
 31
0.0
  0
LINE
  5
72F1
  8
0
 10
357.1414197830455919
 20
27.4177363669235312
 30
0.0
 11
357.2273127456393809
 21
27.3816173776130114
 31
0.0
  0
LINE
  5
72F2
  8
0
 10
357.2273127456393809
 20
27.3816173776130114
 30
0.0
 11
357.3134157534456108
 21
27.4174646212235409
 31
0.0
  0
ARC
  5
72F3
  8
0
 10
357.3119502274963111
 20
27.4213948363966615
 30
0.0
 40
0.0041945628634269
 50
290.4498290094649064
 51
1.2845386642185681
  0
ARC
  5
72F4
  8
0
 10
357.1429418834837861
 20
27.4217027766970283
 30
0.0
 40
0.0042484345629161
 50
179.1606831027725946
 51
249.0058120850432033
  0
ARC
  5
72F5
  8
0
 10
357.1362673893628994
 20
27.45237836187599
 30
0.0
 40
0.0083072983758135
 50
180.1618844807375979
 51
253.3198318676228951
  0
ARC
  5
72F6
  8
0
 10
357.3166460186898234
 20
27.4523783324649315
 30
0.0
 40
0.0083072567552261
 50
286.6800011203221175
 51
359.8387486282941268
  0
ARC
  5
72F7
  8
0
 10
357.1422025123565049
 20
27.5213508239582083
 30
0.0
 40
0.0151163152264198
 50
106.2316547512386933
 51
161.3123446541121098
  0
ARC
  5
72F8
  8
0
 10
357.4319307231272091
 20
26.9524200929722184
 30
0.0
 40
0.6533116971634757
 50
109.2311852091518034
 51
116.7400782620184003
  0
ARC
  5
72F9
  8
0
 10
357.0129235721238956
 20
26.9338328179315489
 30
0.0
 40
0.6735608467555911
 50
63.0601106155701103
 51
70.1875983925106226
  0
ARC
  5
72FA
  8
0
 10
357.3139246853181135
 20
27.5237070382307216
 30
0.0
 40
0.0113806590610209
 50
12.6238333281172501
 51
68.5633634874797337
  0
ARC
  5
72FB
  8
0
 10
357.2278562495574761
 20
27.4390430096716287
 30
0.0
 40
0.0262413957972956
 50
58.5733711215339667
 51
135.7423447718967964
  0
ARC
  5
72FC
  8
0
 10
357.2275310125824035
 20
27.4625706576822211
 30
0.0
 40
0.027537556278951
 50
241.1421035250164948
 51
298.7999046603441116
  0
ARC
  5
72FD
  8
0
 10
357.2191983532367203
 20
27.4499720634330195
 30
0.0
 40
0.0125410188795557
 50
143.9263986853667063
 51
246.712467538858192
  0
ARC
  5
72FE
  8
0
 10
357.2358368641729953
 20
27.4501090305488802
 30
0.0
 40
0.0126802467159445
 50
293.0287684970296027
 51
63.2780570158123723
  0
LINE
  5
72FF
  8
0
 10
357.1426886550955828
 20
27.3109206722235385
 30
0.0
 11
357.1417019035956173
 21
27.3513630897235416
 31
0.0
  0
LINE
  5
7300
  8
0
 10
357.1426886550955828
 20
27.3109206722235385
 30
0.0
 11
357.1424186326955805
 21
27.237263505023531
 31
0.0
  0
LINE
  5
7301
  8
0
 10
357.2314820126956079
 20
27.3474683004235288
 30
0.0
 11
357.1426886550955828
 21
27.3109206722235385
 31
0.0
  0
LINE
  5
7302
  8
0
 10
357.3199216694093252
 20
27.25876299839436
 30
0.0
 11
357.3227551467956005
 21
27.2599191182235288
 31
0.0
  0
LINE
  5
7303
  8
0
 10
357.1376076819955756
 20
27.2599191147235409
 30
0.0
 11
357.1424943732125143
 21
27.2579241313833904
 31
0.0
  0
LINE
  5
7304
  8
0
 10
357.320048359595603
 20
27.3106142921235318
 30
0.0
 11
357.3218087260955826
 21
27.3497989055235387
 31
0.0
  0
LINE
  5
7305
  8
0
 10
357.320048359595603
 20
27.3106142921235318
 30
0.0
 11
357.2314820126956079
 21
27.3474683004235288
 31
0.0
  0
ARC
  5
7306
  8
0
 10
339.9911719403629036
 20
27.322849275403609
 30
0.0
 40
17.3375932552888585
 50
359.8182542410892211
 51
0.062272357002502
  0
ARC
  5
7307
  8
0
 10
374.4682369984824959
 20
27.3228481619877215
 30
0.0
 40
17.336639373008591
 50
179.9377206888393061
 51
180.1817522856250093
  0
LINE
  5
7308
  8
0
 10
357.319868464195622
 20
27.2369873641235287
 30
0.0
 11
357.320048359595603
 21
27.3106142921235318
 31
0.0
  0
LINE
  5
7309
  8
0
 10
357.1451445109955785
 20
27.2332348628235401
 30
0.0
 11
357.2310374735894243
 21
27.197115873512999
 31
0.0
  0
LINE
  5
730A
  8
0
 10
357.2310374735894243
 20
27.197115873512999
 30
0.0
 11
357.3171404813955974
 21
27.2329631171235285
 31
0.0
  0
ARC
  5
730B
  8
0
 10
357.315674955446184
 20
27.2368933322966598
 30
0.0
 40
0.0041945628634269
 50
290.4498290094649064
 51
1.2845386642185681
  0
ARC
  5
730C
  8
0
 10
357.1466666114337727
 20
27.2372012725970301
 30
0.0
 40
0.0042484345629161
 50
179.1606831027725946
 51
249.0058120850432033
  0
ARC
  5
730D
  8
0
 10
357.139992117312886
 20
27.2678768577759989
 30
0.0
 40
0.0083072983758135
 50
180.1618844807375979
 51
253.3198318676228951
  0
ARC
  5
730E
  8
0
 10
357.3203707466399237
 20
27.2678768283649298
 30
0.0
 40
0.0083072567552261
 50
286.6800011203221175
 51
359.8387486282941268
  0
ARC
  5
730F
  8
0
 10
357.1459272403064915
 20
27.3368493198582101
 30
0.0
 40
0.0151163152264198
 50
106.2316547512386933
 51
161.3123446541121098
  0
ARC
  5
7310
  8
0
 10
357.435655451077082
 20
26.7679185888722202
 30
0.0
 40
0.6533116971634757
 50
109.2647002894469068
 51
116.7400782620184003
  0
ARC
  5
7311
  8
0
 10
357.0166483000738822
 20
26.7493313138315507
 30
0.0
 40
0.6735608467555911
 50
63.0601106155701103
 51
70.8833777921192763
  0
ARC
  5
7312
  8
0
 10
357.3176494132681
 20
27.3392055341307305
 30
0.0
 40
0.0113806590610209
 50
12.6238333281172501
 51
68.5633634874797337
  0
ARC
  5
7313
  8
0
 10
357.2315809775075195
 20
27.2545415055716305
 30
0.0
 40
0.0262413957972956
 50
58.5733711215339667
 51
135.7423447718967964
  0
ARC
  5
7314
  8
0
 10
357.2312557405323901
 20
27.2780691535822193
 30
0.0
 40
0.027537556278951
 50
241.1421035250164948
 51
298.7999046603441116
  0
ARC
  5
7315
  8
0
 10
357.2229230811867069
 20
27.2654705593330213
 30
0.0
 40
0.0125410188795557
 50
143.9263986853667063
 51
246.712467538858192
  0
ARC
  5
7316
  8
0
 10
357.2395615921230956
 20
27.2656075264488784
 30
0.0
 40
0.0126802467159445
 50
293.0287684970296027
 51
63.2780570158123723
  0
LINE
  5
7317
  8
0
 10
356.9197906499956048
 20
27.2198367441235298
 30
0.0
 11
356.9188038984955824
 21
27.2602791616235294
 31
0.0
  0
LINE
  5
7318
  8
0
 10
356.9197906499956048
 20
27.2198367441235298
 30
0.0
 11
356.9195206275956025
 21
27.1461795769235295
 31
0.0
  0
LINE
  5
7319
  8
0
 10
357.008584007595573
 20
27.2563843723235308
 30
0.0
 11
356.9197906499956048
 21
27.2198367441235298
 31
0.0
  0
LINE
  5
731A
  8
0
 10
357.0970236643092903
 20
27.1676790702943585
 30
0.0
 11
357.0998571416956224
 21
27.1688351901235414
 31
0.0
  0
LINE
  5
731B
  8
0
 10
356.9147096768955976
 20
27.1688351866235287
 30
0.0
 11
356.9195963681124795
 21
27.1668402032833889
 31
0.0
  0
LINE
  5
731C
  8
0
 10
357.0971503544956249
 20
27.2195303640235409
 30
0.0
 11
357.0989107209956046
 21
27.2587149774235407
 31
0.0
  0
LINE
  5
731D
  8
0
 10
357.0971503544956249
 20
27.2195303640235409
 30
0.0
 11
357.008584007595573
 21
27.2563843723235308
 31
0.0
  0
ARC
  5
731E
  8
0
 10
339.7682739352629824
 20
27.231765347303611
 30
0.0
 40
17.3375932552888585
 50
359.8182542410892211
 51
0.062272357002502
  0
ARC
  5
731F
  8
0
 10
374.2453389933825179
 20
27.2317642338877199
 30
0.0
 40
17.336639373008591
 50
179.9377206888393061
 51
180.1817522856250093
  0
LINE
  5
7320
  8
0
 10
357.0969704590955871
 20
27.1459034360235307
 30
0.0
 11
357.0971503544956249
 21
27.2195303640235409
 31
0.0
  0
LINE
  5
7321
  8
0
 10
356.9222465058956004
 20
27.1421509347235315
 30
0.0
 11
357.0081394684895031
 21
27.1060319454130116
 31
0.0
  0
LINE
  5
7322
  8
0
 10
357.0081394684895031
 20
27.1060319454130116
 30
0.0
 11
357.0942424762956193
 21
27.1418791890235411
 31
0.0
  0
ARC
  5
7323
  8
0
 10
357.0927769503463196
 20
27.1458094041966618
 30
0.0
 40
0.0041945628634269
 50
290.4498290094649064
 51
1.2845386642185681
  0
ARC
  5
7324
  8
0
 10
356.9237686063339083
 20
27.1461173444970285
 30
0.0
 40
0.0042484345629161
 50
179.1606831027725946
 51
249.0058120850432033
  0
ARC
  5
7325
  8
0
 10
356.9170941122129079
 20
27.1767929296759903
 30
0.0
 40
0.0083072983758135
 50
180.1618844807375979
 51
253.3198318676228951
  0
ARC
  5
7326
  8
0
 10
357.0974727415397751
 20
27.1767929002649318
 30
0.0
 40
0.0083072567552261
 50
286.6800011203221175
 51
359.8387486282941268
  0
ARC
  5
7327
  8
0
 10
356.9230292352066272
 20
27.2457653917582086
 30
0.0
 40
0.0151163152264198
 50
106.2316547512386933
 51
161.3123446541121098
  0
ARC
  5
7328
  8
0
 10
357.212757445977104
 20
26.6768346607722115
 30
0.0
 40
0.6533116971634757
 50
108.6776611994739028
 51
116.7400782620184003
  0
ARC
  5
7329
  8
0
 10
356.7937502949739041
 20
26.6582473857315492
 30
0.0
 40
0.6735608467555911
 50
63.0601106155701103
 51
71.1316536048650647
  0
ARC
  5
732A
  8
0
 10
357.094751408168122
 20
27.2481216060307183
 30
0.0
 40
0.0113806590610209
 50
12.6238333281172501
 51
68.5633634874797337
  0
ARC
  5
732B
  8
0
 10
357.0069203101475068
 20
27.2550206462318911
 30
0.0
 40
0.0408593776155926
 50
83.456844378325215
 51
94.7476122155239864
  0
ARC
  5
732C
  8
0
 10
357.0086829724074846
 20
27.1634575774716289
 30
0.0
 40
0.0262413957972956
 50
58.5733711215339667
 51
135.7423447718967964
  0
ARC
  5
732D
  8
0
 10
357.008357735432412
 20
27.1869852254822213
 30
0.0
 40
0.027537556278951
 50
241.1421035250164948
 51
298.7999046603441116
  0
ARC
  5
732E
  8
0
 10
357.000025076086672
 20
27.1743866312330198
 30
0.0
 40
0.0125410188795557
 50
143.9263986853667063
 51
246.712467538858192
  0
ARC
  5
732F
  8
0
 10
357.0166635870231175
 20
27.1745235983488804
 30
0.0
 40
0.0126802467159445
 50
293.0287684970296027
 51
63.2780570158123723
  0
LINE
  5
7330
  8
0
 10
356.6951470409508147
 20
27.128848147494331
 30
0.0
 11
356.6941602894507923
 21
27.1692905649943306
 31
0.0
  0
LINE
  5
7331
  8
0
 10
356.6951470409508147
 20
27.128848147494331
 30
0.0
 11
356.6948770185508124
 21
27.05519098029432
 31
0.0
  0
LINE
  5
7332
  8
0
 10
356.7839403985507829
 20
27.1653957756943214
 30
0.0
 11
356.6951470409508147
 21
27.128848147494331
 31
0.0
  0
LINE
  5
7333
  8
0
 10
356.8723800552643866
 20
27.076690473665149
 30
0.0
 11
356.8752135326507755
 21
27.0778465934943213
 31
0.0
  0
LINE
  5
7334
  8
0
 10
356.6900660678506938
 20
27.0778465899943193
 30
0.0
 11
356.6949527590675757
 21
27.0758516066541794
 31
0.0
  0
LINE
  5
7335
  8
0
 10
356.872506745450778
 20
27.1285417673943208
 30
0.0
 11
356.8742671119508145
 21
27.1677263807943312
 31
0.0
  0
LINE
  5
7336
  8
0
 10
356.872506745450778
 20
27.1285417673943208
 30
0.0
 11
356.7839403985507829
 21
27.1653957756943214
 31
0.0
  0
ARC
  5
7337
  8
0
 10
339.5436303262180786
 20
27.1407767506744015
 30
0.0
 40
17.3375932552888585
 50
359.8182542410892211
 51
0.062272357002502
  0
ARC
  5
7338
  8
0
 10
374.0206953843376141
 20
27.1407756372584998
 30
0.0
 40
17.336639373008591
 50
179.9377206888393061
 51
180.1817522856250093
  0
LINE
  5
7339
  8
0
 10
356.8723268500506833
 20
27.0549148393943213
 30
0.0
 11
356.872506745450778
 21
27.1285417673943208
 31
0.0
  0
LINE
  5
733A
  8
0
 10
356.6976028968506967
 20
27.0511623380943291
 30
0.0
 11
356.7857756349894203
 21
27.0150433487837915
 31
0.0
  0
LINE
  5
733B
  8
0
 10
356.7857756349894203
 20
27.0150433487837915
 30
0.0
 11
356.8695988672507724
 21
27.050890592394321
 31
0.0
  0
ARC
  5
733C
  8
0
 10
356.8681333413014158
 20
27.0548208075674488
 30
0.0
 40
0.0041945628634269
 50
290.4498290094649064
 51
1.2845386642185681
  0
ARC
  5
733D
  8
0
 10
356.6991249972890046
 20
27.0551287478678191
 30
0.0
 40
0.0042484345629161
 50
179.1606831027725946
 51
249.0058120850432033
  0
ARC
  5
733E
  8
0
 10
356.6924505031681178
 20
27.0858043330467915
 30
0.0
 40
0.0083072983758135
 50
180.1618844807375979
 51
253.3198318676228951
  0
ARC
  5
733F
  8
0
 10
356.8728291324949851
 20
27.0858043036357188
 30
0.0
 40
0.0083072567552261
 50
286.6800011203221175
 51
359.8387486282941268
  0
ARC
  5
7340
  8
0
 10
356.6983856261617234
 20
27.1547767951289991
 30
0.0
 40
0.0151163152264198
 50
106.2316547512386933
 51
161.3123446541121098
  0
ARC
  5
7341
  8
0
 10
356.9881138369323139
 20
26.5858460641429986
 30
0.0
 40
0.6533116971634757
 50
108.6776611994739028
 51
116.7400782620184003
  0
ARC
  5
7342
  8
0
 10
356.5691066859291141
 20
26.5672587891023397
 30
0.0
 40
0.6735608467555911
 50
63.0601106155701103
 51
71.1316536048650647
  0
ARC
  5
7343
  8
0
 10
356.8701077991232182
 20
27.1571330094015089
 30
0.0
 40
0.0113806590610209
 50
12.6238333281172501
 51
68.5633634874797337
  0
ARC
  5
7344
  8
0
 10
356.7822767011027167
 20
27.1640320496024898
 30
0.0
 40
0.0408593776157716
 50
83.4568443783481939
 51
94.7476122155010785
  0
ARC
  5
7345
  8
0
 10
356.7840393633625808
 20
27.0724689808424195
 30
0.0
 40
0.0262413957972956
 50
58.5733711215339667
 51
135.7423447718967964
  0
ARC
  5
7346
  8
0
 10
356.7837141263876219
 20
27.0959966288530083
 30
0.0
 40
0.027537556278951
 50
241.1421035250164948
 51
298.7999046603441116
  0
ARC
  5
7347
  8
0
 10
356.7753814670418251
 20
27.0833980346037997
 30
0.0
 40
0.0125410188795557
 50
143.9263986853667063
 51
246.712467538858192
  0
ARC
  5
7348
  8
0
 10
356.7920199779782138
 20
27.083535001719671
 30
0.0
 40
0.0126802467159445
 50
293.0287684970296027
 51
63.2780570158123723
  0
LINE
  5
7349
  8
0
 10
356.4752259128956098
 20
27.2198367551235307
 30
0.0
 11
356.4742391613955874
 21
27.2602791726235303
 31
0.0
  0
LINE
  5
734A
  8
0
 10
356.4752259128956098
 20
27.2198367551235307
 30
0.0
 11
356.4749558904956075
 21
27.146179587923541
 31
0.0
  0
LINE
  5
734B
  8
0
 10
356.564019270495578
 20
27.2563843833235318
 30
0.0
 11
356.4752259128956098
 21
27.2198367551235307
 31
0.0
  0
LINE
  5
734C
  8
0
 10
356.6524589272092953
 20
27.1676790812943594
 30
0.0
 11
356.6552924045956274
 21
27.1688352011235317
 31
0.0
  0
LINE
  5
734D
  8
0
 10
356.4701449397956026
 20
27.1688351976235296
 30
0.0
 11
356.4750316310124845
 21
27.1668402142833898
 31
0.0
  0
LINE
  5
734E
  8
0
 10
356.6525856173955731
 20
27.2195303750235311
 30
0.0
 11
356.6543459838956096
 21
27.2587149884235416
 31
0.0
  0
LINE
  5
734F
  8
0
 10
356.6525856173955731
 20
27.2195303750235311
 30
0.0
 11
356.564019270495578
 21
27.2563843833235318
 31
0.0
  0
ARC
  5
7350
  8
0
 10
339.3237091981629874
 20
27.2317653583036083
 30
0.0
 40
17.3375932552888585
 50
359.8182542410892211
 51
0.062272357002502
  0
ARC
  5
7351
  8
0
 10
373.8007742562825229
 20
27.2317642448877208
 30
0.0
 40
17.336639373008591
 50
179.9377206888393061
 51
180.1817522856250093
  0
LINE
  5
7352
  8
0
 10
356.6524057219955921
 20
27.1459034470235316
 30
0.0
 11
356.6525856173955731
 21
27.2195303750235311
 31
0.0
  0
LINE
  5
7353
  8
0
 10
356.4776817687956054
 20
27.1421509457235288
 30
0.0
 11
356.5635747313895081
 21
27.1060319564129983
 31
0.0
  0
LINE
  5
7354
  8
0
 10
356.5635747313895081
 20
27.1060319564129983
 30
0.0
 11
356.6496777391956243
 21
27.1418792000235314
 31
0.0
  0
ARC
  5
7355
  8
0
 10
356.6482122132463246
 20
27.1458094151966591
 30
0.0
 40
0.0041945628634269
 50
290.4498290094649064
 51
1.2845386642185681
  0
ARC
  5
7356
  8
0
 10
356.4792038692337997
 20
27.1461173554970294
 30
0.0
 40
0.0042484345629161
 50
179.1606831027725946
 51
249.0058120850432033
  0
ARC
  5
7357
  8
0
 10
356.4725293751129129
 20
27.1767929406759983
 30
0.0
 40
0.0083072983758135
 50
180.1618844807375979
 51
253.3198318676228951
  0
ARC
  5
7358
  8
0
 10
356.6529080044397801
 20
27.1767929112649291
 30
0.0
 40
0.0083072567552261
 50
286.6800011203221175
 51
359.8387486282941268
  0
ARC
  5
7359
  8
0
 10
356.4784644981065753
 20
27.2457654027582095
 30
0.0
 40
0.0151163152264198
 50
106.2316547512386933
 51
161.3123446541121098
  0
ARC
  5
735A
  8
0
 10
356.768192708877109
 20
26.6768346717722196
 30
0.0
 40
0.6533116971634757
 50
108.6776611994739028
 51
116.7400782620184003
  0
ARC
  5
735B
  8
0
 10
356.3491855578739091
 20
26.6582473967315501
 30
0.0
 40
0.6735608467555911
 50
63.0601106155701103
 51
71.1316536048650647
  0
ARC
  5
735C
  8
0
 10
356.650186671068127
 20
27.2481216170307192
 30
0.0
 40
0.0113806590610209
 50
12.6238333281172501
 51
68.5633634874797337
  0
ARC
  5
735D
  8
0
 10
356.5623555730475118
 20
27.2550206572318814
 30
0.0
 40
0.0408593776155926
 50
83.456844378325215
 51
94.7476122155239864
  0
ARC
  5
735E
  8
0
 10
356.5641182353074896
 20
27.1634575884716298
 30
0.0
 40
0.0262413957972956
 50
58.5733711215339667
 51
135.7423447718967964
  0
ARC
  5
735F
  8
0
 10
356.563792998332417
 20
27.1869852364822187
 30
0.0
 40
0.027537556278951
 50
241.1421035250164948
 51
298.7999046603441116
  0
ARC
  5
7360
  8
0
 10
356.555460338986677
 20
27.1743866422330207
 30
0.0
 40
0.0125410188795557
 50
143.9263986853667063
 51
246.712467538858192
  0
ARC
  5
7361
  8
0
 10
356.5720988499231225
 20
27.1745236093488707
 30
0.0
 40
0.0126802467159445
 50
293.0287684970296027
 51
63.2780570158123723
  0
LINE
  5
7362
  8
0
 10
356.2531210478956041
 20
27.3122635177235296
 30
0.0
 11
356.2521342963955817
 21
27.3527059352235291
 31
0.0
  0
LINE
  5
7363
  8
0
 10
356.2531210478956041
 20
27.3122635177235296
 30
0.0
 11
356.2528510254956018
 21
27.2386063505235292
 31
0.0
  0
LINE
  5
7364
  8
0
 10
356.3419144054955723
 20
27.3488111459235306
 30
0.0
 11
356.2531210478956041
 21
27.3122635177235296
 31
0.0
  0
LINE
  5
7365
  8
0
 10
356.4303540622092896
 20
27.2601058438943618
 30
0.0
 11
356.4331875395956217
 21
27.2612619637235412
 31
0.0
  0
LINE
  5
7366
  8
0
 10
356.2480400747955969
 20
27.2612619602235284
 30
0.0
 11
356.2529267660124788
 21
27.2592669768833886
 31
0.0
  0
LINE
  5
7367
  8
0
 10
356.4304807523956242
 20
27.3119571376235406
 30
0.0
 11
356.4322411188956039
 21
27.3511417510235297
 31
0.0
  0
LINE
  5
7368
  8
0
 10
356.4304807523956242
 20
27.3119571376235406
 30
0.0
 11
356.3419144054955723
 21
27.3488111459235306
 31
0.0
  0
ARC
  5
7369
  8
0
 10
339.1016043331629817
 20
27.3241921209036107
 30
0.0
 40
17.3375932552888585
 50
359.8182542410892211
 51
0.062272357002502
  0
ARC
  5
736A
  8
0
 10
373.5786693912825172
 20
27.324191007487709
 30
0.0
 40
17.336639373008591
 50
179.9377206888393061
 51
180.1817522856250093
  0
LINE
  5
736B
  8
0
 10
356.4303008569955864
 20
27.2383302096235411
 30
0.0
 11
356.4304807523956242
 21
27.3119571376235406
 31
0.0
  0
LINE
  5
736C
  8
0
 10
356.2555769037955997
 20
27.2345777083235312
 30
0.0
 11
356.3414698663895024
 21
27.1984587190130114
 31
0.0
  0
LINE
  5
736D
  8
0
 10
356.3414698663895024
 20
27.1984587190130114
 30
0.0
 11
356.4275728741956186
 21
27.2343059626235409
 31
0.0
  0
ARC
  5
736E
  8
0
 10
356.4261073482463189
 20
27.2382361777966615
 30
0.0
 40
0.0041945628634269
 50
290.4498290094649064
 51
1.2845386642185681
  0
ARC
  5
736F
  8
0
 10
356.2570990042339076
 20
27.2385441180970282
 30
0.0
 40
0.0042484345629161
 50
179.1606831027725946
 51
249.0058120850432033
  0
ARC
  5
7370
  8
0
 10
356.2504245101129072
 20
27.26921970327599
 30
0.0
 40
0.0083072983758135
 50
180.1618844807375979
 51
253.3198318676228951
  0
ARC
  5
7371
  8
0
 10
356.4308031394397744
 20
27.2692196738649315
 30
0.0
 40
0.0083072567552261
 50
286.6800011203221175
 51
359.8387486282941268
  0
ARC
  5
7372
  8
0
 10
356.2563596331066265
 20
27.3381921653582083
 30
0.0
 40
0.0151163152264198
 50
106.2316547512386933
 51
161.3123446541121098
  0
ARC
  5
7373
  8
0
 10
356.5460878438771033
 20
26.7692614343722184
 30
0.0
 40
0.6533116971634757
 50
109.2519073615508063
 51
116.7400782620184003
  0
ARC
  5
7374
  8
0
 10
356.1270806928739034
 20
26.7506741593315489
 30
0.0
 40
0.6735608467555911
 50
63.0601106155701103
 51
70.4717983391731906
  0
ARC
  5
7375
  8
0
 10
356.4280818060681213
 20
27.3405483796307216
 30
0.0
 40
0.0113806590610209
 50
12.6238333281172501
 51
68.5633634874797337
  0
ARC
  5
7376
  8
0
 10
356.3420133703074839
 20
27.2558843510716287
 30
0.0
 40
0.0262413957972956
 50
58.5733711215339667
 51
135.7423447718967964
  0
ARC
  5
7377
  8
0
 10
356.3416881333324113
 20
27.279411999082221
 30
0.0
 40
0.027537556278951
 50
241.1421035250164948
 51
298.7999046603441116
  0
ARC
  5
7378
  8
0
 10
356.3333554739867282
 20
27.2668134048330195
 30
0.0
 40
0.0125410188795557
 50
143.9263986853667063
 51
246.712467538858192
  0
ARC
  5
7379
  8
0
 10
356.3499939849231168
 20
27.2669503719488802
 30
0.0
 40
0.0126802467159445
 50
293.0287684970296027
 51
63.2780570158123723
  0
LINE
  5
737A
  8
0
 10
356.2537076653956092
 20
27.4950580708235393
 30
0.0
 11
356.2527209138955868
 21
27.5355004883235388
 31
0.0
  0
LINE
  5
737B
  8
0
 10
356.2537076653956092
 20
27.4950580708235393
 30
0.0
 11
356.2534376429956069
 21
27.4214009036235389
 31
0.0
  0
LINE
  5
737C
  8
0
 10
356.3425010229955774
 20
27.5316056990235403
 30
0.0
 11
356.2537076653956092
 21
27.4950580708235393
 31
0.0
  0
LINE
  5
737D
  8
0
 10
356.4309406797092947
 20
27.4429003969943608
 30
0.0
 11
356.4337741570956268
 21
27.4440565168235295
 31
0.0
  0
LINE
  5
737E
  8
0
 10
356.248626692295602
 20
27.4440565133235417
 30
0.0
 11
356.2535133835124839
 21
27.4420615299833912
 31
0.0
  0
LINE
  5
737F
  8
0
 10
356.4310673698955725
 20
27.494751690723529
 30
0.0
 11
356.432827736395609
 21
27.5339363041235394
 31
0.0
  0
LINE
  5
7380
  8
0
 10
356.4310673698955725
 20
27.494751690723529
 30
0.0
 11
356.3425010229955774
 21
27.5316056990235403
 31
0.0
  0
ARC
  5
7381
  8
0
 10
339.1021909506629868
 20
27.5069866740036097
 30
0.0
 40
17.3375932552888585
 50
359.8182542410892211
 51
0.062272357002502
  0
ARC
  5
7382
  8
0
 10
373.5792560087825223
 20
27.5069855605877187
 30
0.0
 40
17.336639373008591
 50
179.9377206888393061
 51
180.1817522856250093
  0
LINE
  5
7383
  8
0
 10
356.4308874744955915
 20
27.4211247627235402
 30
0.0
 11
356.4310673698955725
 21
27.494751690723529
 31
0.0
  0
LINE
  5
7384
  8
0
 10
356.2561635212956048
 20
27.4173722614235302
 30
0.0
 11
356.3420564838895075
 21
27.3812532721129998
 31
0.0
  0
LINE
  5
7385
  8
0
 10
356.3420564838895075
 20
27.3812532721129998
 30
0.0
 11
356.4281594916956237
 21
27.4171005157235292
 31
0.0
  0
ARC
  5
7386
  8
0
 10
356.426693965746324
 20
27.4210307308966605
 30
0.0
 40
0.0041945628634269
 50
290.4498290094649064
 51
1.2845386642185681
  0
ARC
  5
7387
  8
0
 10
356.2576856217339127
 20
27.4213386711970308
 30
0.0
 40
0.0042484345629161
 50
179.1606831027725946
 51
249.0058120850432033
  0
ARC
  5
7388
  8
0
 10
356.2510111276129123
 20
27.4520142563759997
 30
0.0
 40
0.0083072983758135
 50
180.1618844807375979
 51
253.3198318676228951
  0
ARC
  5
7389
  8
0
 10
356.4313897569398932
 20
27.4520142269649305
 30
0.0
 40
0.0083072567552261
 50
286.6800011203221175
 51
359.8387486282941268
  0
ARC
  5
738A
  8
0
 10
356.2569462506065747
 20
27.5209867184582109
 30
0.0
 40
0.0151163152264198
 50
106.2316547512386933
 51
161.3123446541121098
  0
ARC
  5
738B
  8
0
 10
356.5466744613771084
 20
26.952055987472221
 30
0.0
 40
0.6533116971634757
 50
109.383650010025903
 51
116.7400782620184003
  0
ARC
  5
738C
  8
0
 10
356.1276673103739085
 20
26.9334687124315515
 30
0.0
 40
0.6735608467555911
 50
63.0601106155701103
 51
70.4182499493728216
  0
ARC
  5
738D
  8
0
 10
356.4286684235681264
 20
27.5233429327307313
 30
0.0
 40
0.0113806590610209
 50
12.6238333281172501
 51
68.5633634874797337
  0
ARC
  5
738E
  8
0
 10
356.342599987807489
 20
27.4386789041716312
 30
0.0
 40
0.0262413957972956
 50
58.5733711215339667
 51
135.7423447718967964
  0
ARC
  5
738F
  8
0
 10
356.3422747508324164
 20
27.4622065521822201
 30
0.0
 40
0.027537556278951
 50
241.1421035250164948
 51
298.7999046603441116
  0
ARC
  5
7390
  8
0
 10
356.3339420914866764
 20
27.4496079579330186
 30
0.0
 40
0.0125410188795557
 50
143.9263986853667063
 51
246.712467538858192
  0
ARC
  5
7391
  8
0
 10
356.3505806024231219
 20
27.4497449250488792
 30
0.0
 40
0.0126802467159445
 50
293.0287684970296027
 51
63.2780570158123723
  0
LINE
  5
7392
  8
0
 10
356.2535350137954993
 20
27.6770788487652304
 30
0.0
 11
356.2525482622955906
 21
27.7175212662652299
 31
0.0
  0
LINE
  5
7393
  8
0
 10
356.2535350137954993
 20
27.6770788487652304
 30
0.0
 11
356.2532649913956107
 21
27.60342168156523
 31
0.0
  0
LINE
  5
7394
  8
0
 10
356.3423283713955811
 20
27.7136264769652314
 30
0.0
 11
356.2535350137954993
 21
27.6770788487652304
 31
0.0
  0
LINE
  5
7395
  8
0
 10
356.4307680281092985
 20
27.6249211749360484
 30
0.0
 11
356.4336015054955737
 21
27.6260772947652313
 31
0.0
  0
LINE
  5
7396
  8
0
 10
356.2484540406956057
 20
27.6260772912652293
 30
0.0
 11
356.2533407319123739
 21
27.6240823079250788
 31
0.0
  0
LINE
  5
7397
  8
0
 10
356.4308947182955762
 20
27.6767724686652308
 30
0.0
 11
356.4326550847956128
 21
27.7159570820652306
 31
0.0
  0
LINE
  5
7398
  8
0
 10
356.4308947182955762
 20
27.6767724686652308
 30
0.0
 11
356.3423283713955811
 21
27.7136264769652314
 31
0.0
  0
ARC
  5
7399
  8
0
 10
339.1020182990628768
 20
27.6890074519453009
 30
0.0
 40
17.3375932552888585
 50
359.8182542410892211
 51
0.062272357002502
  0
ARC
  5
739A
  8
0
 10
373.5790833571824123
 20
27.6890063385294098
 30
0.0
 40
17.336639373008591
 50
179.9377206888393061
 51
180.1817522856250093
  0
LINE
  5
739B
  8
0
 10
356.4307148228955953
 20
27.6031455406652313
 30
0.0
 11
356.4308947182955762
 21
27.6767724686652308
 31
0.0
  0
LINE
  5
739C
  8
0
 10
356.2559908696956086
 20
27.5993930393652285
 30
0.0
 11
356.3418838322893976
 21
27.5632740500547015
 31
0.0
  0
LINE
  5
739D
  8
0
 10
356.3418838322893976
 20
27.5632740500547015
 30
0.0
 11
356.4279868400956275
 21
27.599121293665231
 31
0.0
  0
ARC
  5
739E
  8
0
 10
356.4265213141462141
 20
27.6030515088383517
 30
0.0
 40
0.0041945628634269
 50
290.4498290094649064
 51
1.2845386642185681
  0
ARC
  5
739F
  8
0
 10
356.2575129701338028
 20
27.6033594491387291
 30
0.0
 40
0.0042484345629161
 50
179.1606831027725946
 51
249.0058120850432033
  0
ARC
  5
73A0
  8
0
 10
356.2508384760129161
 20
27.6340350343176908
 30
0.0
 40
0.0083072983758135
 50
180.1618844807375979
 51
253.3198318676228951
  0
ARC
  5
73A1
  8
0
 10
356.4312171053397833
 20
27.6340350049066217
 30
0.0
 40
0.0083072567552261
 50
286.6800011203221175
 51
359.8387486282941268
  0
ARC
  5
73A2
  8
0
 10
356.2567735990065216
 20
27.7030074963999091
 30
0.0
 40
0.0151163152264198
 50
106.2316547512386933
 51
161.3123446541121098
  0
ARC
  5
73A3
  8
0
 10
356.5465018097771122
 20
27.1340767654139086
 30
0.0
 40
0.6533116971634757
 50
108.6776611994739028
 51
116.7400782620184003
  0
ARC
  5
73A4
  8
0
 10
356.1274946587737986
 20
27.1154894903732497
 30
0.0
 40
0.6735608467555911
 50
63.0601106155701103
 51
71.1316536048650647
  0
ARC
  5
73A5
  8
0
 10
356.4284957719680733
 20
27.7053637106724189
 30
0.0
 40
0.0113806590610209
 50
12.6238333281172501
 51
68.5633634874797337
  0
ARC
  5
73A6
  8
0
 10
356.3406646739474013
 20
27.712262750873581
 30
0.0
 40
0.0408593776155926
 50
83.456844378325215
 51
94.7476122155239864
  0
ARC
  5
73A7
  8
0
 10
356.3424273362073791
 20
27.6206996821133188
 30
0.0
 40
0.0262413957972956
 50
58.5733711215339667
 51
135.7423447718967964
  0
ARC
  5
73A8
  8
0
 10
356.3421020992324202
 20
27.6442273301239183
 30
0.0
 40
0.027537556278951
 50
241.1421035250164948
 51
298.7999046603441116
  0
ARC
  5
73A9
  8
0
 10
356.3337694398866233
 20
27.6316287358747097
 30
0.0
 40
0.0125410188795557
 50
143.9263986853667063
 51
246.712467538858192
  0
ARC
  5
73AA
  8
0
 10
356.350407950823012
 20
27.6317657029905703
 30
0.0
 40
0.0126802467159445
 50
293.0287684970296027
 51
63.2780570158123723
  0
LINE
  5
73AB
  8
0
 10
356.4792311570956258
 20
27.771652442823541
 30
0.0
 11
356.4782444055956034
 21
27.8120948603235298
 31
0.0
  0
LINE
  5
73AC
  8
0
 10
356.4792311570956258
 20
27.771652442823541
 30
0.0
 11
356.4789611346956235
 21
27.6979952756235406
 31
0.0
  0
LINE
  5
73AD
  8
0
 10
356.568024514695594
 20
27.8082000710235384
 30
0.0
 11
356.4792311570956258
 21
27.771652442823541
 31
0.0
  0
LINE
  5
73AE
  8
0
 10
356.6564641714093113
 20
27.7194947689943589
 30
0.0
 11
356.6592976487955866
 21
27.7206508888235312
 31
0.0
  0
LINE
  5
73AF
  8
0
 10
356.4741501839956186
 20
27.7206508853235292
 30
0.0
 11
356.4790368752123868
 21
27.7186559019833894
 31
0.0
  0
LINE
  5
73B0
  8
0
 10
356.6565908615955891
 20
27.7713460627235307
 30
0.0
 11
356.6583512280956256
 21
27.8105306761235305
 31
0.0
  0
LINE
  5
73B1
  8
0
 10
356.6565908615955891
 20
27.7713460627235307
 30
0.0
 11
356.568024514695594
 21
27.8082000710235384
 31
0.0
  0
ARC
  5
73B2
  8
0
 10
339.3277144423628897
 20
27.7835810460036114
 30
0.0
 40
17.3375932552888585
 50
359.8182542410892211
 51
0.062272357002502
  0
ARC
  5
73B3
  8
0
 10
373.8047795004824252
 20
27.7835799325877097
 30
0.0
 40
17.336639373008591
 50
179.9377206888393061
 51
180.1817522856250093
  0
LINE
  5
73B4
  8
0
 10
356.6564109661956081
 20
27.6977191347235383
 30
0.0
 11
356.6565908615955891
 21
27.7713460627235307
 31
0.0
  0
LINE
  5
73B5
  8
0
 10
356.4816870129956214
 20
27.6939666334235284
 30
0.0
 11
356.5675799755894104
 21
27.6578476441130015
 31
0.0
  0
LINE
  5
73B6
  8
0
 10
356.5675799755894104
 20
27.6578476441130015
 30
0.0
 11
356.6536829833955835
 21
27.6936948877235309
 31
0.0
  0
ARC
  5
73B7
  8
0
 10
356.6522174574462838
 20
27.6976251028966587
 30
0.0
 40
0.0041945628634269
 50
290.4498290094649064
 51
1.2845386642185681
  0
ARC
  5
73B8
  8
0
 10
356.4832091134338157
 20
27.6979330431970396
 30
0.0
 40
0.0042484345629161
 50
179.1606831027725946
 51
249.0058120850432033
  0
ARC
  5
73B9
  8
0
 10
356.4765346193128721
 20
27.7286086283760014
 30
0.0
 40
0.0083072983758135
 50
180.1618844807375979
 51
253.3198318676228951
  0
ARC
  5
73BA
  8
0
 10
356.6569132486399099
 20
27.7286085989649287
 30
0.0
 40
0.0083072567552261
 50
286.6800011203221175
 51
359.8387486282941268
  0
ARC
  5
73BB
  8
0
 10
356.4824697423064777
 20
27.797581090458209
 30
0.0
 40
0.0151163152264198
 50
106.2316547512386933
 51
161.3123446541121098
  0
ARC
  5
73BC
  8
0
 10
356.772197953077125
 20
27.2286503594722191
 30
0.0
 40
0.6533116971634757
 50
108.6776611994739028
 51
116.7400782620184003
  0
ARC
  5
73BD
  8
0
 10
356.3531908020739252
 20
27.2100630844315496
 30
0.0
 40
0.6735608467555911
 50
63.0601106155701103
 51
71.1316536048650647
  0
ARC
  5
73BE
  8
0
 10
356.6541919152680862
 20
27.7999373047307188
 30
0.0
 40
0.0113806590610209
 50
12.6238333281172501
 51
68.5633634874797337
  0
ARC
  5
73BF
  8
0
 10
356.5663608172475278
 20
27.8068363449318809
 30
0.0
 40
0.0408593776155926
 50
83.456844378325215
 51
94.7476122155239864
  0
ARC
  5
73C0
  8
0
 10
356.5681234795075056
 20
27.7152732761716294
 30
0.0
 40
0.0262413957972956
 50
58.5733711215339667
 51
135.7423447718967964
  0
ARC
  5
73C1
  8
0
 10
356.5677982425323762
 20
27.7388009241822218
 30
0.0
 40
0.027537556278951
 50
241.1421035250164948
 51
298.7999046603441116
  0
ARC
  5
73C2
  8
0
 10
356.5594655831865794
 20
27.7262023299330203
 30
0.0
 40
0.0125410188795557
 50
143.9263986853667063
 51
246.712467538858192
  0
ARC
  5
73C3
  8
0
 10
356.5761040941230249
 20
27.7263392970488809
 30
0.0
 40
0.0126802467159445
 50
293.0287684970296027
 51
63.2780570158123723
  0
LINE
  5
73C4
  8
0
 10
356.7244220409440913
 20
25.7451837785129989
 30
0.0
 11
356.7309178620932926
 21
26.4256407132736513
 31
0.0
  0
LINE
  5
73C5
  8
0
 10
358.9414012079238887
 20
28.2925019867730683
 30
0.0
 11
358.9492171738895081
 21
27.6434238480730698
 31
0.0
  0
ARC
  5
73C6
  8
0
 10
356.764272038481181
 20
26.8160877019661505
 30
0.0
 40
2.992479602352188
 50
78.3610444615415815
 51
89.588275914437915
  0
ARC
  5
73C7
  8
0
 10
356.9380913999161749
 20
27.3892831329938602
 30
0.0
 40
2.3966252261976342
 50
51.4781561771395175
 51
79.6666312537733461
  0
ARC
  5
73C8
  8
0
 10
357.6241265790059742
 20
28.2204053985010503
 30
0.0
 40
1.319246135499837
 50
3.1327658087344541
 51
52.3077181427949185
  0
ARC
  5
73C9
  8
0
 10
357.5764651419027018
 20
27.6973256474405396
 30
0.0
 40
1.3738098650462971
 50
299.8834607000723054
 51
357.7514075202769845
  0
ARC
  5
73CA
  8
0
 10
356.9232804964594834
 20
28.5769211629521003
 30
0.0
 40
2.4652259196617758
 50
282.9878259443852926
 51
302.8618213916593049
  0
ARC
  5
73CB
  8
0
 10
356.8224791914558978
 20
28.8931907310946414
 30
0.0
 40
2.796190861789873
 50
270.4439370913585208
 51
283.5440103794724109
  0
ARC
  5
73CC
  8
0
 10
357.8047101283470965
 20
27.6230807372263989
 30
0.0
 40
1.1446878262019731
 50
1.0183001257068309
 51
28.6473735572782893
  0
ARC
  5
73CD
  8
0
 10
357.3443257645459994
 20
27.3353301378970102
 30
0.0
 40
1.686967747194779
 50
29.7278171887571112
 51
61.3603306397650314
  0
ARC
  5
73CE
  8
0
 10
356.8874803407102263
 20
26.5765831764635188
 30
0.0
 40
2.5721191089235869
 50
60.5297770147176877
 51
78.9114434671451761
  0
ARC
  5
73CF
  8
0
 10
356.7434411361530238
 20
25.8541822904958316
 30
0.0
 40
3.3087369227034782
 50
78.8696466473482332
 51
89.2668941795038364
  0
ARC
  5
73D0
  8
0
 10
356.813058784569705
 20
26.4156320839228087
 30
0.0
 40
2.6368407841763508
 50
65.0365553196315318
 51
90.5928447504217331
  0
ARC
  5
73D1
  8
0
 10
357.2066339822246732
 20
27.2178864982299196
 30
0.0
 40
1.7435259732905219
 50
37.1487922279844511
 51
65.6354077679088874
  0
ARC
  5
73D2
  8
0
 10
357.746341496515015
 20
27.6165219400601991
 30
0.0
 40
1.0726417815402209
 50
345.1241987060698193
 51
37.5858430477048913
  0
ARC
  5
73D3
  8
0
 10
357.3148383476968206
 20
27.8533337750977701
 30
0.0
 40
1.5549695021854619
 50
293.1417963258680857
 51
340.7684794159284252
  0
ARC
  5
73D4
  8
0
 10
356.8122654875090802
 20
28.8153097103995002
 30
0.0
 40
2.6383949672577889
 50
271.1511707003601259
 51
294.9677628624510248
  0
ARC
  5
73D5
  8
0
 10
356.8671056253908205
 20
26.1488186076924904
 30
0.0
 40
0.0286873199949946
 50
93.6650860444195246
 51
145.1339106630244089
  0
ARC
  5
73D6
  8
0
 10
356.8061758634730154
 20
26.3700109487758283
 30
0.0
 40
2.718669144255685
 50
65.4311928274211141
 51
90.4299375541450132
  0
ARC
  5
73D7
  8
0
 10
357.2015447559592758
 20
27.2003662214117696
 30
0.0
 40
1.799160348798571
 50
38.2657325912189208
 51
65.8873368944146023
  0
ARC
  5
73D8
  8
0
 10
357.7138769675406138
 20
27.6095555396286585
 30
0.0
 40
1.143496371308631
 50
1.656449720276612
 51
38.0662365334281176
  0
ARC
  5
73D9
  8
0
 10
357.7156273141490033
 20
27.6448454650659698
 30
0.0
 40
1.1412703704604541
 50
321.0215458428644979
 51
359.8877711396174277
  0
ARC
  5
73DA
  8
0
 10
357.3437852919739157
 20
27.9129071324530287
 30
0.0
 40
1.5991557205121909
 50
291.3489712956582025
 51
321.9356702625474895
  0
LINE
  5
73DB
  8
0
 10
356.8471211279156137
 20
25.7451837785129989
 30
0.0
 11
356.8413976824576821
 21
26.4217744507918404
 31
0.0
  0
ARC
  5
73DC
  8
0
 10
351.9004119510734085
 20
38.7622908031380007
 30
0.0
 40
10.8424978193440396
 50
287.0564248874308078
 51
288.6830514653792079
  0
ARC
  5
73DD
  8
0
 10
351.9004119510734085
 20
38.7622908031380007
 30
0.0
 40
10.8424978193440396
 50
289.3732116009762763
 51
291.1990168066653837
  0
ARC
  5
73DE
  8
0
 10
351.9004119510734085
 20
38.7622908031380007
 30
0.0
 40
10.8424978193440396
 50
291.9210553846448875
 51
293.7372444629227175
  0
ARC
  5
73DF
  8
0
 10
351.9004119510734085
 20
38.7622908031380007
 30
0.0
 40
10.8424978193440396
 50
294.4694428464761131
 51
296.4203525889714115
  0
ARC
  5
73E0
  8
0
 10
349.623111577521513
 20
44.3442070299186071
 30
0.0
 40
17.2475412017194998
 50
287.424666722762197
 51
287.9272598333172937
  0
ARC
  5
73E1
  8
0
 10
349.623111577521513
 20
44.3442070299186071
 30
0.0
 40
17.2475412017194998
 50
288.4017997825645807
 51
289.5604811648880172
  0
ARC
  5
73E2
  8
0
 10
349.623111577521513
 20
44.3442070299186071
 30
0.0
 40
17.2475412017194998
 50
289.882941604934615
 51
291.1315732535418874
  0
ARC
  5
73E3
  8
0
 10
349.623111577521513
 20
44.3442070299186071
 30
0.0
 40
17.2475412017194998
 50
291.442208055583194
 51
292.7235555002125125
  0
ARC
  5
73E4
  8
0
 10
349.623111577521513
 20
44.3442070299186071
 30
0.0
 40
17.2475412017194998
 50
293.0367760733398086
 51
294.3351299623175805
  0
ARC
  5
73E5
  8
0
 10
350.0203171097064114
 20
43.6419867426312678
 30
0.0
 40
16.8107358637320203
 50
286.3691409991027967
 51
286.9933731575372917
  0
ARC
  5
73E6
  8
0
 10
350.0203171097064114
 20
43.6419867426312678
 30
0.0
 40
16.8107358637320203
 50
287.4809435097345158
 51
288.6532366271749197
  0
ARC
  5
73E7
  8
0
 10
350.0203171097064114
 20
43.6419867426312678
 30
0.0
 40
16.8107358637320203
 50
288.9818207099136202
 51
290.2569037036644204
  0
ARC
  5
73E8
  8
0
 10
350.0203171097064114
 20
43.6419867426312678
 30
0.0
 40
16.8107358637320203
 50
290.5793935913440009
 51
291.8836755977019948
  0
ARC
  5
73E9
  8
0
 10
350.0203171097064114
 20
43.6419867426312678
 30
0.0
 40
16.8107358637320203
 50
292.2081322430669843
 51
293.5252148627362772
  0
ARC
  5
73EA
  8
0
 10
350.9158741537206083
 20
41.4784506221299907
 30
0.0
 40
14.8248249505274003
 50
286.283333827852573
 51
287.5873273719179224
  0
ARC
  5
73EB
  8
0
 10
350.9158741537206083
 20
41.4784506221299907
 30
0.0
 40
14.8248249505274003
 50
287.9811596063408956
 51
289.4000895117181926
  0
ARC
  5
73EC
  8
0
 10
350.9158741537206083
 20
41.4784506221299907
 30
0.0
 40
14.8248249505274003
 50
289.7906706296870993
 51
291.0575012125336229
  0
ARC
  5
73ED
  8
0
 10
350.9151332792441735
 20
41.4657518125043865
 30
0.0
 40
14.8248249505274003
 50
291.8782633137681159
 51
292.0136019948150761
  0
ARC
  5
73EE
  8
0
 10
350.9151332792441735
 20
41.4657518125043865
 30
0.0
 40
14.8248249505274003
 50
292.8222820938548239
 51
292.9221586771183183
  0
ARC
  5
73EF
  8
0
 10
350.4237823754888268
 20
43.1995155499063728
 30
0.0
 40
16.9404971846650589
 50
285.779939350419113
 51
287.0728241142645061
  0
ARC
  5
73F0
  8
0
 10
350.4237823754888268
 20
43.1995155499063728
 30
0.0
 40
16.9404971846650589
 50
287.3887350987018863
 51
288.6479968277627108
  0
ARC
  5
73F1
  8
0
 10
350.4237823754888268
 20
43.1995155499063728
 30
0.0
 40
16.9404971846650589
 50
288.9624829538163908
 51
290.0874535849886797
  0
ARC
  5
73F2
  8
0
 10
351.1165919945917153
 20
41.7510876676985276
 30
0.0
 40
15.6702209281045697
 50
286.2916741701774868
 51
287.5460861993472008
  0
ARC
  5
73F3
  8
0
 10
351.1165919945917153
 20
41.7510876676985276
 30
0.0
 40
15.6702209281045697
 50
287.890052372706009
 51
289.2565818154374142
  0
ARC
  5
73F4
  8
0
 10
351.1165919945917153
 20
41.7510876676985276
 30
0.0
 40
15.6702209281045697
 50
289.5940777946165099
 51
290.8113432557407236
  0
ARC
  5
73F5
  8
0
 10
351.1158511201152805
 20
41.7383888580729376
 30
0.0
 40
15.6702209281045697
 50
291.5725291328935214
 51
291.6957410976547749
  0
ARC
  5
73F6
  8
0
 10
351.1158511201152805
 20
41.7383888580729376
 30
0.0
 40
15.6702209281045697
 50
292.459001679146013
 51
292.575596873235213
  0
ARC
  5
73F7
  8
0
 10
350.9137806194398195
 20
42.5438524107571894
 30
0.0
 40
16.8005969614863808
 50
286.3598430409135176
 51
286.9896134667018828
  0
ARC
  5
73F8
  8
0
 10
350.9137806194398195
 20
42.5438524107571894
 30
0.0
 40
16.8005969614863808
 50
287.4823002400324867
 51
288.6475899029452989
  0
ARC
  5
73F9
  8
0
 10
350.9137806194398195
 20
42.5438524107571894
 30
0.0
 40
16.8005969614863808
 50
288.9673990571614013
 51
290.2552664352115244
  0
ARC
  5
73FA
  8
0
 10
350.9708376715013856
 20
42.6750942830645812
 30
0.0
 40
17.2092894098982399
 50
287.4189414908693152
 51
287.9181850646394878
  0
ARC
  5
73FB
  8
0
 10
350.9708376715013856
 20
42.6750942830645812
 30
0.0
 40
17.2092894098982399
 50
288.3998126927946828
 51
289.5520046132414222
  0
ARC
  5
73FC
  8
0
 10
363.947874595576593
 20
44.3416322051854905
 30
0.0
 40
17.2448147915467587
 50
243.0135710048780027
 51
243.6065502475022129
  0
ARC
  5
73FD
  8
0
 10
363.947874595576593
 20
44.3416322051854905
 30
0.0
 40
17.2448147915467587
 50
244.1000950076164031
 51
245.3351938896267086
  0
ARC
  5
73FE
  8
0
 10
363.5518981868737001
 20
43.6426865001243485
 30
0.0
 40
16.8114870789253388
 50
241.9484469011142096
 51
242.6901101115381891
  0
ARC
  5
73FF
  8
0
 10
363.5518981868737001
 20
43.6426865001243485
 30
0.0
 40
16.8114870789253388
 50
243.1985047027328051
 51
244.4648618398358906
  0
ARC
  5
7400
  8
0
 10
363.5518981868737001
 20
43.6426865001243485
 30
0.0
 40
16.8114870789253388
 50
244.8098828462865129
 51
246.1310911172315059
  0
ARC
  5
7401
  8
0
 10
363.0069447439420856
 20
42.5228845300853067
 30
0.0
 40
15.9214500337585001
 50
241.9797166933878998
 51
243.3456852830481125
  0
ARC
  5
7402
  8
0
 10
363.0069447439420856
 20
42.5228845300853067
 30
0.0
 40
15.9214500337585001
 50
243.7010001122623066
 51
245.1094276607832967
  0
ARC
  5
7403
  8
0
 10
363.0069447439420856
 20
42.5228845300853067
 30
0.0
 40
15.9214500337585001
 50
245.4739427269508099
 51
246.6694851554863988
  0
ARC
  5
7404
  8
0
 10
363.0062038694655939
 20
42.5101857204597096
 30
0.0
 40
15.9214500337585001
 50
247.3806805539616107
 51
247.4883899711799984
  0
ARC
  5
7405
  8
0
 10
363.0062038694655939
 20
42.5101857204597096
 30
0.0
 40
15.9214500337585001
 50
248.2432771041677029
 51
248.3544826234443974
  0
ARC
  5
7406
  8
0
 10
363.10688304290818
 20
43.0984780593253873
 30
0.0
 40
16.8320472181035292
 50
241.30629414720309
 51
242.8059507970471032
  0
ARC
  5
7407
  8
0
 10
363.10688304290818
 20
43.0984780593253873
 30
0.0
 40
16.8320472181035292
 50
243.1677234437266861
 51
244.4997038213400913
  0
ARC
  5
7408
  8
0
 10
363.10688304290818
 20
43.0984780593253873
 30
0.0
 40
16.8320472181035292
 50
244.8464524774105087
 51
246.0003746581961082
  0
ARC
  5
7409
  8
0
 10
362.4687461820212206
 20
41.7880603066686405
 30
0.0
 40
15.7094498045509106
 50
241.9424104495597021
 51
243.3332860793207999
  0
ARC
  5
740A
  8
0
 10
362.4687461820212206
 20
41.7880603066686405
 30
0.0
 40
15.7094498045509106
 50
243.7020627741329122
 51
245.1264231857720119
  0
ARC
  5
740B
  8
0
 10
362.4687461820212206
 20
41.7880603066686405
 30
0.0
 40
15.7094498045509106
 50
245.4908856969927058
 51
246.724382943258405
  0
ARC
  5
740C
  8
0
 10
362.4680053075446722
 20
41.7753614970430434
 30
0.0
 40
15.7094498045509106
 50
247.4322508970444972
 51
247.5468951095901957
  0
ARC
  5
740D
  8
0
 10
362.4680053075446722
 20
41.7753614970430434
 30
0.0
 40
15.7094498045509106
 50
248.3068044383533106
 51
248.4187795566521118
  0
ARC
  5
740E
  8
0
 10
362.6582195775382047
 20
42.543982660762218
 30
0.0
 40
16.8007397521443416
 50
241.9494051234835865
 51
242.6861503070360868
  0
ARC
  5
740F
  8
0
 10
362.6582195775382047
 20
42.543982660762218
 30
0.0
 40
16.8007397521443416
 50
243.199902615391693
 51
244.4604506869600868
  0
ARC
  5
7410
  8
0
 10
362.6582195775382047
 20
42.543982660762218
 30
0.0
 40
16.8007397521443416
 50
244.8084031622323096
 51
246.1320697755984099
  0
ARC
  5
7411
  8
0
 10
362.6582195775382047
 20
42.543982660762218
 30
0.0
 40
16.8007397521443416
 50
246.476100031746796
 51
247.7846711025669038
  0
ARC
  5
7412
  8
0
 10
362.6582195775382047
 20
42.543982660762218
 30
0.0
 40
16.8007397521443416
 50
248.1202003855333089
 51
249.4104805178045012
  0
ARC
  5
7413
  8
0
 10
362.6004574565398002
 20
42.6742233888002289
 30
0.0
 40
17.2082409584721994
 50
243.0030991733385122
 51
243.6000126246811988
  0
ARC
  5
7414
  8
0
 10
362.6004574565398002
 20
42.6742233888002289
 30
0.0
 40
17.2082409584721994
 50
244.0954057114938109
 51
245.3329195618939025
  0
ARC
  5
7415
  8
0
 10
362.6004574565398002
 20
42.6742233888002289
 30
0.0
 40
17.2082409584721994
 50
245.664450331992299
 51
246.9404144705140993
  0
ARC
  5
7416
  8
0
 10
362.6004574565398002
 20
42.6742233888002289
 30
0.0
 40
17.2082409584721994
 50
247.274907983698597
 51
248.5470353806477135
  0
ARC
  5
7417
  8
0
 10
362.6004574565398002
 20
42.6742233888002289
 30
0.0
 40
17.2082409584721994
 50
248.8764491714923963
 51
250.1299640564540141
  0
ARC
  5
7418
  8
0
 10
412.0540490659502098
 20
160.9064725617446925
 30
0.0
 40
145.6628176556986887
 50
246.9685338154332044
 51
247.1077780005300895
  0
ARC
  5
7419
  8
0
 10
412.0540490659502098
 20
160.9064725617446925
 30
0.0
 40
145.6628176556986887
 50
247.1661036235161077
 51
247.2982876230055069
  0
ARC
  5
741A
  8
0
 10
412.0540490659502098
 20
160.9064725617446925
 30
0.0
 40
145.6628176556986887
 50
247.3561621170553053
 51
247.4837139464341078
  0
ARC
  5
741B
  8
0
 10
412.0540490659502098
 20
160.9064725617446925
 30
0.0
 40
145.6628176556986887
 50
247.5443108491537885
 51
247.6583685856475938
  0
ARC
  5
741C
  8
0
 10
346.2462268419058091
 20
27.473537572177829
 30
0.0
 40
8.7650657828874348
 50
356.5402116431687887
 51
357.6997681606719084
  0
ARC
  5
741D
  8
0
 10
346.2462268419058091
 20
27.473537572177829
 30
0.0
 40
8.7650657828874348
 50
358.7010426013890765
 51
0.0289583047800893
  0
ARC
  5
741E
  8
0
 10
346.2462268419058091
 20
27.473537572177829
 30
0.0
 40
8.7650657828874348
 50
1.03198813837085
 51
2.4436009776973742
  0
ARC
  5
741F
  8
0
 10
346.2462268419058091
 20
27.473537572177829
 30
0.0
 40
8.7650657828874348
 50
3.4423468124820009
 51
5.2138031133706546
  0
LINE
  5
7420
  8
0
 10
355.4522788352927023
 20
28.7032355599631117
 30
0.0
 11
355.4522788352927023
 21
28.545664064579789
 31
0.0
  0
LINE
  5
7421
  8
0
 10
355.4522788352927023
 20
28.392638878762309
 30
0.0
 11
355.4522788352927023
 21
28.1344795451260197
 31
0.0
  0
LINE
  5
7422
  8
0
 10
355.4522788352927023
 20
27.6401545306600589
 30
0.0
 11
355.4522788352927023
 21
27.3909574191897818
 31
0.0
  0
LINE
  5
7423
  8
0
 10
355.4522788352927023
 20
27.2761715761557895
 30
0.0
 11
355.4522788352927023
 21
27.0416496202938994
 31
0.0
  0
LINE
  5
7424
  8
0
 10
355.4522788352927023
 20
26.9268459394070092
 30
0.0
 11
355.4522788352927023
 21
26.7327312006967084
 31
0.0
  0
LINE
  5
7425
  8
0
 10
355.4522788352927023
 20
26.5793158817909614
 30
0.0
 11
355.4522788352927023
 21
26.52284953397983
 31
0.0
  0
LINE
  5
7426
  8
0
 10
355.8969303006239215
 20
28.9076130336837593
 30
0.0
 11
355.8969303006239215
 21
28.7193658771602109
 31
0.0
  0
LINE
  5
7427
  8
0
 10
355.8969303006239215
 20
28.5663440578977195
 30
0.0
 11
355.8969303006239215
 21
28.2978774456609692
 31
0.0
  0
LINE
  5
7428
  8
0
 10
355.8969303006239215
 20
28.1830833337565707
 30
0.0
 11
355.8969303006239215
 21
27.9121957348706395
 31
0.0
  0
LINE
  5
7429
  8
0
 10
355.8969303006239215
 20
27.7974015575122095
 30
0.0
 11
355.8969303006239215
 21
27.5412604110556813
 31
0.0
  0
LINE
  5
742A
  8
0
 10
355.8969303006239215
 20
27.4264724365847812
 30
0.0
 11
355.8969303006239215
 21
27.1861766401316594
 31
0.0
  0
LINE
  5
742B
  8
0
 10
355.8969303006239215
 20
27.0713824953444693
 30
0.0
 11
355.8969303006239215
 21
26.8471692856659914
 31
0.0
  0
LINE
  5
742C
  8
0
 10
355.8969303006239215
 20
26.7323753764261909
 30
0.0
 11
355.8969303006239215
 21
26.5442504133620183
 31
0.0
  0
LINE
  5
742D
  8
0
 10
355.8969303006239215
 20
26.3908406096197687
 30
0.0
 11
355.8969303006239215
 21
26.3219589109572993
 31
0.0
  0
LINE
  5
742E
  8
0
 10
356.3414091523238767
 20
28.7559766940704193
 30
0.0
 11
356.3414091523238767
 21
28.4794540770823694
 31
0.0
  0
LINE
  5
742F
  8
0
 10
356.3414091523238767
 20
28.3646599154491987
 30
0.0
 11
356.3414091523238767
 21
28.0863479008270502
 31
0.0
  0
LINE
  5
7430
  8
0
 10
356.3414091523238767
 20
27.9715461087436701
 30
0.0
 11
356.3414091523238767
 21
27.7531153455412394
 31
0.0
  0
LINE
  5
7431
  8
0
 10
356.3406682778474988
 20
27.1987957963136786
 30
0.0
 11
356.3406682778474988
 21
26.9956730992157716
 31
0.0
  0
LINE
  5
7432
  8
0
 10
356.3414091523238767
 20
26.8808684725434617
 30
0.0
 11
356.3414091523238767
 21
26.6636814941522715
 31
0.0
  0
LINE
  5
7433
  8
0
 10
356.3414091523238767
 20
26.5488825518564084
 30
0.0
 11
356.3414091523238767
 21
26.36998702950347
 31
0.0
  0
LINE
  5
7434
  8
0
 10
356.7857756349894203
 20
29.0523317161988714
 30
0.0
 11
356.7857756349894203
 21
28.7109940612207701
 31
0.0
  0
LINE
  5
7435
  8
0
 10
356.7857756349894203
 20
28.5607296739852998
 30
0.0
 11
356.7857756349894203
 21
28.2754398994826914
 31
0.0
  0
LINE
  5
7436
  8
0
 10
356.7857756349894203
 20
28.1606398271787803
 30
0.0
 11
356.7857756349894203
 21
27.9364596716884606
 31
0.0
  0
LINE
  5
7437
  8
0
 10
356.7857756349894203
 20
27.0150433487837915
 30
0.0
 11
356.7859706430239157
 21
26.8420889579665989
 31
0.0
  0
LINE
  5
7438
  8
0
 10
356.7857756349894203
 20
26.7076866988438297
 30
0.0
 11
356.7857756349894203
 21
26.4957758475696714
 31
0.0
  0
LINE
  5
7439
  8
0
 10
356.7865303702474762
 20
27.8969789368474785
 30
0.0
 11
356.7865303702474762
 21
27.9364407034036084
 31
0.0
  0
LINE
  5
743A
  8
0
 10
356.568024514695594
 20
27.8082000710235384
 30
0.0
 11
356.568024514695594
 21
27.8476618375796683
 31
0.0
  0
LINE
  5
743B
  8
0
 10
356.3423283713955811
 20
27.7136264769652314
 30
0.0
 11
356.3423283713955811
 21
27.7530882435213684
 31
0.0
  0
LINE
  5
743C
  8
0
 10
356.3425010229955774
 20
27.5316056990235403
 30
0.0
 11
356.3425010229955774
 21
27.5635310049063698
 31
0.0
  0
LINE
  5
743D
  8
0
 10
356.3419144054955723
 20
27.3488111459235306
 30
0.0
 11
356.3419144054955723
 21
27.3813130177293296
 31
0.0
  0
LINE
  5
743E
  8
0
 10
356.564019270495578
 20
27.2563843833235318
 30
0.0
 11
356.564019270495578
 21
27.2958461498796687
 31
0.0
  0
LINE
  5
743F
  8
0
 10
356.7839403985507829
 20
27.1653957756943214
 30
0.0
 11
356.7839403985507829
 21
27.2048575422504584
 31
0.0
  0
LINE
  5
7440
  8
0
 10
357.008584007595573
 20
27.2563843723235308
 30
0.0
 11
357.008584007595573
 21
27.2958461388796714
 31
0.0
  0
LINE
  5
7441
  8
0
 10
357.2314820126956079
 20
27.3474683004235288
 30
0.0
 11
357.2314820126956079
 21
27.3833531675191608
 31
0.0
  0
LINE
  5
7442
  8
0
 10
357.2277572847456213
 20
27.5319698045235306
 30
0.0
 11
357.2277572847456213
 21
27.5646433530634205
 31
0.0
  0
LINE
  5
7443
  8
0
 10
357.2314580851955839
 20
27.7136264842235285
 30
0.0
 11
357.2314580851955839
 21
27.7530882507796797
 31
0.0
  0
LINE
  5
7444
  8
0
 10
357.0102233821955906
 20
27.80866051562354
 30
0.0
 11
357.0102233821955906
 21
27.8481222821796806
 31
0.0
  0
ARC
  5
7445
  8
0
 10
356.7857716013184017
 20
25.7451837950342615
 30
0.0
 40
0.0613495600050444
 50
178.7337849810041916
 51
270.003767139046488
  0
ARC
  5
7446
  8
0
 10
356.7857715675368127
 20
25.7451837950555884
 30
0.0
 40
0.0613495600285976
 50
270.0037986884520933
 51
1.2001337394014919
  0
ARC
  5
7448
  8
0
 10
355.8962439856197761
 20
27.8219824772618409
 30
0.0
 40
0.0222091795754215
 50
65.3209348931844005
 51
120.7659622398631996
  0
ARC
  5
7449
  8
0
 10
355.8988541929933263
 20
27.8276629413895193
 30
0.0
 40
0.0159577113288006
 50
31.1599187767661903
 51
65.3209348931844858
  0
ARC
  5
744A
  8
0
 10
355.90522900982279
 20
27.8315175751300501
 30
0.0
 40
0.0085081146361368
 50
329.012309169078776
 51
31.1599187767661903
  0
ARC
  5
744B
  8
0
 10
355.9000770353648022
 20
27.8346116874577483
 30
0.0
 40
0.014517804471183
 50
283.1316158245335259
 51
329.0123091690783781
  0
ARC
  5
744C
  8
0
 10
355.8972405203440985
 20
27.8467704881776115
 30
0.0
 40
0.0270030859020216
 50
255.8043457872676925
 51
283.1316158245335259
  0
ARC
  5
744D
  8
0
 10
355.8946120533162798
 20
27.8363795735866404
 30
0.0
 40
0.0162848796643382
 50
216.9874455719294133
 51
255.8043457872676072
  0
ARC
  5
744E
  8
0
 10
355.8892194794545958
 20
27.8323178299707195
 30
0.0
 40
0.0095337601975813
 50
160.2504959599461074
 51
216.9874455719298965
  0
ARC
  5
744F
  8
0
 10
355.8900566082401156
 20
27.8320172782057185
 30
0.0
 40
0.0104232071981816
 50
119.7574216480021931
 51
160.2504959599461927
  0
ARC
  5
7450
  8
0
 10
355.8793879813053991
 20
27.8420807239753785
 30
0.0
 40
0.0379957230810885
 50
179.2517643227151041
 51
220.0775975952097099
  0
ARC
  5
7451
  8
0
 10
355.8923173946911902
 20
27.852959663788269
 30
0.0
 40
0.0548930915731677
 50
220.0775975952097099
 51
257.0941730958048197
  0
ARC
  5
7452
  8
0
 10
355.8982984339663744
 20
27.8790620538595491
 30
0.0
 40
0.0816719563408186
 50
257.0941730958048197
 51
281.960430808380579
  0
ARC
  5
7453
  8
0
 10
355.904782541879797
 20
27.8484527946675406
 30
0.0
 40
0.050383453600733
 50
281.960430808380579
 51
321.0333937662912831
  0
ARC
  5
7454
  8
0
 10
355.9160582387784189
 20
27.8393327915287685
 30
0.0
 40
0.0358811848885916
 50
321.0333937662911126
 51
355.4866658446018164
  0
LINE
  5
7455
  8
0
 10
355.8413954981130018
 20
27.8425769027125085
 30
0.0
 11
355.8402563475893885
 21
27.8891234326130011
 31
0.0
  0
ARC
  5
7456
  8
0
 10
355.8823724694132125
 20
27.8597185739547406
 30
0.0
 40
0.0513654887077759
 50
108.7487435796215038
 51
145.0778195754269859
  0
ARC
  5
7457
  8
0
 10
355.8957824570733237
 20
27.8428919433062383
 30
0.0
 40
0.0693132964878928
 50
68.058880995009801
 51
89.2857406932096183
  0
ARC
  5
7458
  8
0
 10
355.8926758167260118
 20
27.8187523706904685
 30
0.0
 40
0.0935318048544208
 50
87.5669008292590547
 51
106.6589627613640943
  0
ARC
  5
7459
  8
0
 10
355.9027273989912032
 20
27.850333855967019
 30
0.0
 40
0.0599273555296639
 50
32.9464345682090993
 51
71.5614993756765188
  0
ARC
  5
745A
  8
0
 10
355.8756484278022185
 20
27.8394529424367292
 30
0.0
 40
0.034395091511659
 50
128.5061558579361929
 51
174.7888858585193077
  0
ARC
  5
745B
  8
0
 10
355.8921753215958006
 20
27.8184085191674697
 30
0.0
 40
0.0611530782976225
 50
98.0354694135900644
 51
128.3475771022704066
  0
ARC
  5
745C
  8
0
 10
355.8946466936790785
 20
27.8009024342803102
 30
0.0
 40
0.0788327470742313
 50
67.4896201449711555
 51
98.0354694135900644
  0
ARC
  5
745D
  8
0
 10
355.9057032763420807
 20
27.8275817144670903
 30
0.0
 40
0.0499531346899018
 50
39.1826063636066735
 51
67.4896201449710844
  0
ARC
  5
745E
  8
0
 10
355.9187483957607014
 20
27.8382144614935712
 30
0.0
 40
0.0331236828279122
 50
357.0491214950828862
 51
39.1826063636063466
  0
LINE
  5
745F
  8
0
 10
355.9518281578115761
 20
27.8365092615810283
 30
0.0
 11
355.9530172000893913
 21
27.8829256317130003
 31
0.0
  0
ARC
  5
7460
  8
0
 10
355.9218185696665842
 20
27.8934548837682783
 30
0.0
 40
0.0392405262080591
 50
321.8204845188645891
 51
334.205542269655723
  0
ARC
  5
7461
  8
0
 10
355.9247211336245869
 20
27.8604873797312393
 30
0.0
 40
0.0361129136096276
 50
26.1083727032692394
 51
38.4137593920213405
  0
ARC
  5
7462
  8
0
 10
355.8607997544722252
 20
27.8703467543182697
 30
0.0
 40
0.0278315506958538
 50
137.5726814280791928
 51
151.0213979558527058
  0
ARC
  5
7463
  8
0
 10
355.8785565056278983
 20
27.9037940672737399
 30
0.0
 40
0.0465968702717355
 50
205.3678347307009915
 51
215.4296434525373058
  0
ARC
  5
7464
  8
0
 10
356.3415540021034076
 20
27.9961088712861894
 30
0.0
 40
0.0222091795754215
 50
65.3209348931844005
 51
120.7659622398631996
  0
ARC
  5
7465
  8
0
 10
356.3441642094767872
 20
28.0017893354138714
 30
0.0
 40
0.0159577113288006
 50
31.1599187767661903
 51
65.3209348931844858
  0
ARC
  5
7466
  8
0
 10
356.3505390263063077
 20
28.0056439691543986
 30
0.0
 40
0.0085081146361368
 50
329.012309169078776
 51
31.1599187767661903
  0
ARC
  5
7467
  8
0
 10
356.3453870518482063
 20
28.008738081482111
 30
0.0
 40
0.014517804471183
 50
283.1316158245335259
 51
329.0123091690783781
  0
ARC
  5
7468
  8
0
 10
356.3425505368276163
 20
28.02089688220196
 30
0.0
 40
0.0270030859020216
 50
255.8043457872676925
 51
283.1316158245335259
  0
ARC
  5
7469
  8
0
 10
356.3399220697997976
 20
28.0105059676109889
 30
0.0
 40
0.0162848796643382
 50
216.9874455719294133
 51
255.8043457872676072
  0
ARC
  5
746A
  8
0
 10
356.3345294959382272
 20
28.0064442239950715
 30
0.0
 40
0.0095337601975813
 50
160.2504959599461074
 51
216.9874455719298965
  0
ARC
  5
746B
  8
0
 10
356.3353666247235765
 20
28.0061436722300705
 30
0.0
 40
0.0104232071981816
 50
119.7574216480021931
 51
160.2504959599461927
  0
ARC
  5
746C
  8
0
 10
356.3246979977888031
 20
28.0162071179997305
 30
0.0
 40
0.0379957230810885
 50
179.2517643227151041
 51
220.0775975952097099
  0
ARC
  5
746D
  8
0
 10
356.3376274111748216
 20
28.0270860578126211
 30
0.0
 40
0.0548930915731677
 50
220.0775975952097099
 51
257.0941730958048197
  0
ARC
  5
746E
  8
0
 10
356.3436084504498922
 20
28.0531884478839011
 30
0.0
 40
0.0816719563408186
 50
257.0941730958048197
 51
281.960430808380579
  0
ARC
  5
746F
  8
0
 10
356.3500925583633148
 20
28.0225791886918891
 30
0.0
 40
0.050383453600733
 50
281.960430808380579
 51
321.0333937662912831
  0
ARC
  5
7470
  8
0
 10
356.3613682552618229
 20
28.0134591855531205
 30
0.0
 40
0.0358811848885916
 50
321.0333937662911126
 51
355.4866658446018164
  0
LINE
  5
7471
  8
0
 10
356.2867055145965196
 20
28.0167032967368606
 30
0.0
 11
356.2855663640730199
 21
28.0632498266373602
 31
0.0
  0
ARC
  5
7472
  8
0
 10
356.3276824858966734
 20
28.0338449679790891
 30
0.0
 40
0.0513654887077759
 50
108.7487435796215038
 51
145.0778195754269859
  0
ARC
  5
7473
  8
0
 10
356.3410924735567846
 20
28.0170183373305903
 30
0.0
 40
0.0693132964878928
 50
68.058880995009801
 51
89.2857406932096183
  0
ARC
  5
7474
  8
0
 10
356.3379858332094727
 20
27.9928787647148205
 30
0.0
 40
0.0935318048544208
 50
87.5669008292590547
 51
106.6589627613640943
  0
ARC
  5
7475
  8
0
 10
356.3480374154746073
 20
28.0244602499913817
 30
0.0
 40
0.0599273555296639
 50
32.9464345682090993
 51
71.5614993756765188
  0
ARC
  5
7476
  8
0
 10
356.3209584442856794
 20
28.0135793364610883
 30
0.0
 40
0.034395091511659
 50
128.5061558579361929
 51
174.7888858585193077
  0
ARC
  5
7477
  8
0
 10
356.3374853380793184
 20
27.9925349131918217
 30
0.0
 40
0.0611530782976225
 50
98.0354694135900644
 51
128.3475771022704066
  0
ARC
  5
7478
  8
0
 10
356.3399567101625962
 20
27.9750288283046586
 30
0.0
 40
0.0788327470742313
 50
67.4896201449711555
 51
98.0354694135900644
  0
ARC
  5
7479
  8
0
 10
356.3510132928255985
 20
28.0017081084914388
 30
0.0
 40
0.0499531346899018
 50
39.1826063636066735
 51
67.4896201449710844
  0
ARC
  5
747A
  8
0
 10
356.3640584122442192
 20
28.0123408555179196
 30
0.0
 40
0.0331236828279122
 50
357.0491214950828862
 51
39.1826063636063466
  0
LINE
  5
747B
  8
0
 10
356.3971381742950939
 20
28.0106356556053804
 30
0.0
 11
356.398327216572909
 21
28.0570520257373595
 31
0.0
  0
ARC
  5
747C
  8
0
 10
356.3671285861501019
 20
28.0675812777926303
 30
0.0
 40
0.0392405262080591
 50
321.8204845188645891
 51
334.205542269655723
  0
ARC
  5
747D
  8
0
 10
356.3700311501082183
 20
28.0346137737555985
 30
0.0
 40
0.0361129136096276
 50
26.1083727032692394
 51
38.4137593920213405
  0
ARC
  5
747E
  8
0
 10
356.3061097709557998
 20
28.0444731483426217
 30
0.0
 40
0.0278315506958538
 50
137.5726814280791928
 51
151.0213979558527058
  0
ARC
  5
747F
  8
0
 10
356.3238665221114161
 20
28.0779204612980884
 30
0.0
 40
0.0465968702717355
 50
205.3678347307009915
 51
215.4296434525373058
  0
ARC
  5
7480
  8
0
 10
355.8965767874353787
 20
28.2076579993764192
 30
0.0
 40
0.0222091795754215
 50
65.3209348931844005
 51
120.7659622398631996
  0
ARC
  5
7481
  8
0
 10
355.899186994808872
 20
28.2133384635041011
 30
0.0
 40
0.0159577113288006
 50
31.1599187767661903
 51
65.3209348931844858
  0
ARC
  5
7482
  8
0
 10
355.9055618116383926
 20
28.2171930972446283
 30
0.0
 40
0.0085081146361368
 50
329.012309169078776
 51
31.1599187767661903
  0
ARC
  5
7483
  8
0
 10
355.9004098371802911
 20
28.2202872095723301
 30
0.0
 40
0.014517804471183
 50
283.1316158245335259
 51
329.0123091690783781
  0
ARC
  5
7484
  8
0
 10
355.8975733221597011
 20
28.2324460102922004
 30
0.0
 40
0.0270030859020216
 50
255.8043457872676925
 51
283.1316158245335259
  0
ARC
  5
7485
  8
0
 10
355.8949448551318255
 20
28.2220550957012115
 30
0.0
 40
0.0162848796643382
 50
216.9874455719294133
 51
255.8043457872676072
  0
ARC
  5
7486
  8
0
 10
355.8895522812703121
 20
28.2179933520853012
 30
0.0
 40
0.0095337601975813
 50
160.2504959599461074
 51
216.9874455719298965
  0
ARC
  5
7487
  8
0
 10
355.8903894100557181
 20
28.2176928003203109
 30
0.0
 40
0.0104232071981816
 50
119.7574216480021931
 51
160.2504959599461927
  0
ARC
  5
7488
  8
0
 10
355.879720783120888
 20
28.2277562460899603
 30
0.0
 40
0.0379957230810885
 50
179.2517643227151041
 51
220.0775975952097099
  0
ARC
  5
7489
  8
0
 10
355.8926501965069065
 20
28.2386351859028508
 30
0.0
 40
0.0548930915731677
 50
220.0775975952097099
 51
257.0941730958048197
  0
ARC
  5
748A
  8
0
 10
355.898631235781977
 20
28.2647375759741308
 30
0.0
 40
0.0816719563408186
 50
257.0941730958048197
 51
281.960430808380579
  0
ARC
  5
748B
  8
0
 10
355.9051153436953996
 20
28.2341283167821189
 30
0.0
 40
0.050383453600733
 50
281.960430808380579
 51
321.0333937662912831
  0
ARC
  5
748C
  8
0
 10
355.9163910405939077
 20
28.2250083136433503
 30
0.0
 40
0.0358811848885916
 50
321.0333937662911126
 51
355.4866658446018164
  0
LINE
  5
748D
  8
0
 10
355.8417282999286044
 20
28.2282524248270903
 30
0.0
 11
355.8405891494051048
 21
28.27479895472759
 31
0.0
  0
ARC
  5
748E
  8
0
 10
355.882705271228815
 20
28.2453940960693188
 30
0.0
 40
0.0513654887077759
 50
108.7487435796215038
 51
145.0778195754269859
  0
ARC
  5
748F
  8
0
 10
355.8961152588889263
 20
28.2285674654208201
 30
0.0
 40
0.0693132964878928
 50
68.058880995009801
 51
89.2857406932096183
  0
ARC
  5
7490
  8
0
 10
355.8930086185416144
 20
28.2044278928050502
 30
0.0
 40
0.0935318048544208
 50
87.5669008292590547
 51
106.6589627613640943
  0
ARC
  5
7491
  8
0
 10
355.9030602008068058
 20
28.2360093780816115
 30
0.0
 40
0.0599273555296639
 50
32.9464345682090993
 51
71.5614993756765188
  0
ARC
  5
7492
  8
0
 10
355.8759812296178211
 20
28.225128464551311
 30
0.0
 40
0.034395091511659
 50
128.5061558579361929
 51
174.7888858585193077
  0
ARC
  5
7493
  8
0
 10
355.8925081234114032
 20
28.2040840412820515
 30
0.0
 40
0.0611530782976225
 50
98.0354694135900644
 51
128.3475771022704066
  0
ARC
  5
7494
  8
0
 10
355.8949794954946242
 20
28.1865779563948813
 30
0.0
 40
0.0788327470742313
 50
67.4896201449711555
 51
98.0354694135900644
  0
ARC
  5
7495
  8
0
 10
355.9060360781576833
 20
28.2132572365816685
 30
0.0
 40
0.0499531346899018
 50
39.1826063636066735
 51
67.4896201449710844
  0
ARC
  5
7496
  8
0
 10
355.919081197576304
 20
28.2238899836081494
 30
0.0
 40
0.0331236828279122
 50
357.0491214950828862
 51
39.1826063636063466
  0
LINE
  5
7497
  8
0
 10
355.9521609596271219
 20
28.2221847836956101
 30
0.0
 11
355.9533500019049939
 21
28.2686011538275892
 31
0.0
  0
ARC
  5
7498
  8
0
 10
355.9221513714821867
 20
28.2791304058828601
 30
0.0
 40
0.0392405262080591
 50
321.8204845188645891
 51
334.205542269655723
  0
ARC
  5
7499
  8
0
 10
355.9250539354401894
 20
28.2461629018458282
 30
0.0
 40
0.0361129136096276
 50
26.1083727032692394
 51
38.4137593920213405
  0
ARC
  5
749A
  8
0
 10
355.8611325562878278
 20
28.2560222764328515
 30
0.0
 40
0.0278315506958538
 50
137.5726814280791928
 51
151.0213979558527058
  0
ARC
  5
749B
  8
0
 10
355.8788893074435009
 20
28.2894695893883217
 30
0.0
 40
0.0465968702717355
 50
205.3678347307009915
 51
215.4296434525373058
  0
ARC
  5
749C
  8
0
 10
355.8960061038696949
 20
28.6114768258827503
 30
0.0
 40
0.0192084886304507
 50
57.7994518807874869
 51
114.4811242156265934
  0
ARC
  5
749D
  8
0
 10
355.8996019648001834
 20
28.6171868349946905
 30
0.0
 40
0.0124605689591559
 50
358.4595549141450874
 51
57.7994518807905706
  0
ARC
  5
749E
  8
0
 10
355.9005194500189191
 20
28.6189861541467714
 30
0.0
 40
0.0117343103701824
 50
289.0865982549836986
 51
349.5204418777528872
  0
ARC
  5
749F
  8
0
 10
355.8973379505886783
 20
28.625979145039409
 30
0.0
 40
0.0193965694016986
 50
244.7885714030034023
 51
291.2136435700887205
  0
ARC
  5
74A0
  8
0
 10
355.8944278731793815
 20
28.6208660905120098
 30
0.0
 40
0.0135386427676041
 50
196.632950965920088
 51
246.7141383084722008
  0
ARC
  5
74A1
  8
0
 10
355.8928869084729172
 20
28.6184941915041513
 30
0.0
 40
0.0115296327631541
 50
114.8248983633461933
 51
187.4923595198947908
  0
LINE
  5
74A2
  8
0
 10
355.8203993396895157
 20
28.6845064600130115
 30
0.0
 11
355.8217468350310924
 21
28.6290109807284914
 31
0.0
  0
LINE
  5
74A3
  8
0
 10
355.9729409863895171
 20
28.6786446505130108
 30
0.0
 11
355.9709051073895125
 21
28.6164209421129989
 31
0.0
  0
ARC
  5
74A4
  8
0
 10
355.8777605836330054
 20
28.6308925607192997
 30
0.0
 40
0.0560453421408633
 50
181.9239217765124863
 51
215.880856232463799
  0
ARC
  5
74A5
  8
0
 10
355.8918417380655796
 20
28.6410784481859793
 30
0.0
 40
0.0734243873862318
 50
215.8808562324641969
 51
252.040022105459002
  0
ARC
  5
74A6
  8
0
 10
355.9005365513809807
 20
28.667902071325571
 30
0.0
 40
0.1016220209203394
 50
252.040022105459002
 51
282.4035834271072076
  0
ARC
  5
74A7
  8
0
 10
355.9080509164285786
 20
28.6337349682278415
 30
0.0
 40
0.0666383587884347
 50
282.4035834271072076
 51
316.9400566121879024
  0
ARC
  5
74A8
  8
0
 10
355.9158659443965007
 20
28.62643203580161
 30
0.0
 40
0.0559422153637504
 50
316.940056612187675
 51
349.6911498913714809
  0
ARC
  5
74A9
  8
0
 10
355.8805550605255803
 20
28.6492370967448586
 30
0.0
 40
0.0697326231735562
 50
115.2656535182201054
 51
149.6168585445346082
  0
ARC
  5
74AA
  8
0
 10
355.8925863821356188
 20
28.5936583844659893
 30
0.0
 40
0.1257869600255895
 50
88.1351209992700433
 51
109.4061668519408954
  0
ARC
  5
74AB
  8
0
 10
355.8911154861658019
 20
28.6084145092053497
 30
0.0
 40
0.1111036368362345
 50
52.5671479338173384
 51
87.1292964737027091
  0
ARC
  5
74AC
  8
0
 10
355.9087300667080171
 20
28.6423479715989409
 30
0.0
 40
0.0737509250182313
 50
24.9504155446811495
 51
47.4026893578372821
  0
ARC
  5
74AD
  8
0
 10
355.8773662015485115
 20
28.6906928213843493
 30
0.0
 40
0.0647077057168651
 50
195.7283271632657886
 51
209.4536185527931877
  0
ARC
  5
74AE
  8
0
 10
355.8588739758221209
 20
28.6595634954636012
 30
0.0
 40
0.0458524711008086
 50
147.0448075765179965
 51
162.7612102668028058
  0
ARC
  5
74AF
  8
0
 10
355.9297921583677748
 20
28.6842728829319604
 30
0.0
 40
0.0470651530606101
 50
335.0827531459918873
 51
346.7163187281128103
  0
ARC
  5
74B0
  8
0
 10
355.8748180307483153
 20
28.6267663141721194
 30
0.0
 40
0.0531186440225259
 50
115.6891893710572958
 51
177.5780965456742138
  0
ARC
  5
74B1
  8
0
 10
355.8943502168626765
 20
28.5877356176556106
 30
0.0
 40
0.0967608948503192
 50
84.9211470607908154
 51
116.0931621169522998
  0
ARC
  5
74B2
  8
0
 10
355.8951076203254047
 20
28.5962576798013401
 30
0.0
 40
0.0882052415601883
 50
46.8620811057058333
 51
84.9211470607908154
  0
ARC
  5
74B3
  8
0
 10
355.9206859726347716
 20
28.6235550697187584
 30
0.0
 40
0.0507966916930118
 50
5.0561714963158719
 51
46.8620811057056912
  0
ARC
  5
74B4
  8
0
 10
356.3396882856829961
 20
28.8011346233725689
 30
0.0
 40
0.0192084886304507
 50
57.7994518807874869
 51
114.4811242156265934
  0
ARC
  5
74B5
  8
0
 10
356.3432841466135983
 20
28.8068446324845091
 30
0.0
 40
0.0124605689591559
 50
358.4595549141450874
 51
57.7994518807905706
  0
ARC
  5
74B6
  8
0
 10
356.3442016318321066
 20
28.80864395163659
 30
0.0
 40
0.0117343103701824
 50
289.0865982549836986
 51
349.5204418777528872
  0
ARC
  5
74B7
  8
0
 10
356.3410201324019795
 20
28.8156369425292311
 30
0.0
 40
0.0193965694016986
 50
244.7885714030034023
 51
291.2136435700887205
  0
ARC
  5
74B8
  8
0
 10
356.3381100549926828
 20
28.8105238880018284
 30
0.0
 40
0.0135386427676041
 50
196.632950965920088
 51
246.7141383084722008
  0
ARC
  5
74B9
  8
0
 10
356.3365690902862184
 20
28.8081519889939699
 30
0.0
 40
0.0115296327631541
 50
114.8248983633461933
 51
187.4923595198945918
  0
LINE
  5
74BA
  8
0
 10
356.2640815215027033
 20
28.8741642575028301
 30
0.0
 11
356.2654290168443936
 21
28.8186687782183206
 31
0.0
  0
LINE
  5
74BB
  8
0
 10
356.4166231682027046
 20
28.8683024480028294
 30
0.0
 11
356.4145872892027
 21
28.8060787396028317
 31
0.0
  0
ARC
  5
74BC
  8
0
 10
356.3214427654461929
 20
28.8205503582091183
 30
0.0
 40
0.0560453421408633
 50
181.9239217765124863
 51
215.880856232463799
  0
ARC
  5
74BD
  8
0
 10
356.335523919878824
 20
28.8307362456758085
 30
0.0
 40
0.0734243873862318
 50
215.8808562324639979
 51
252.040022105459002
  0
ARC
  5
74BE
  8
0
 10
356.344218733194225
 20
28.8575598688153896
 30
0.0
 40
0.1016220209203394
 50
252.040022105459002
 51
282.4035834271072076
  0
ARC
  5
74BF
  8
0
 10
356.351733098241823
 20
28.8233927657176601
 30
0.0
 40
0.0666383587884347
 50
282.4035834271072076
 51
316.9400566121879024
  0
ARC
  5
74C0
  8
0
 10
356.3595481262098019
 20
28.8160898332914392
 30
0.0
 40
0.0559422153637504
 50
316.940056612187675
 51
349.6911498913714809
  0
ARC
  5
74C1
  8
0
 10
356.3242372423388815
 20
28.8388948942346914
 30
0.0
 40
0.0697326231735562
 50
115.2656535182201054
 51
149.6168585445346082
  0
ARC
  5
74C2
  8
0
 10
356.3362685639488063
 20
28.7833161819558185
 30
0.0
 40
0.1257869600255895
 50
88.1351209992700433
 51
109.4061668519408954
  0
ARC
  5
74C3
  8
0
 10
356.3347976679791032
 20
28.7980723066951683
 30
0.0
 40
0.1111036368362345
 50
52.5671479338173384
 51
87.1292964737027091
  0
ARC
  5
74C4
  8
0
 10
356.3524122485213184
 20
28.8320057690887595
 30
0.0
 40
0.0737509250182313
 50
24.9504155446811495
 51
47.4026893578372821
  0
ARC
  5
74C5
  8
0
 10
356.3210483833618127
 20
28.8803506188741714
 30
0.0
 40
0.0647077057168651
 50
195.7283271632657886
 51
209.4536185527931877
  0
ARC
  5
74C6
  8
0
 10
356.3025561576353084
 20
28.8492212929534197
 30
0.0
 40
0.0458524711008086
 50
147.0448075765179965
 51
162.7612102668028058
  0
ARC
  5
74C7
  8
0
 10
356.3734743401810761
 20
28.8739306804217897
 30
0.0
 40
0.0470651530606101
 50
335.0827531459918873
 51
346.7163187281128103
  0
ARC
  5
74C8
  8
0
 10
356.3185002125615028
 20
28.8164241116619486
 30
0.0
 40
0.0531186440225259
 50
115.6891893710572958
 51
177.5780965456742138
  0
ARC
  5
74C9
  8
0
 10
356.3380323986759777
 20
28.7773934151454291
 30
0.0
 40
0.0967608948503192
 50
84.9211470607908154
 51
116.0931621169522998
  0
ARC
  5
74CA
  8
0
 10
356.3387898021387059
 20
28.7859154772911587
 30
0.0
 40
0.0882052415601883
 50
46.8620811057058333
 51
84.9211470607908154
  0
ARC
  5
74CB
  8
0
 10
356.364368154448016
 20
28.8132128672085805
 30
0.0
 40
0.0507966916930118
 50
5.0561714963158719
 51
46.8620811057056912
  0
ARC
  5
74CC
  8
0
 10
355.4515830078660201
 20
28.4377632804126286
 30
0.0
 40
0.0192084886304507
 50
57.7994518807874869
 51
114.4811242156265934
  0
ARC
  5
74CD
  8
0
 10
355.4551788687965086
 20
28.4434732895245794
 30
0.0
 40
0.0124605689591559
 50
358.4595549141450874
 51
57.7994518807905706
  0
ARC
  5
74CE
  8
0
 10
355.4560963540150738
 20
28.4452726086766603
 30
0.0
 40
0.0117343103701824
 50
289.0865982549836986
 51
349.5204418777528872
  0
ARC
  5
74CF
  8
0
 10
355.4529148545848898
 20
28.4522655995692908
 30
0.0
 40
0.0193965694016986
 50
244.7885714030034023
 51
291.2136435700887205
  0
ARC
  5
74D0
  8
0
 10
355.4500047771757067
 20
28.4471525450418916
 30
0.0
 40
0.0135386427676041
 50
196.632950965920088
 51
246.7141383084722008
  0
ARC
  5
74D1
  8
0
 10
355.4484638124691855
 20
28.4447806460340402
 30
0.0
 40
0.0115296327631541
 50
114.8248983633461933
 51
187.4923595198947908
  0
LINE
  5
74D2
  8
0
 10
355.3759762436857272
 20
28.5107929145428898
 30
0.0
 11
355.3773237390274176
 21
28.4552974352583803
 31
0.0
  0
LINE
  5
74D3
  8
0
 10
355.5285178903856718
 20
28.5049311050428891
 30
0.0
 11
355.526482011385724
 21
28.4427073966428914
 31
0.0
  0
ARC
  5
74D4
  8
0
 10
355.4333374876291032
 20
28.4571790152491815
 30
0.0
 40
0.0560453421408633
 50
181.9239217765124863
 51
215.880856232463799
  0
ARC
  5
74D5
  8
0
 10
355.4474186420617912
 20
28.4673649027158717
 30
0.0
 40
0.0734243873862318
 50
215.8808562324639979
 51
252.040022105459002
  0
ARC
  5
74D6
  8
0
 10
355.4561134553773059
 20
28.4941885258554493
 30
0.0
 40
0.1016220209203394
 50
252.040022105459002
 51
282.4035834271072076
  0
ARC
  5
74D7
  8
0
 10
355.4636278204247901
 20
28.4600214227577304
 30
0.0
 40
0.0666383587884347
 50
282.4035834271072076
 51
316.9400566121879024
  0
ARC
  5
74D8
  8
0
 10
355.4714428483928259
 20
28.4527184903314989
 30
0.0
 40
0.0559422153637504
 50
316.940056612187675
 51
349.6911498913714809
  0
ARC
  5
74D9
  8
0
 10
355.4361319645219055
 20
28.4755235512747511
 30
0.0
 40
0.0697326231735562
 50
115.2656535182201054
 51
149.6168585445346082
  0
ARC
  5
74DA
  8
0
 10
355.4481632861317735
 20
28.4199448389958818
 30
0.0
 40
0.1257869600255895
 50
88.1351209992700433
 51
109.4061668519408954
  0
ARC
  5
74DB
  8
0
 10
355.4466923901621271
 20
28.4347009637352315
 30
0.0
 40
0.1111036368362345
 50
52.5671479338173384
 51
87.1292964737027091
  0
ARC
  5
74DC
  8
0
 10
355.4643069707041718
 20
28.4686344261288191
 30
0.0
 40
0.0737509250182313
 50
24.9504155446811495
 51
47.4026893578372821
  0
ARC
  5
74DD
  8
0
 10
355.432943105544723
 20
28.5169792759142311
 30
0.0
 40
0.0647077057168651
 50
195.7283271632657886
 51
209.4536185527931877
  0
ARC
  5
74DE
  8
0
 10
355.4144508798182756
 20
28.4858499499934794
 30
0.0
 40
0.0458524711008086
 50
147.0448075765179965
 51
162.7612102668028058
  0
ARC
  5
74DF
  8
0
 10
355.4853690623641
 20
28.5105593374618493
 30
0.0
 40
0.0470651530606101
 50
335.0827531459918873
 51
346.7163187281128103
  0
ARC
  5
74E0
  8
0
 10
355.4303949347445268
 20
28.4530527687020083
 30
0.0
 40
0.0531186440225259
 50
115.6891893710572958
 51
177.5780965456742138
  0
ARC
  5
74E1
  8
0
 10
355.4499271208590017
 20
28.4140220721854995
 30
0.0
 40
0.0967608948503192
 50
84.9211470607908154
 51
116.0931621169522998
  0
ARC
  5
74E2
  8
0
 10
355.4506845243216731
 20
28.4225441343312291
 30
0.0
 40
0.0882052415601883
 50
46.8620811057058333
 51
84.9211470607908154
  0
ARC
  5
74E3
  8
0
 10
355.4762628766309831
 20
28.4498415242486402
 30
0.0
 40
0.0507966916930118
 50
5.0561714963158719
 51
46.8620811057056912
  0
ARC
  5
74E4
  8
0
 10
355.0069177719595928
 20
27.8921158926220905
 30
0.0
 40
0.0192084886304507
 50
57.7994518807874869
 51
114.4811242156265934
  0
ARC
  5
74E5
  8
0
 10
355.0105136328900812
 20
27.89782590173402
 30
0.0
 40
0.0124605689591559
 50
358.4595549141450874
 51
57.7994518807905706
  0
ARC
  5
74E6
  8
0
 10
355.0114311181087032
 20
27.8996252208861009
 30
0.0
 40
0.0117343103701824
 50
289.0865982549836986
 51
349.5204418777528872
  0
ARC
  5
74E7
  8
0
 10
355.0082496186785761
 20
27.9066182117787385
 30
0.0
 40
0.0193965694016986
 50
244.7885714030034023
 51
291.2136435700887205
  0
ARC
  5
74E8
  8
0
 10
355.0053395412692794
 20
27.9015051572513393
 30
0.0
 40
0.0135386427676041
 50
196.632950965920088
 51
246.7141383084722008
  0
ARC
  5
74E9
  8
0
 10
355.0037985765627013
 20
27.8991332582434808
 30
0.0
 40
0.0115296327631541
 50
114.8248983633461933
 51
187.4923595198947908
  0
LINE
  5
74EA
  8
0
 10
354.9313110077792999
 20
27.965145526752341
 30
0.0
 11
354.9326585031209902
 21
27.9096500474678209
 31
0.0
  0
LINE
  5
74EB
  8
0
 10
355.0838526544793012
 20
27.9592837172523403
 30
0.0
 11
355.0818167754792967
 21
27.8970600088523391
 31
0.0
  0
ARC
  5
74EC
  8
0
 10
354.9886722517227895
 20
27.9115316274586291
 30
0.0
 40
0.0560453421408633
 50
181.9239217765124863
 51
215.880856232463799
  0
ARC
  5
74ED
  8
0
 10
355.0027534061554206
 20
27.9217175149253194
 30
0.0
 40
0.0734243873862318
 50
215.8808562324641969
 51
252.040022105459002
  0
ARC
  5
74EE
  8
0
 10
355.0114482194708216
 20
27.9485411380649005
 30
0.0
 40
0.1016220209203394
 50
252.040022105459002
 51
282.4035834271072076
  0
ARC
  5
74EF
  8
0
 10
355.0189625845184196
 20
27.914374034967171
 30
0.0
 40
0.0666383587884347
 50
282.4035834271072076
 51
316.9400566121879024
  0
ARC
  5
74F0
  8
0
 10
355.0267776124862849
 20
27.9070711025409501
 30
0.0
 40
0.0559422153637504
 50
316.940056612187675
 51
349.6911498913714809
  0
ARC
  5
74F1
  8
0
 10
354.9914667286154781
 20
27.9298761634841917
 30
0.0
 40
0.0697326231735562
 50
115.2656535182201054
 51
149.6168585445346082
  0
ARC
  5
74F2
  8
0
 10
355.0034980502254029
 20
27.8742974512053294
 30
0.0
 40
0.1257869600255895
 50
88.1351209992700433
 51
109.4061668519408954
  0
ARC
  5
74F3
  8
0
 10
355.0020271542555861
 20
27.8890535759446792
 30
0.0
 40
0.1111036368362345
 50
52.5671479338173384
 51
87.1292964737027091
  0
ARC
  5
74F4
  8
0
 10
355.0196417347978013
 20
27.9229870383382703
 30
0.0
 40
0.0737509250182313
 50
24.9504155446811495
 51
47.4026893578372821
  0
ARC
  5
74F5
  8
0
 10
354.9882778696384094
 20
27.9713318881236788
 30
0.0
 40
0.0647077057168651
 50
195.7283271632657886
 51
209.4536185527931877
  0
ARC
  5
74F6
  8
0
 10
354.969785643911905
 20
27.9402025622029306
 30
0.0
 40
0.0458524711008086
 50
147.0448075765179965
 51
162.7612102668028058
  0
ARC
  5
74F7
  8
0
 10
355.0407038264576727
 20
27.9649119496713006
 30
0.0
 40
0.0470651530606101
 50
335.0827531459918873
 51
346.7163187281128103
  0
ARC
  5
74F8
  8
0
 10
354.9857296988380995
 20
27.9074053809114595
 30
0.0
 40
0.0531186440225259
 50
115.6891893710572958
 51
177.5780965456742138
  0
ARC
  5
74F9
  8
0
 10
355.0052618849525743
 20
27.86837468439494
 30
0.0
 40
0.0967608948503192
 50
84.9211470607908154
 51
116.0931621169522998
  0
ARC
  5
74FA
  8
0
 10
355.0060192884151888
 20
27.8768967465406803
 30
0.0
 40
0.0882052415601883
 50
46.8620811057058333
 51
84.9211470607908154
  0
ARC
  5
74FB
  8
0
 10
355.0315976407246126
 20
27.9041941364580914
 30
0.0
 40
0.0507966916930118
 50
5.0561714963158719
 51
46.8620811057056912
  0
ARC
  5
74FC
  8
0
 10
355.0059152433244094
 20
27.5234884267057396
 30
0.0
 40
0.0192084886304507
 50
54.5178963595739532
 51
111.1995686944105017
  0
ARC
  5
74FD
  8
0
 10
355.0098320641075134
 20
27.5289832365153195
 30
0.0
 40
0.0124605689591559
 50
355.1779993929303032
 51
54.5178963595743227
  0
ARC
  5
74FE
  8
0
 10
355.0108510427016881
 20
27.5307270860391817
 30
0.0
 40
0.0117343103701824
 50
285.8050427337682891
 51
346.2388863565378188
  0
ARC
  5
74FF
  8
0
 10
355.008075057256292
 20
27.5378907279241005
 30
0.0
 40
0.0193965694016986
 50
241.5070158817893002
 51
287.9320880488727994
  0
ARC
  5
7500
  8
0
 10
355.0048770667692111
 20
27.5329526378102187
 30
0.0
 40
0.0135386427676041
 50
193.3513954447053891
 51
243.432582787254205
  0
ARC
  5
7501
  8
0
 10
355.0032028550260179
 20
27.5306728369046496
 30
0.0
 40
0.0115296327631541
 50
111.5433428421310964
 51
184.2108039986796939
  0
LINE
  5
7502
  8
0
 10
354.9346128610005167
 20
27.6007262446833792
 30
0.0
 11
354.9327814390563276
 21
27.5452446273820115
 31
0.0
  0
LINE
  5
7503
  8
0
 10
355.0865688390528021
 20
27.5861421601137806
 30
0.0
 11
355.0809744488972228
 21
27.5241370192854795
 31
0.0
  0
ARC
  5
7504
  8
0
 10
354.9888110482822867
 20
27.5439167472415889
 30
0.0
 40
0.0560453421408633
 50
178.6423662552973042
 51
212.5993007112483042
  0
ARC
  5
7505
  8
0
 10
355.0034521808842101
 20
27.5532798903983682
 30
0.0
 40
0.0734243873862318
 50
212.5993007112485884
 51
248.758466584244502
  0
ARC
  5
7506
  8
0
 10
355.0136681923038964
 20
27.5795618166519212
 30
0.0
 40
0.1016220209203394
 50
248.758466584244502
 51
279.1220279058912865
  0
ARC
  5
7507
  8
0
 10
355.0192144208018021
 20
27.5450205953995209
 30
0.0
 40
0.0666383587884347
 50
279.1220279058912865
 51
313.658501090972095
  0
ARC
  5
7508
  8
0
 10
355.0265985952964911
 20
27.5372822847833092
 30
0.0
 40
0.0559422153637504
 50
313.6585010909719244
 51
346.4095943701568103
  0
ARC
  5
7509
  8
0
 10
354.9926510327474034
 20
27.562071240415591
 30
0.0
 40
0.0697326231735562
 50
111.9840979970043975
 51
146.3353030233199945
  0
ARC
  5
750A
  8
0
 10
355.0014811542793041
 20
27.5058949561668911
 30
0.0
 40
0.1257869600255895
 50
84.8535654780551454
 51
106.1246113307255001
  0
ARC
  5
750B
  8
0
 10
355.0008573496933764
 20
27.5207110831950885
 30
0.0
 40
0.1111036368362345
 50
49.2855924126009768
 51
83.8477409524886781
  0
ARC
  5
750C
  8
0
 10
355.0203854885346004
 20
27.5535805996365291
 30
0.0
 40
0.0737509250182313
 50
21.6688600234658288
 51
44.1211338366224268
  0
ARC
  5
750D
  8
0
 10
354.9918404377145862
 20
27.6036415286351087
 30
0.0
 40
0.0647077057168651
 50
192.4467716420500949
 51
206.1720630315772098
  0
ARC
  5
750E
  8
0
 10
354.9715966089448784
 20
27.5736217894400291
 30
0.0
 40
0.0458524711008086
 50
143.7632520553030133
 51
159.4796547455877089
  0
ARC
  5
750F
  8
0
 10
355.0438129372366234
 20
27.59423111676346
 30
0.0
 40
0.0470651530606101
 50
331.8011976247772168
 51
343.4347632068971166
  0
ARC
  5
7510
  8
0
 10
354.9856371230648051
 20
27.5399657060166412
 30
0.0
 40
0.0531186440225259
 50
112.4076338498428953
 51
174.2965410244588895
  0
ARC
  5
7511
  8
0
 10
355.0029030620254957
 20
27.4998809343847306
 30
0.0
 40
0.0967608948503192
 50
81.639591539573189
 51
112.8116065957386951
  0
ARC
  5
7512
  8
0
 10
355.0041470489135804
 20
27.508345667094229
 30
0.0
 40
0.0882052415601883
 50
43.5805255844894788
 51
81.639591539573189
  0
ARC
  5
7513
  8
0
 10
355.0312460349775279
 20
27.5341341249285101
 30
0.0
 40
0.0507966916930118
 50
1.774615975100716
 51
43.5805255844893296
  0
ARC
  5
7514
  8
0
 10
355.005090534615988
 20
27.1669272679385294
 30
0.0
 40
0.0192084886304507
 50
54.5178963595739532
 51
111.1995686944105017
  0
ARC
  5
7515
  8
0
 10
355.0090073553990919
 20
27.1724220777481094
 30
0.0
 40
0.0124605689591559
 50
355.1779993929303032
 51
54.5178963595743227
  0
ARC
  5
7516
  8
0
 10
355.0100263339933235
 20
27.1741659272719716
 30
0.0
 40
0.0117343103701824
 50
285.8050427337682891
 51
346.2388863565378188
  0
ARC
  5
7517
  8
0
 10
355.0072503485479274
 20
27.1813295691568797
 30
0.0
 40
0.0193965694016986
 50
241.5070158817893002
 51
287.9320880488727994
  0
ARC
  5
7518
  8
0
 10
355.0040523580607896
 20
27.1763914790430015
 30
0.0
 40
0.0135386427676041
 50
193.3513954447053891
 51
243.432582787254205
  0
ARC
  5
7519
  8
0
 10
355.0023781463174828
 20
27.1741116781374394
 30
0.0
 40
0.0115296327631541
 50
111.5433428421310964
 51
184.2108039986796939
  0
LINE
  5
751A
  8
0
 10
354.9337881522920952
 20
27.2441650859161584
 30
0.0
 11
354.9319567303477925
 21
27.1886834686147907
 31
0.0
  0
LINE
  5
751B
  8
0
 10
355.0857441303443807
 20
27.2295810013465704
 30
0.0
 11
355.0801497401886877
 21
27.1675758605182693
 31
0.0
  0
ARC
  5
751C
  8
0
 10
354.9879863395739221
 20
27.1873555884743716
 30
0.0
 40
0.0560453421408633
 50
178.6423662552973042
 51
212.5993007112483042
  0
ARC
  5
751D
  8
0
 10
355.0026274721756749
 20
27.1967187316311616
 30
0.0
 40
0.0734243873862318
 50
212.5993007112485884
 51
248.758466584244502
  0
ARC
  5
751E
  8
0
 10
355.0128434835954181
 20
27.223000657884711
 30
0.0
 40
0.1016220209203394
 50
248.758466584244502
 51
279.1220279058912865
  0
ARC
  5
751F
  8
0
 10
355.0183897120933807
 20
27.1884594366323107
 30
0.0
 40
0.0666383587884347
 50
279.1220279058912865
 51
313.658501090972095
  0
ARC
  5
7520
  8
0
 10
355.0257738865881265
 20
27.180721126016099
 30
0.0
 40
0.0559422153637504
 50
313.6585010909719244
 51
346.4095943701568103
  0
ARC
  5
7521
  8
0
 10
354.991826324038982
 20
27.2055100816483808
 30
0.0
 40
0.0697326231735562
 50
111.9840979970043975
 51
146.3353030233199945
  0
ARC
  5
7522
  8
0
 10
355.0006564455708826
 20
27.1493337973996809
 30
0.0
 40
0.1257869600255895
 50
84.8535654780551454
 51
106.1246113307255001
  0
ARC
  5
7523
  8
0
 10
355.0000326409850118
 20
27.1641499244278783
 30
0.0
 40
0.1111036368362345
 50
49.2855924126009768
 51
83.8477409524886781
  0
ARC
  5
7524
  8
0
 10
355.019560779826179
 20
27.1970194408693189
 30
0.0
 40
0.0737509250182313
 50
21.6688600234658288
 51
44.1211338366224268
  0
ARC
  5
7525
  8
0
 10
354.9910157290061079
 20
27.2470803698678914
 30
0.0
 40
0.0647077057168651
 50
192.4467716420500949
 51
206.1720630315772098
  0
ARC
  5
7526
  8
0
 10
354.9707719002364001
 20
27.2170606306728189
 30
0.0
 40
0.0458524711008086
 50
143.7632520553030133
 51
159.4796547455877089
  0
ARC
  5
7527
  8
0
 10
355.0429882285282019
 20
27.2376699579962498
 30
0.0
 40
0.0470651530606101
 50
331.8011976247772168
 51
343.4347632068971166
  0
ARC
  5
7528
  8
0
 10
354.9848124143563837
 20
27.183404547249431
 30
0.0
 40
0.0531186440225259
 50
112.4076338498428953
 51
174.2965410244588895
  0
ARC
  5
7529
  8
0
 10
355.0020783533170743
 20
27.1433197756175204
 30
0.0
 40
0.0967608948503192
 50
81.639591539573189
 51
112.8116065957386951
  0
ARC
  5
752A
  8
0
 10
355.0033223402051021
 20
27.1517845083270117
 30
0.0
 40
0.0882052415601883
 50
43.5805255844894788
 51
81.639591539573189
  0
ARC
  5
752B
  8
0
 10
355.0304213262691064
 20
27.1775729661612999
 30
0.0
 40
0.0507966916930118
 50
1.774615975100716
 51
43.5805255844893296
  0
ARC
  5
752C
  8
0
 10
355.449938510394702
 20
26.6247202659457507
 30
0.0
 40
0.0192084886304507
 50
54.5178963595739532
 51
111.1995686944105017
  0
ARC
  5
752D
  8
0
 10
355.453855331177806
 20
26.6302150757553306
 30
0.0
 40
0.0124605689591559
 50
355.1779993929303032
 51
54.5178963595743227
  0
ARC
  5
752E
  8
0
 10
355.4548743097719807
 20
26.6319589252791893
 30
0.0
 40
0.0117343103701824
 50
285.8050427337682891
 51
346.2388863565378188
  0
ARC
  5
752F
  8
0
 10
355.4520983243265846
 20
26.639122567164101
 30
0.0
 40
0.0193965694016986
 50
241.5070158817893002
 51
287.9320880488727994
  0
ARC
  5
7530
  8
0
 10
355.4489003338395037
 20
26.6341844770502298
 30
0.0
 40
0.0135386427676041
 50
193.3513954447053891
 51
243.432582787254205
  0
ARC
  5
7531
  8
0
 10
355.4472261220963105
 20
26.6319046761446607
 30
0.0
 40
0.0115296327631541
 50
111.5433428421310964
 51
184.2108039986796939
  0
LINE
  5
7532
  8
0
 10
355.3786361280708093
 20
26.7019580839233797
 30
0.0
 11
355.3768047061266202
 21
26.6464764666220084
 31
0.0
  0
LINE
  5
7533
  8
0
 10
355.5305921061230947
 20
26.6873739993537917
 30
0.0
 11
355.5249977159675154
 21
26.6253688585254906
 31
0.0
  0
ARC
  5
7534
  8
0
 10
355.4328343153525793
 20
26.6451485864815893
 30
0.0
 40
0.0560453421408633
 50
178.6423662552973042
 51
212.5993007112483042
  0
ARC
  5
7535
  8
0
 10
355.4474754479545027
 20
26.6545117296383793
 30
0.0
 40
0.0734243873862318
 50
212.5993007112485884
 51
248.758466584244502
  0
ARC
  5
7536
  8
0
 10
355.457691459374189
 20
26.6807936558919288
 30
0.0
 40
0.1016220209203394
 50
248.758466584244502
 51
279.1220279058912865
  0
ARC
  5
7537
  8
0
 10
355.4632376878720947
 20
26.6462524346395284
 30
0.0
 40
0.0666383587884347
 50
279.1220279058912865
 51
313.658501090972095
  0
ARC
  5
7538
  8
0
 10
355.4706218623667837
 20
26.6385141240233203
 30
0.0
 40
0.0559422153637504
 50
313.6585010909719244
 51
346.4095943701568103
  0
ARC
  5
7539
  8
0
 10
355.436674299817696
 20
26.6633030796555985
 30
0.0
 40
0.0697326231735562
 50
111.9840979970043975
 51
146.3353030233199945
  0
ARC
  5
753A
  8
0
 10
355.4455044213495967
 20
26.6071267954068986
 30
0.0
 40
0.1257869600255895
 50
84.8535654780551454
 51
106.1246113307255001
  0
ARC
  5
753B
  8
0
 10
355.4448806167637258
 20
26.6219429224350996
 30
0.0
 40
0.1111036368362345
 50
49.2855924126009768
 51
83.8477409524886781
  0
ARC
  5
753C
  8
0
 10
355.464408755604893
 20
26.6548124388765402
 30
0.0
 40
0.0737509250182313
 50
21.6688600234658288
 51
44.1211338366224268
  0
ARC
  5
753D
  8
0
 10
355.4358637047848788
 20
26.7048733678751091
 30
0.0
 40
0.0647077057168651
 50
192.4467716420500949
 51
206.1720630315772098
  0
ARC
  5
753E
  8
0
 10
355.4156198760152279
 20
26.6748536286800402
 30
0.0
 40
0.0458524711008086
 50
143.7632520553030133
 51
159.4796547455877089
  0
ARC
  5
753F
  8
0
 10
355.487836204306916
 20
26.6954629560034711
 30
0.0
 40
0.0470651530606101
 50
331.8011976247772168
 51
343.4347632068971166
  0
ARC
  5
7540
  8
0
 10
355.4296603901350977
 20
26.6411975452566487
 30
0.0
 40
0.0531186440225259
 50
112.4076338498428953
 51
174.2965410244588895
  0
ARC
  5
7541
  8
0
 10
355.4469263290957883
 20
26.601112773624731
 30
0.0
 40
0.0967608948503192
 50
81.639591539573189
 51
112.8116065957386951
  0
ARC
  5
7542
  8
0
 10
355.448170315983873
 20
26.6095775063342401
 30
0.0
 40
0.0882052415601883
 50
43.5805255844894788
 51
81.639591539573189
  0
ARC
  5
7543
  8
0
 10
355.4752693020478205
 20
26.6353659641685212
 30
0.0
 40
0.0507966916930118
 50
1.774615975100716
 51
43.5805255844893296
  0
ARC
  5
7544
  8
0
 10
355.8954097489225887
 20
26.4361979465767298
 30
0.0
 40
0.0192084886304507
 50
54.5178963595739532
 51
111.1995686944105017
  0
ARC
  5
7545
  8
0
 10
355.8993265697058064
 20
26.4416927563863098
 30
0.0
 40
0.0124605689591559
 50
355.1779993929303032
 51
54.5178963595743227
  0
ARC
  5
7546
  8
0
 10
355.9003455482999243
 20
26.4434366059101684
 30
0.0
 40
0.0117343103701824
 50
285.8050427337682891
 51
346.2388863565378188
  0
ARC
  5
7547
  8
0
 10
355.8975695628545282
 20
26.4506002477950908
 30
0.0
 40
0.0193965694016986
 50
241.5070158817893002
 51
287.9320880488727994
  0
ARC
  5
7548
  8
0
 10
355.8943715723675041
 20
26.445662157681209
 30
0.0
 40
0.0135386427676041
 50
193.3513954447053891
 51
243.432582787254205
  0
ARC
  5
7549
  8
0
 10
355.8926973606241972
 20
26.4433823567756399
 30
0.0
 40
0.0115296327631541
 50
111.5433428421310964
 51
184.2108039986796939
  0
LINE
  5
754A
  8
0
 10
355.8241073665988097
 20
26.5134357645543588
 30
0.0
 11
355.8222759446545069
 21
26.4579541472529911
 31
0.0
  0
LINE
  5
754B
  8
0
 10
355.9760633446510951
 20
26.4988516799847709
 30
0.0
 11
355.9704689544954022
 21
26.4368465391564698
 31
0.0
  0
ARC
  5
754C
  8
0
 10
355.8783055538805229
 20
26.4566262671125791
 30
0.0
 40
0.0560453421408633
 50
178.6423662552973042
 51
212.5993007112483042
  0
ARC
  5
754D
  8
0
 10
355.8929466864823894
 20
26.4659894102693585
 30
0.0
 40
0.0734243873862318
 50
212.5993007112485884
 51
248.758466584244502
  0
ARC
  5
754E
  8
0
 10
355.9031626979020757
 20
26.4922713365229114
 30
0.0
 40
0.1016220209203394
 50
248.758466584244502
 51
279.1220279058912865
  0
ARC
  5
754F
  8
0
 10
355.9087089263999815
 20
26.4577301152705111
 30
0.0
 40
0.0666383587884347
 50
279.1220279058912865
 51
313.658501090972095
  0
ARC
  5
7550
  8
0
 10
355.9160931008947841
 20
26.4499918046542994
 30
0.0
 40
0.0559422153637504
 50
313.6585010909719244
 51
346.4095943701568103
  0
ARC
  5
7551
  8
0
 10
355.8821455383455827
 20
26.4747807602865812
 30
0.0
 40
0.0697326231735562
 50
111.9840979970043975
 51
146.3353030233199945
  0
ARC
  5
7552
  8
0
 10
355.8909756598774834
 20
26.4186044760378813
 30
0.0
 40
0.1257869600255895
 50
84.8535654780551454
 51
106.1246113307255001
  0
ARC
  5
7553
  8
0
 10
355.8903518552917262
 20
26.4334206030660788
 30
0.0
 40
0.1111036368362345
 50
49.2855924126009768
 51
83.8477409524886781
  0
ARC
  5
7554
  8
0
 10
355.9098799941327798
 20
26.4662901195075193
 30
0.0
 40
0.0737509250182313
 50
21.6688600234658288
 51
44.1211338366224268
  0
ARC
  5
7555
  8
0
 10
355.8813349433128224
 20
26.5163510485060989
 30
0.0
 40
0.0647077057168651
 50
192.4467716420500949
 51
206.1720630315772098
  0
ARC
  5
7556
  8
0
 10
355.8610911145431146
 20
26.48633130931103
 30
0.0
 40
0.0458524711008086
 50
143.7632520553030133
 51
159.4796547455877089
  0
ARC
  5
7557
  8
0
 10
355.9333074428348027
 20
26.5069406366344502
 30
0.0
 40
0.0470651530606101
 50
331.8011976247772168
 51
343.4347632068971166
  0
ARC
  5
7558
  8
0
 10
355.8751316286630981
 20
26.4526752258876385
 30
0.0
 40
0.0531186440225259
 50
112.4076338498428953
 51
174.2965410244588895
  0
ARC
  5
7559
  8
0
 10
355.8923975676236751
 20
26.4125904542557208
 30
0.0
 40
0.0967608948503192
 50
81.639591539573189
 51
112.8116065957386951
  0
ARC
  5
755A
  8
0
 10
355.8936415545117029
 20
26.4210551869652193
 30
0.0
 40
0.0882052415601883
 50
43.5805255844894788
 51
81.639591539573189
  0
ARC
  5
755B
  8
0
 10
355.9207405405758209
 20
26.4468436447995003
 30
0.0
 40
0.0507966916930118
 50
1.774615975100716
 51
43.5805255844893296
  0
ARC
  5
755C
  8
0
 10
356.3380060506120799
 20
26.2620379265721304
 30
0.0
 40
0.0192084886304507
 50
54.5178963595739532
 51
111.1995686944105017
  0
ARC
  5
755D
  8
0
 10
356.3419228713951838
 20
26.2675327363817104
 30
0.0
 40
0.0124605689591559
 50
355.1779993929303032
 51
54.5178963595743227
  0
ARC
  5
755E
  8
0
 10
356.3429418499894155
 20
26.269276585905569
 30
0.0
 40
0.0117343103701824
 50
285.8050427337682891
 51
346.2388863565378188
  0
ARC
  5
755F
  8
0
 10
356.3401658645440193
 20
26.2764402277904807
 30
0.0
 40
0.0193965694016986
 50
241.5070158817893002
 51
287.9320880488727994
  0
ARC
  5
7560
  8
0
 10
356.3369678740568816
 20
26.2715021376766096
 30
0.0
 40
0.0135386427676041
 50
193.3513954447053891
 51
243.432582787254205
  0
ARC
  5
7561
  8
0
 10
356.3352936623136884
 20
26.2692223367710405
 30
0.0
 40
0.0115296327631541
 50
111.5433428421310964
 51
184.2108039986796939
  0
LINE
  5
7562
  8
0
 10
356.2667036682881871
 20
26.3392757445497594
 30
0.0
 11
356.2648722463439981
 21
26.2837941272483917
 31
0.0
  0
LINE
  5
7563
  8
0
 10
356.4186596463404726
 20
26.3246916599801715
 30
0.0
 11
356.4130652561848933
 21
26.2626865191518704
 31
0.0
  0
ARC
  5
7564
  8
0
 10
356.320901855570014
 20
26.2824662471079797
 30
0.0
 40
0.0560453421408633
 50
178.6423662552973042
 51
212.5993007112483042
  0
ARC
  5
7565
  8
0
 10
356.3355429881719942
 20
26.2918293902647591
 30
0.0
 40
0.0734243873862318
 50
212.5993007112485884
 51
248.758466584244502
  0
ARC
  5
7566
  8
0
 10
356.3457589995916237
 20
26.3181113165183085
 30
0.0
 40
0.1016220209203394
 50
248.758466584244502
 51
279.1220279058912865
  0
ARC
  5
7567
  8
0
 10
356.3513052280894726
 20
26.283570095265901
 30
0.0
 40
0.0666383587884347
 50
279.1220279058912865
 51
313.658501090972095
  0
ARC
  5
7568
  8
0
 10
356.3586894025842753
 20
26.2758317846497
 30
0.0
 40
0.0559422153637504
 50
313.6585010909719244
 51
346.4095943701568103
  0
ARC
  5
7569
  8
0
 10
356.3247418400350739
 20
26.3006207402819712
 30
0.0
 40
0.0697326231735562
 50
111.9840979970043975
 51
146.3353030233199945
  0
ARC
  5
756A
  8
0
 10
356.3335719615669746
 20
26.2444444560332784
 30
0.0
 40
0.1257869600255895
 50
84.8535654780551454
 51
106.1246113307255001
  0
ARC
  5
756B
  8
0
 10
356.3329481569811037
 20
26.2592605830614794
 30
0.0
 40
0.1111036368362345
 50
49.2855924126009768
 51
83.8477409524886781
  0
ARC
  5
756C
  8
0
 10
356.3524762958223278
 20
26.2921300995029199
 30
0.0
 40
0.0737509250182313
 50
21.6688600234658288
 51
44.1211338366224268
  0
ARC
  5
756D
  8
0
 10
356.3239312450023135
 20
26.3421910285014995
 30
0.0
 40
0.0647077057168651
 50
192.4467716420500949
 51
206.1720630315772098
  0
ARC
  5
756E
  8
0
 10
356.3036874162326058
 20
26.3121712893064199
 30
0.0
 40
0.0458524711008086
 50
143.7632520553030133
 51
159.4796547455877089
  0
ARC
  5
756F
  8
0
 10
356.3759037445242939
 20
26.3327806166298508
 30
0.0
 40
0.0470651530606101
 50
331.8011976247772168
 51
343.4347632068971166
  0
ARC
  5
7570
  8
0
 10
356.3177279303524756
 20
26.2785152058830285
 30
0.0
 40
0.0531186440225259
 50
112.4076338498428953
 51
174.2965410244588895
  0
ARC
  5
7571
  8
0
 10
356.3349938693132231
 20
26.2384304342511108
 30
0.0
 40
0.0967608948503192
 50
81.639591539573189
 51
112.8116065957386951
  0
ARC
  5
7572
  8
0
 10
356.3362378562013077
 20
26.2468951669606092
 30
0.0
 40
0.0882052415601883
 50
43.5805255844894788
 51
81.639591539573189
  0
ARC
  5
7573
  8
0
 10
356.363336842265312
 20
26.2726836247948903
 30
0.0
 40
0.0507966916930118
 50
1.774615975100716
 51
43.5805255844893296
  0
ARC
  5
7574
  8
0
 10
355.8955549233895113
 20
27.4510619931706685
 30
0.0
 40
0.0222091795754215
 50
65.3209348931844005
 51
120.7659622398631996
  0
ARC
  5
7575
  8
0
 10
355.8981651307630045
 20
27.4567424572983505
 30
0.0
 40
0.0159577113288006
 50
31.1599187767661903
 51
65.3209348931844858
  0
ARC
  5
7576
  8
0
 10
355.9045399475925251
 20
27.4605970910388812
 30
0.0
 40
0.0085081146361368
 50
329.012309169078776
 51
31.1599187767661903
  0
ARC
  5
7577
  8
0
 10
355.8993879731344236
 20
27.4636912033665794
 30
0.0
 40
0.014517804471183
 50
283.1316158245335259
 51
329.0123091690783781
  0
ARC
  5
7578
  8
0
 10
355.8965514581137768
 20
27.4758500040864391
 30
0.0
 40
0.0270030859020216
 50
255.8043457872676925
 51
283.1316158245335259
  0
ARC
  5
7579
  8
0
 10
355.8939229910860149
 20
27.4654590894954715
 30
0.0
 40
0.0162848796643382
 50
216.9874455719294133
 51
255.8043457872676072
  0
ARC
  5
757A
  8
0
 10
355.8885304172242741
 20
27.4613973458795506
 30
0.0
 40
0.0095337601975813
 50
160.2504959599461074
 51
216.9874455719298965
  0
ARC
  5
757B
  8
0
 10
355.8893675460097938
 20
27.4610967941145603
 30
0.0
 40
0.0104232071981816
 50
119.7574216480021931
 51
160.2504959599461927
  0
ARC
  5
757C
  8
0
 10
355.8786989190750205
 20
27.4711602398842096
 30
0.0
 40
0.0379957230810885
 50
179.2517643227151041
 51
220.0775975952097099
  0
ARC
  5
757D
  8
0
 10
355.8916283324609253
 20
27.4820391796971002
 30
0.0
 40
0.0548930915731677
 50
220.0775975952097099
 51
257.0941730958048197
  0
ARC
  5
757E
  8
0
 10
355.8976093717359959
 20
27.5081415697683802
 30
0.0
 40
0.0816719563408186
 50
257.0941730958048197
 51
281.960430808380579
  0
ARC
  5
757F
  8
0
 10
355.9040934796494753
 20
27.4775323105763682
 30
0.0
 40
0.050383453600733
 50
281.960430808380579
 51
321.0333937662912831
  0
ARC
  5
7580
  8
0
 10
355.9153691765480971
 20
27.4684123074375997
 30
0.0
 40
0.0358811848885916
 50
321.0333937662911126
 51
355.4866658446018164
  0
LINE
  5
7581
  8
0
 10
355.8407064358826801
 20
27.4716564186213397
 30
0.0
 11
355.8395672853591236
 21
27.5182029485218393
 31
0.0
  0
ARC
  5
7582
  8
0
 10
355.8816834071828907
 20
27.4887980898635718
 30
0.0
 40
0.0513654887077759
 50
108.7487435796215038
 51
145.0778195754269859
  0
ARC
  5
7583
  8
0
 10
355.895093394843002
 20
27.4719714592150694
 30
0.0
 40
0.0693132964878928
 50
68.058880995009801
 51
89.2857406932096183
  0
ARC
  5
7584
  8
0
 10
355.8919867544956901
 20
27.4478318865992996
 30
0.0
 40
0.0935318048544208
 50
87.5669008292590547
 51
106.6589627613640943
  0
ARC
  5
7585
  8
0
 10
355.9020383367608815
 20
27.4794133718758502
 30
0.0
 40
0.0599273555296639
 50
32.9464345682090993
 51
71.5614993756765188
  0
ARC
  5
7586
  8
0
 10
355.8749593655718968
 20
27.4685324583455603
 30
0.0
 40
0.034395091511659
 50
128.5061558579361929
 51
174.7888858585193077
  0
ARC
  5
7587
  8
0
 10
355.8914862593654789
 20
27.4474880350763009
 30
0.0
 40
0.0611530782976225
 50
98.0354694135900644
 51
128.3475771022704066
  0
ARC
  5
7588
  8
0
 10
355.8939576314488136
 20
27.4299819501891307
 30
0.0
 40
0.0788327470742313
 50
67.4896201449711555
 51
98.0354694135900644
  0
ARC
  5
7589
  8
0
 10
355.9050142141118158
 20
27.4566612303759214
 30
0.0
 40
0.0499531346899018
 50
39.1826063636066735
 51
67.4896201449710844
  0
ARC
  5
758A
  8
0
 10
355.9180593335303797
 20
27.4672939774023988
 30
0.0
 40
0.0331236828279122
 50
357.0491214950828862
 51
39.1826063636063466
  0
LINE
  5
758B
  8
0
 10
355.9511390955813113
 20
27.4655887774898595
 30
0.0
 11
355.9523281378591264
 21
27.5120051476218386
 31
0.0
  0
ARC
  5
758C
  8
0
 10
355.9211295074363193
 20
27.5225343996771095
 30
0.0
 40
0.0392405262080591
 50
321.8204845188645891
 51
334.205542269655723
  0
ARC
  5
758D
  8
0
 10
355.924032071394322
 20
27.4895668956400705
 30
0.0
 40
0.0361129136096276
 50
26.1083727032692394
 51
38.4137593920213405
  0
ARC
  5
758E
  8
0
 10
355.8601106922419035
 20
27.4994262702271008
 30
0.0
 40
0.0278315506958538
 50
137.5726814280791928
 51
151.0213979558527058
  0
ARC
  5
758F
  8
0
 10
355.8778674433975766
 20
27.5328735831825711
 30
0.0
 40
0.0465968702717355
 50
205.3678347307009915
 51
215.4296434525373058
  0
ARC
  5
7590
  8
0
 10
355.8961868828283173
 20
27.0959643518191093
 30
0.0
 40
0.0222091795754215
 50
65.3209348931844005
 51
120.7659622398631996
  0
ARC
  5
7591
  8
0
 10
355.8987970902018105
 20
27.1016448159467913
 30
0.0
 40
0.0159577113288006
 50
31.1599187767661903
 51
65.3209348931844858
  0
ARC
  5
7592
  8
0
 10
355.9051719070312174
 20
27.1054994496873185
 30
0.0
 40
0.0085081146361368
 50
329.012309169078776
 51
31.1599187767661903
  0
ARC
  5
7593
  8
0
 10
355.900019932573116
 20
27.1085935620150309
 30
0.0
 40
0.014517804471183
 50
283.1316158245335259
 51
329.0123091690783781
  0
ARC
  5
7594
  8
0
 10
355.897183417552526
 20
27.1207523627348799
 30
0.0
 40
0.0270030859020216
 50
255.8043457872676925
 51
283.1316158245335259
  0
ARC
  5
7595
  8
0
 10
355.8945549505247072
 20
27.1103614481439088
 30
0.0
 40
0.0162848796643382
 50
216.9874455719294133
 51
255.8043457872676072
  0
ARC
  5
7596
  8
0
 10
355.8891623766630801
 20
27.1062997045279914
 30
0.0
 40
0.0095337601975813
 50
160.2504959599461074
 51
216.9874455719298965
  0
ARC
  5
7597
  8
0
 10
355.8899995054484862
 20
27.1059991527629904
 30
0.0
 40
0.0104232071981816
 50
119.7574216480021931
 51
160.2504959599461927
  0
ARC
  5
7598
  8
0
 10
355.8793308785137128
 20
27.1160625985326504
 30
0.0
 40
0.0379957230810885
 50
179.2517643227151041
 51
220.0775975952097099
  0
ARC
  5
7599
  8
0
 10
355.8922602918996745
 20
27.126941538345541
 30
0.0
 40
0.0548930915731677
 50
220.0775975952097099
 51
257.0941730958048197
  0
ARC
  5
759A
  8
0
 10
355.8982413311748019
 20
27.153043928416821
 30
0.0
 40
0.0816719563408186
 50
257.0941730958048197
 51
281.960430808380579
  0
ARC
  5
759B
  8
0
 10
355.9047254390882244
 20
27.1224346692248091
 30
0.0
 40
0.050383453600733
 50
281.960430808380579
 51
321.0333937662912831
  0
ARC
  5
759C
  8
0
 10
355.9160011359867894
 20
27.1133146660860405
 30
0.0
 40
0.0358811848885916
 50
321.0333937662911126
 51
355.4866658446018164
  0
LINE
  5
759D
  8
0
 10
355.8413383953213724
 20
27.1165587772697805
 30
0.0
 11
355.8401992447978728
 21
27.1631053071702802
 31
0.0
  0
ARC
  5
759E
  8
0
 10
355.8823153666215831
 20
27.133700448512009
 30
0.0
 40
0.0513654887077759
 50
108.7487435796215038
 51
145.0778195754269859
  0
ARC
  5
759F
  8
0
 10
355.895725354281808
 20
27.1168738178635103
 30
0.0
 40
0.0693132964878928
 50
68.058880995009801
 51
89.2857406932096183
  0
ARC
  5
75A0
  8
0
 10
355.8926187139343824
 20
27.0927342452477404
 30
0.0
 40
0.0935318048544208
 50
87.5669008292590547
 51
106.6589627613640943
  0
ARC
  5
75A1
  8
0
 10
355.9026702961995738
 20
27.124315730524291
 30
0.0
 40
0.0599273555296639
 50
32.9464345682090993
 51
71.5614993756765188
  0
ARC
  5
75A2
  8
0
 10
355.8755913250105891
 20
27.1134348169940083
 30
0.0
 40
0.034395091511659
 50
128.5061558579361929
 51
174.7888858585193077
  0
ARC
  5
75A3
  8
0
 10
355.892118218804228
 20
27.0923903937247417
 30
0.0
 40
0.0611530782976225
 50
98.0354694135900644
 51
128.3475771022704066
  0
ARC
  5
75A4
  8
0
 10
355.8945895908875059
 20
27.0748843088375786
 30
0.0
 40
0.0788327470742313
 50
67.4896201449711555
 51
98.0354694135900644
  0
ARC
  5
75A5
  8
0
 10
355.9056461735505081
 20
27.1015635890243587
 30
0.0
 40
0.0499531346899018
 50
39.1826063636066735
 51
67.4896201449710844
  0
ARC
  5
75A6
  8
0
 10
355.918691292969072
 20
27.1121963360508396
 30
0.0
 40
0.0331236828279122
 50
357.0491214950828862
 51
39.1826063636063466
  0
LINE
  5
75A7
  8
0
 10
355.9517710550200036
 20
27.1104911361383003
 30
0.0
 11
355.9529600972978756
 21
27.1569075062702794
 31
0.0
  0
ARC
  5
75A8
  8
0
 10
355.9217614668750116
 20
27.1674367583255503
 30
0.0
 40
0.0392405262080591
 50
321.8204845188645891
 51
334.205542269655723
  0
ARC
  5
75A9
  8
0
 10
355.924664030833128
 20
27.1344692542885184
 30
0.0
 40
0.0361129136096276
 50
26.1083727032692394
 51
38.4137593920213405
  0
ARC
  5
75AA
  8
0
 10
355.8607426516807095
 20
27.1443286288755417
 30
0.0
 40
0.0278315506958538
 50
137.5726814280791928
 51
151.0213979558527058
  0
ARC
  5
75AB
  8
0
 10
355.8784994028363258
 20
27.1777759418310083
 30
0.0
 40
0.0465968702717355
 50
205.3678347307009915
 51
215.4296434525373058
  0
ARC
  5
75AC
  8
0
 10
355.8963787569593933
 20
26.7569539269809589
 30
0.0
 40
0.0222091795754215
 50
65.3209348931844005
 51
120.7659622398631996
  0
ARC
  5
75AD
  8
0
 10
355.8989889643328866
 20
26.7626343911086515
 30
0.0
 40
0.0159577113288006
 50
31.1599187767661903
 51
65.3209348931844858
  0
ARC
  5
75AE
  8
0
 10
355.9053637811622934
 20
26.7664890248491787
 30
0.0
 40
0.0085081146361368
 50
329.012309169078776
 51
31.1599187767661903
  0
ARC
  5
75AF
  8
0
 10
355.900211806704192
 20
26.7695831371768804
 30
0.0
 40
0.014517804471183
 50
283.1316158245335259
 51
329.0123091690783781
  0
ARC
  5
75B0
  8
0
 10
355.8973752916837157
 20
26.7817419378967401
 30
0.0
 40
0.0270030859020216
 50
255.8043457872676925
 51
283.1316158245335259
  0
ARC
  5
75B1
  8
0
 10
355.8947468246557833
 20
26.7713510233057583
 30
0.0
 40
0.0162848796643382
 50
216.9874455719294133
 51
255.8043457872676072
  0
ARC
  5
75B2
  8
0
 10
355.8893542507942129
 20
26.767289279689841
 30
0.0
 40
0.0095337601975813
 50
160.2504959599461074
 51
216.9874455719298965
  0
ARC
  5
75B3
  8
0
 10
355.890191379579619
 20
26.7669887279248506
 30
0.0
 40
0.0104232071981816
 50
119.7574216480021931
 51
160.2504959599461927
  0
ARC
  5
75B4
  8
0
 10
355.8795227526449025
 20
26.7770521736945
 30
0.0
 40
0.0379957230810885
 50
179.2517643227151041
 51
220.0775975952097099
  0
ARC
  5
75B5
  8
0
 10
355.8924521660308073
 20
26.7879311135073905
 30
0.0
 40
0.0548930915731677
 50
220.0775975952097099
 51
257.0941730958048197
  0
ARC
  5
75B6
  8
0
 10
355.8984332053058779
 20
26.8140335035786812
 30
0.0
 40
0.0816719563408186
 50
257.0941730958048197
 51
281.960430808380579
  0
ARC
  5
75B7
  8
0
 10
355.9049173132194142
 20
26.7834242443866692
 30
0.0
 40
0.050383453600733
 50
281.960430808380579
 51
321.0333937662912831
  0
ARC
  5
75B8
  8
0
 10
355.9161930101179223
 20
26.7743042412479006
 30
0.0
 40
0.0358811848885916
 50
321.0333937662911126
 51
355.4866658446018164
  0
LINE
  5
75B9
  8
0
 10
355.8415302694525053
 20
26.7775483524316407
 30
0.0
 11
355.8403911189290056
 21
26.8240948823321403
 31
0.0
  0
ARC
  5
75BA
  8
0
 10
355.8825072407527728
 20
26.7946900236738692
 30
0.0
 40
0.0513654887077759
 50
108.7487435796215038
 51
145.0778195754269859
  0
ARC
  5
75BB
  8
0
 10
355.8959172284128272
 20
26.7778633930253598
 30
0.0
 40
0.0693132964878928
 50
68.058880995009801
 51
89.2857406932096183
  0
ARC
  5
75BC
  8
0
 10
355.8928105880655721
 20
26.7537238204096006
 30
0.0
 40
0.0935318048544208
 50
87.5669008292590547
 51
106.6589627613640943
  0
ARC
  5
75BD
  8
0
 10
355.9028621703307067
 20
26.7853053056861512
 30
0.0
 40
0.0599273555296639
 50
32.9464345682090993
 51
71.5614993756765188
  0
ARC
  5
75BE
  8
0
 10
355.875783199141722
 20
26.7744243921558613
 30
0.0
 40
0.034395091511659
 50
128.5061558579361929
 51
174.7888858585193077
  0
ARC
  5
75BF
  8
0
 10
355.8923100929354177
 20
26.7533799688865983
 30
0.0
 40
0.0611530782976225
 50
98.0354694135900644
 51
128.3475771022704066
  0
ARC
  5
75C0
  8
0
 10
355.8947814650185819
 20
26.7358738839994317
 30
0.0
 40
0.0788327470742313
 50
67.4896201449711555
 51
98.0354694135900644
  0
ARC
  5
75C1
  8
0
 10
355.9058380476815842
 20
26.7625531641862189
 30
0.0
 40
0.0499531346899018
 50
39.1826063636066735
 51
67.4896201449710844
  0
ARC
  5
75C2
  8
0
 10
355.9188831671002049
 20
26.7731859112126998
 30
0.0
 40
0.0331236828279122
 50
357.0491214950828862
 51
39.1826063636063466
  0
LINE
  5
75C3
  8
0
 10
355.9519629291510796
 20
26.7714807113001498
 30
0.0
 11
355.9531519714290084
 21
26.8178970814321396
 31
0.0
  0
ARC
  5
75C4
  8
0
 10
355.9219533410062013
 20
26.8284263334874105
 30
0.0
 40
0.0392405262080591
 50
321.8204845188645891
 51
334.205542269655723
  0
ARC
  5
75C5
  8
0
 10
355.924855904964204
 20
26.7954588294503715
 30
0.0
 40
0.0361129136096276
 50
26.1083727032692394
 51
38.4137593920213405
  0
ARC
  5
75C6
  8
0
 10
355.8609345258117855
 20
26.8053182040373983
 30
0.0
 40
0.0278315506958538
 50
137.5726814280791928
 51
151.0213979558527058
  0
ARC
  5
75C7
  8
0
 10
355.8786912769674018
 20
26.8387655169928685
 30
0.0
 40
0.0465968702717355
 50
205.3678347307009915
 51
215.4296434525373058
  0
ARC
  5
75C8
  8
0
 10
356.3413230526767848
 20
26.5734512088950297
 30
0.0
 40
0.0222091795754215
 50
65.3209348931844005
 51
120.7659622398631996
  0
ARC
  5
75C9
  8
0
 10
356.343933260050278
 20
26.5791316730227116
 30
0.0
 40
0.0159577113288006
 50
31.1599187767661903
 51
65.3209348931844858
  0
ARC
  5
75CA
  8
0
 10
356.3503080768797986
 20
26.5829863067632388
 30
0.0
 40
0.0085081146361368
 50
329.012309169078776
 51
31.1599187767661903
  0
ARC
  5
75CB
  8
0
 10
356.3451561024216971
 20
26.5860804190909406
 30
0.0
 40
0.014517804471183
 50
283.1316158245335259
 51
329.0123091690783781
  0
ARC
  5
75CC
  8
0
 10
356.3423195874011071
 20
26.5982392198108002
 30
0.0
 40
0.0270030859020216
 50
255.8043457872676925
 51
283.1316158245335259
  0
ARC
  5
75CD
  8
0
 10
356.3396911203731747
 20
26.5878483052198291
 30
0.0
 40
0.0162848796643382
 50
216.9874455719294133
 51
255.8043457872676072
  0
ARC
  5
75CE
  8
0
 10
356.3342985465116044
 20
26.5837865616039117
 30
0.0
 40
0.0095337601975813
 50
160.2504959599461074
 51
216.9874455719298965
  0
ARC
  5
75CF
  8
0
 10
356.3351356752971242
 20
26.5834860098389214
 30
0.0
 40
0.0104232071981816
 50
119.7574216480021931
 51
160.2504959599461927
  0
ARC
  5
75D0
  8
0
 10
356.324467048362294
 20
26.5935494556085708
 30
0.0
 40
0.0379957230810885
 50
179.2517643227151041
 51
220.0775975952097099
  0
ARC
  5
75D1
  8
0
 10
356.3373964617481988
 20
26.6044283954214613
 30
0.0
 40
0.0548930915731677
 50
220.0775975952097099
 51
257.0941730958048197
  0
ARC
  5
75D2
  8
0
 10
356.3433775010233262
 20
26.6305307854927413
 30
0.0
 40
0.0816719563408186
 50
257.0941730958048197
 51
281.960430808380579
  0
ARC
  5
75D3
  8
0
 10
356.3498616089368056
 20
26.5999215263007294
 30
0.0
 40
0.050383453600733
 50
281.960430808380579
 51
321.0333937662912831
  0
ARC
  5
75D4
  8
0
 10
356.3611373058353138
 20
26.5908015231619608
 30
0.0
 40
0.0358811848885916
 50
321.0333937662911126
 51
355.4866658446018164
  0
LINE
  5
75D5
  8
0
 10
356.2864745651700105
 20
26.5940456343457008
 30
0.0
 11
356.2853354146463971
 21
26.6405921642462005
 31
0.0
  0
ARC
  5
75D6
  8
0
 10
356.3274515364702211
 20
26.6111873055879293
 30
0.0
 40
0.0513654887077759
 50
108.7487435796215038
 51
145.0778195754269859
  0
ARC
  5
75D7
  8
0
 10
356.3408615241302755
 20
26.5943606749394306
 30
0.0
 40
0.0693132964878928
 50
68.058880995009801
 51
89.2857406932096183
  0
ARC
  5
75D8
  8
0
 10
356.3377548837830204
 20
26.5702211023236607
 30
0.0
 40
0.0935318048544208
 50
87.5669008292590547
 51
106.6589627613640943
  0
ARC
  5
75D9
  8
0
 10
356.3478064660482119
 20
26.6018025876002184
 30
0.0
 40
0.0599273555296639
 50
32.9464345682090993
 51
71.5614993756765188
  0
ARC
  5
75DA
  8
0
 10
356.3207274948592271
 20
26.5909216740699215
 30
0.0
 40
0.034395091511659
 50
128.5061558579361929
 51
174.7888858585193077
  0
ARC
  5
75DB
  8
0
 10
356.3372543886528092
 20
26.5698772508006584
 30
0.0
 40
0.0611530782976225
 50
98.0354694135900644
 51
128.3475771022704066
  0
ARC
  5
75DC
  8
0
 10
356.3397257607359734
 20
26.5523711659134882
 30
0.0
 40
0.0788327470742313
 50
67.4896201449711555
 51
98.0354694135900644
  0
ARC
  5
75DD
  8
0
 10
356.3507823433989756
 20
26.579050446100279
 30
0.0
 40
0.0499531346899018
 50
39.1826063636066735
 51
67.4896201449710844
  0
ARC
  5
75DE
  8
0
 10
356.3638274628177101
 20
26.5896831931267599
 30
0.0
 40
0.0331236828279122
 50
357.0491214950828862
 51
39.1826063636063466
  0
LINE
  5
75DF
  8
0
 10
356.3969072248685279
 20
26.5879779932142206
 30
0.0
 11
356.3980962671463999
 21
26.6343943633461997
 31
0.0
  0
ARC
  5
75E0
  8
0
 10
356.3668976367234791
 20
26.6449236154014706
 30
0.0
 40
0.0392405262080591
 50
321.8204845188645891
 51
334.205542269655723
  0
ARC
  5
75E1
  8
0
 10
356.3698002006815955
 20
26.6119561113644387
 30
0.0
 40
0.0361129136096276
 50
26.1083727032692394
 51
38.4137593920213405
  0
ARC
  5
75E2
  8
0
 10
356.305878821529177
 20
26.6218154859514584
 30
0.0
 40
0.0278315506958538
 50
137.5726814280791928
 51
151.0213979558527058
  0
ARC
  5
75E3
  8
0
 10
356.3236355726849069
 20
26.6552627989069286
 30
0.0
 40
0.0465968702717355
 50
205.3678347307009915
 51
215.4296434525373058
  0
ARC
  5
75E4
  8
0
 10
356.3402372244980256
 20
26.9054560840329309
 30
0.0
 40
0.0222091795754215
 50
65.3209348931844005
 51
120.7659622398631996
  0
ARC
  5
75E5
  8
0
 10
356.3428474318715189
 20
26.9111365481606093
 30
0.0
 40
0.0159577113288006
 50
31.1599187767661903
 51
65.3209348931844858
  0
ARC
  5
75E6
  8
0
 10
356.3492222487009826
 20
26.91499118190114
 30
0.0
 40
0.0085081146361368
 50
329.012309169078776
 51
31.1599187767661903
  0
ARC
  5
75E7
  8
0
 10
356.3440702742428812
 20
26.9180852942288489
 30
0.0
 40
0.014517804471183
 50
283.1316158245335259
 51
329.0123091690783781
  0
ARC
  5
75E8
  8
0
 10
356.3412337592222912
 20
26.9302440949487085
 30
0.0
 40
0.0270030859020216
 50
255.8043457872676925
 51
283.1316158245335259
  0
ARC
  5
75E9
  8
0
 10
356.3386052921944156
 20
26.9198531803577303
 30
0.0
 40
0.0162848796643382
 50
216.9874455719294133
 51
255.8043457872676072
  0
ARC
  5
75EA
  8
0
 10
356.3332127183329021
 20
26.9157914367418094
 30
0.0
 40
0.0095337601975813
 50
160.2504959599461074
 51
216.9874455719298965
  0
ARC
  5
75EB
  8
0
 10
356.3340498471183082
 20
26.9154908849768191
 30
0.0
 40
0.0104232071981816
 50
119.7574216480021931
 51
160.2504959599461927
  0
ARC
  5
75EC
  8
0
 10
356.323381220183478
 20
26.9255543307464684
 30
0.0
 40
0.0379957230810885
 50
179.2517643227151041
 51
220.0775975952097099
  0
ARC
  5
75ED
  8
0
 10
356.3363106335693828
 20
26.936433270559359
 30
0.0
 40
0.0548930915731677
 50
220.0775975952097099
 51
257.0941730958048197
  0
ARC
  5
75EE
  8
0
 10
356.3422916728446239
 20
26.962535660630639
 30
0.0
 40
0.0816719563408186
 50
257.0941730958048197
 51
281.960430808380579
  0
ARC
  5
75EF
  8
0
 10
356.3487757807579897
 20
26.9319264014386306
 30
0.0
 40
0.050383453600733
 50
281.960430808380579
 51
321.0333937662912831
  0
ARC
  5
75F0
  8
0
 10
356.3600514776564978
 20
26.9228063982998584
 30
0.0
 40
0.0358811848885916
 50
321.0333937662911126
 51
355.4866658446018164
  0
LINE
  5
75F1
  8
0
 10
356.2853887369911945
 20
26.9260505094835985
 30
0.0
 11
356.2842495864675811
 21
26.9725970393841017
 31
0.0
  0
ARC
  5
75F2
  8
0
 10
356.3263657082914051
 20
26.9431921807258306
 30
0.0
 40
0.0513654887077759
 50
108.7487435796215038
 51
145.0778195754269859
  0
ARC
  5
75F3
  8
0
 10
356.3397756959515164
 20
26.9263655500773282
 30
0.0
 40
0.0693132964878928
 50
68.058880995009801
 51
89.2857406932096183
  0
ARC
  5
75F4
  8
0
 10
356.3366690556042045
 20
26.9022259774615584
 30
0.0
 40
0.0935318048544208
 50
87.5669008292590547
 51
106.6589627613640943
  0
ARC
  5
75F5
  8
0
 10
356.3467206378692822
 20
26.9338074627381197
 30
0.0
 40
0.0599273555296639
 50
32.9464345682090993
 51
71.5614993756765188
  0
ARC
  5
75F6
  8
0
 10
356.3196416666804112
 20
26.9229265492078298
 30
0.0
 40
0.034395091511659
 50
128.5061558579361929
 51
174.7888858585193077
  0
ARC
  5
75F7
  8
0
 10
356.3361685604739932
 20
26.9018821259385597
 30
0.0
 40
0.0611530782976225
 50
98.0354694135900644
 51
128.3475771022704066
  0
ARC
  5
75F8
  8
0
 10
356.3386399325572143
 20
26.8843760410514001
 30
0.0
 40
0.0788327470742313
 50
67.4896201449711555
 51
98.0354694135900644
  0
ARC
  5
75F9
  8
0
 10
356.3496965152202733
 20
26.9110553212381802
 30
0.0
 40
0.0499531346899018
 50
39.1826063636066735
 51
67.4896201449710844
  0
ARC
  5
75FA
  8
0
 10
356.3627416346388941
 20
26.9216880682646611
 30
0.0
 40
0.0331236828279122
 50
357.0491214950828862
 51
39.1826063636063466
  0
LINE
  5
75FB
  8
0
 10
356.3958213966897119
 20
26.9199828683521183
 30
0.0
 11
356.3970104389675839
 21
26.9663992384841009
 31
0.0
  0
ARC
  5
75FC
  8
0
 10
356.3658118085447768
 20
26.9769284905393683
 30
0.0
 40
0.0392405262080591
 50
321.8204845188645891
 51
334.205542269655723
  0
ARC
  5
75FD
  8
0
 10
356.3687143725028932
 20
26.9439609865023399
 30
0.0
 40
0.0361129136096276
 50
26.1083727032692394
 51
38.4137593920213405
  0
ARC
  5
75FE
  8
0
 10
356.3047929933504179
 20
26.9538203610893703
 30
0.0
 40
0.0278315506958538
 50
137.5726814280791928
 51
151.0213979558527058
  0
ARC
  5
75FF
  8
0
 10
356.3225497445059773
 20
26.9872676740448298
 30
0.0
 40
0.0465968702717355
 50
205.3678347307009915
 51
215.4296434525373058
  0
ARC
  5
7600
  8
0
 10
355.4529610857783837
 20
26.9513924550349913
 30
0.0
 40
0.0222091795754215
 50
65.3209348931844005
 51
120.7659622398631996
  0
ARC
  5
7601
  8
0
 10
355.4555712931518769
 20
26.9570729191626803
 30
0.0
 40
0.0159577113288006
 50
31.1599187767661903
 51
65.3209348931844858
  0
ARC
  5
7602
  8
0
 10
355.4619461099813975
 20
26.9609275529032111
 30
0.0
 40
0.0085081146361368
 50
329.012309169078776
 51
31.1599187767661903
  0
ARC
  5
7603
  8
0
 10
355.4567941355232961
 20
26.9640216652309093
 30
0.0
 40
0.014517804471183
 50
283.1316158245335259
 51
329.0123091690783781
  0
ARC
  5
7604
  8
0
 10
355.453957620502706
 20
26.9761804659507689
 30
0.0
 40
0.0270030859020216
 50
255.8043457872676925
 51
283.1316158245335259
  0
ARC
  5
7605
  8
0
 10
355.4513291534748873
 20
26.9657895513597907
 30
0.0
 40
0.0162848796643382
 50
216.9874455719294133
 51
255.8043457872676072
  0
ARC
  5
7606
  8
0
 10
355.4459365796132033
 20
26.9617278077438804
 30
0.0
 40
0.0095337601975813
 50
160.2504959599461074
 51
216.9874455719298965
  0
ARC
  5
7607
  8
0
 10
355.4467737083987231
 20
26.9614272559788795
 30
0.0
 40
0.0104232071981816
 50
119.7574216480021931
 51
160.2504959599461927
  0
ARC
  5
7608
  8
0
 10
355.4361050814638929
 20
26.9714907017485288
 30
0.0
 40
0.0379957230810885
 50
179.2517643227151041
 51
220.0775975952097099
  0
ARC
  5
7609
  8
0
 10
355.4490344948499114
 20
26.98236964156143
 30
0.0
 40
0.0548930915731677
 50
220.0775975952097099
 51
257.0941730958048197
  0
ARC
  5
760A
  8
0
 10
355.455015534124982
 20
27.00847203163271
 30
0.0
 40
0.0816719563408186
 50
257.0941730958048197
 51
281.960430808380579
  0
ARC
  5
760B
  8
0
 10
355.4614996420384045
 20
26.9778627724407016
 30
0.0
 40
0.050383453600733
 50
281.960430808380579
 51
321.0333937662912831
  0
ARC
  5
760C
  8
0
 10
355.4727753389370264
 20
26.9687427693019295
 30
0.0
 40
0.0358811848885916
 50
321.0333937662911126
 51
355.4866658446018164
  0
LINE
  5
760D
  8
0
 10
355.3981125982716094
 20
26.9719868804856588
 30
0.0
 11
355.396973447747996
 21
27.0185334103861585
 31
0.0
  0
ARC
  5
760E
  8
0
 10
355.43908956957182
 20
26.9891285517278909
 30
0.0
 40
0.0513654887077759
 50
108.7487435796215038
 51
145.0778195754269859
  0
ARC
  5
760F
  8
0
 10
355.4524995572318744
 20
26.9723019210793993
 30
0.0
 40
0.0693132964878928
 50
68.058880995009801
 51
89.2857406932096183
  0
ARC
  5
7610
  8
0
 10
355.4493929168846194
 20
26.9481623484636295
 30
0.0
 40
0.0935318048544208
 50
87.5669008292590547
 51
106.6589627613640943
  0
ARC
  5
7611
  8
0
 10
355.4594444991498108
 20
26.97974383374018
 30
0.0
 40
0.0599273555296639
 50
32.9464345682090993
 51
71.5614993756765188
  0
ARC
  5
7612
  8
0
 10
355.4323655279608261
 20
26.9688629202098902
 30
0.0
 40
0.034395091511659
 50
128.5061558579361929
 51
174.7888858585193077
  0
ARC
  5
7613
  8
0
 10
355.4488924217544081
 20
26.9478184969406307
 30
0.0
 40
0.0611530782976225
 50
98.0354694135900644
 51
128.3475771022704066
  0
ARC
  5
7614
  8
0
 10
355.451363793837686
 20
26.9303124120534605
 30
0.0
 40
0.0788327470742313
 50
67.4896201449711555
 51
98.0354694135900644
  0
ARC
  5
7615
  8
0
 10
355.4624203765006882
 20
26.9569916922402406
 30
0.0
 40
0.0499531346899018
 50
39.1826063636066735
 51
67.4896201449710844
  0
ARC
  5
7616
  8
0
 10
355.475465495919309
 20
26.9676244392667286
 30
0.0
 40
0.0331236828279122
 50
357.0491214950828862
 51
39.1826063636063466
  0
LINE
  5
7617
  8
0
 10
355.5085452579701837
 20
26.9659192393541893
 30
0.0
 11
355.5097343002481125
 21
27.0123356094861613
 31
0.0
  0
ARC
  5
7618
  8
0
 10
355.4785356698251917
 20
27.0228648615414393
 30
0.0
 40
0.0392405262080591
 50
321.8204845188645891
 51
334.205542269655723
  0
ARC
  5
7619
  8
0
 10
355.4814382337831944
 20
26.9898973575044003
 30
0.0
 40
0.0361129136096276
 50
26.1083727032692394
 51
38.4137593920213405
  0
ARC
  5
761A
  8
0
 10
355.4175168546307759
 20
26.9997567320914307
 30
0.0
 40
0.0278315506958538
 50
137.5726814280791928
 51
151.0213979558527058
  0
ARC
  5
761B
  8
0
 10
355.4352736057865059
 20
27.0332040450468902
 30
0.0
 40
0.0465968702717355
 50
205.3678347307009915
 51
215.4296434525373058
  0
ARC
  5
761C
  8
0
 10
355.4507949537331228
 20
27.3007619628620901
 30
0.0
 40
0.0222091795754215
 50
65.3209348931844005
 51
120.7659622398631996
  0
ARC
  5
761D
  8
0
 10
355.4534051611065024
 20
27.3064424269897685
 30
0.0
 40
0.0159577113288006
 50
31.1599187767661903
 51
65.3209348931844858
  0
ARC
  5
761E
  8
0
 10
355.4597799779360798
 20
27.3102970607302993
 30
0.0
 40
0.0085081146361368
 50
329.012309169078776
 51
31.1599187767661903
  0
ARC
  5
761F
  8
0
 10
355.4546280034779784
 20
27.313391173058001
 30
0.0
 40
0.014517804471183
 50
283.1316158245335259
 51
329.0123091690783781
  0
ARC
  5
7620
  8
0
 10
355.4517914884573884
 20
27.3255499737778607
 30
0.0
 40
0.0270030859020216
 50
255.8043457872676925
 51
283.1316158245335259
  0
ARC
  5
7621
  8
0
 10
355.4491630214295128
 20
27.3151590591868789
 30
0.0
 40
0.0162848796643382
 50
216.9874455719294133
 51
255.8043457872676072
  0
ARC
  5
7622
  8
0
 10
355.4437704475678856
 20
27.3110973155709686
 30
0.0
 40
0.0095337601975813
 50
160.2504959599461074
 51
216.9874455719298965
  0
ARC
  5
7623
  8
0
 10
355.4446075763534054
 20
27.3107967638059712
 30
0.0
 40
0.0104232071981816
 50
119.7574216480021931
 51
160.2504959599461927
  0
ARC
  5
7624
  8
0
 10
355.4339389494185752
 20
27.3208602095756312
 30
0.0
 40
0.0379957230810885
 50
179.2517643227151041
 51
220.0775975952097099
  0
ARC
  5
7625
  8
0
 10
355.4468683628044801
 20
27.3317391493885182
 30
0.0
 40
0.0548930915731677
 50
220.0775975952097099
 51
257.0941730958048197
  0
ARC
  5
7626
  8
0
 10
355.4528494020796074
 20
27.3578415394597982
 30
0.0
 40
0.0816719563408186
 50
257.0941730958048197
 51
281.960430808380579
  0
ARC
  5
7627
  8
0
 10
355.4593335099930869
 20
27.3272322802677898
 30
0.0
 40
0.050383453600733
 50
281.960430808380579
 51
321.0333937662912831
  0
ARC
  5
7628
  8
0
 10
355.470609206891595
 20
27.3181122771290212
 30
0.0
 40
0.0358811848885916
 50
321.0333937662911126
 51
355.4866658446018164
  0
LINE
  5
7629
  8
0
 10
355.3959464662262917
 20
27.3213563883127506
 30
0.0
 11
355.3948073157026784
 21
27.3679029182132503
 31
0.0
  0
ARC
  5
762A
  8
0
 10
355.4369234375263886
 20
27.3384980595549898
 30
0.0
 40
0.0513654887077759
 50
108.7487435796215038
 51
145.0778195754269859
  0
ARC
  5
762B
  8
0
 10
355.4503334251866136
 20
27.321671428906491
 30
0.0
 40
0.0693132964878928
 50
68.058880995009801
 51
89.2857406932096183
  0
ARC
  5
762C
  8
0
 10
355.4472267848393017
 20
27.2975318562907212
 30
0.0
 40
0.0935318048544208
 50
87.5669008292590547
 51
106.6589627613640943
  0
ARC
  5
762D
  8
0
 10
355.4572783671043794
 20
27.3291133415672682
 30
0.0
 40
0.0599273555296639
 50
32.9464345682090993
 51
71.5614993756765188
  0
ARC
  5
762E
  8
0
 10
355.4301993959155084
 20
27.3182324280369784
 30
0.0
 40
0.034395091511659
 50
128.5061558579361929
 51
174.7888858585193077
  0
ARC
  5
762F
  8
0
 10
355.4467262897090905
 20
27.2971880047677189
 30
0.0
 40
0.0611530782976225
 50
98.0354694135900644
 51
128.3475771022704066
  0
ARC
  5
7630
  8
0
 10
355.4491976617923115
 20
27.2796819198805487
 30
0.0
 40
0.0788327470742313
 50
67.4896201449711555
 51
98.0354694135900644
  0
ARC
  5
7631
  8
0
 10
355.4602542444553137
 20
27.3063612000673395
 30
0.0
 40
0.0499531346899018
 50
39.1826063636066735
 51
67.4896201449710844
  0
ARC
  5
7632
  8
0
 10
355.4732993638738776
 20
27.3169939470938203
 30
0.0
 40
0.0331236828279122
 50
357.0491214950828862
 51
39.1826063636063466
  0
LINE
  5
7633
  8
0
 10
355.5063791259248092
 20
27.3152887471812811
 30
0.0
 11
355.5075681682026811
 21
27.3617051173132495
 31
0.0
  0
ARC
  5
7634
  8
0
 10
355.4763695377798172
 20
27.372234369368531
 30
0.0
 40
0.0392405262080591
 50
321.8204845188645891
 51
334.205542269655723
  0
ARC
  5
7635
  8
0
 10
355.4792721017378767
 20
27.3392668653314885
 30
0.0
 40
0.0361129136096276
 50
26.1083727032692394
 51
38.4137593920213405
  0
ARC
  5
7636
  8
0
 10
355.4153507225854014
 20
27.3491262399185189
 30
0.0
 40
0.0278315506958538
 50
137.5726814280791928
 51
151.0213979558527058
  0
ARC
  5
7637
  8
0
 10
355.4331074737410745
 20
27.3825735528739784
 30
0.0
 40
0.0465968702717355
 50
205.3678347307009915
 51
215.4296434525373058
  0
ARC
  5
7638
  8
0
 10
355.4526172657132861
 20
27.6647118488081709
 30
0.0
 40
0.0222091795754215
 50
65.3209348931844005
 51
120.7659622398631996
  0
ARC
  5
7639
  8
0
 10
355.4552274730867794
 20
27.67039231293586
 30
0.0
 40
0.0159577113288006
 50
31.1599187767661903
 51
65.3209348931844858
  0
ARC
  5
763A
  8
0
 10
355.4616022899164136
 20
27.6742469466763907
 30
0.0
 40
0.0085081146361368
 50
329.012309169078776
 51
31.1599187767661903
  0
ARC
  5
763B
  8
0
 10
355.4564503154581985
 20
27.6773410590040889
 30
0.0
 40
0.014517804471183
 50
283.1316158245335259
 51
329.0123091690783781
  0
ARC
  5
763C
  8
0
 10
355.4536138004376085
 20
27.6894998597239415
 30
0.0
 40
0.0270030859020216
 50
255.8043457872676925
 51
283.1316158245335259
  0
ARC
  5
763D
  8
0
 10
355.4509853334097897
 20
27.679108945132981
 30
0.0
 40
0.0162848796643382
 50
216.9874455719294133
 51
255.8043457872676072
  0
ARC
  5
763E
  8
0
 10
355.4455927595482194
 20
27.6750472015170601
 30
0.0
 40
0.0095337601975813
 50
160.2504959599461074
 51
216.9874455719298965
  0
ARC
  5
763F
  8
0
 10
355.4464298883336255
 20
27.6747466497520591
 30
0.0
 40
0.0104232071981816
 50
119.7574216480021931
 51
160.2504959599461927
  0
ARC
  5
7640
  8
0
 10
355.4357612613987953
 20
27.6848100955217085
 30
0.0
 40
0.0379957230810885
 50
179.2517643227151041
 51
220.0775975952097099
  0
ARC
  5
7641
  8
0
 10
355.4486906747848138
 20
27.695689035334599
 30
0.0
 40
0.0548930915731677
 50
220.0775975952097099
 51
257.0941730958048197
  0
ARC
  5
7642
  8
0
 10
355.4546717140598844
 20
27.7217914254058897
 30
0.0
 40
0.0816719563408186
 50
257.0941730958048197
 51
281.960430808380579
  0
ARC
  5
7643
  8
0
 10
355.461155821973307
 20
27.6911821662138813
 30
0.0
 40
0.050383453600733
 50
281.960430808380579
 51
321.0333937662912831
  0
ARC
  5
7644
  8
0
 10
355.472431518871872
 20
27.6820621630751091
 30
0.0
 40
0.0358811848885916
 50
321.0333937662911126
 51
355.4866658446018164
  0
LINE
  5
7645
  8
0
 10
355.3977687782066255
 20
27.6853062742588385
 30
0.0
 11
355.3966296276830121
 21
27.7318528041593417
 31
0.0
  0
ARC
  5
7646
  8
0
 10
355.4387457495067224
 20
27.7024479455010706
 30
0.0
 40
0.0513654887077759
 50
108.7487435796215038
 51
145.0778195754269859
  0
ARC
  5
7647
  8
0
 10
355.4521557371667768
 20
27.6856213148525683
 30
0.0
 40
0.0693132964878928
 50
68.058880995009801
 51
89.2857406932096183
  0
ARC
  5
7648
  8
0
 10
355.4490490968195786
 20
27.6614817422368091
 30
0.0
 40
0.0935318048544208
 50
87.5669008292590547
 51
106.6589627613640943
  0
ARC
  5
7649
  8
0
 10
355.4591006790847132
 20
27.6930632275133597
 30
0.0
 40
0.0599273555296639
 50
32.9464345682090993
 51
71.5614993756765188
  0
ARC
  5
764A
  8
0
 10
355.4320217078956716
 20
27.6821823139830698
 30
0.0
 40
0.034395091511659
 50
128.5061558579361929
 51
174.7888858585193077
  0
ARC
  5
764B
  8
0
 10
355.4485486016894242
 20
27.6611378907138104
 30
0.0
 40
0.0611530782976225
 50
98.0354694135900644
 51
128.3475771022704066
  0
ARC
  5
764C
  8
0
 10
355.4510199737725884
 20
27.6436318058266401
 30
0.0
 40
0.0788327470742313
 50
67.4896201449711555
 51
98.0354694135900644
  0
ARC
  5
764D
  8
0
 10
355.4620765564355906
 20
27.6703110860134203
 30
0.0
 40
0.0499531346899018
 50
39.1826063636066735
 51
67.4896201449710844
  0
ARC
  5
764E
  8
0
 10
355.4751216758542114
 20
27.6809438330399082
 30
0.0
 40
0.0331236828279122
 50
357.0491214950828862
 51
39.1826063636063466
  0
LINE
  5
764F
  8
0
 10
355.5082014379050861
 20
27.6792386331273583
 30
0.0
 11
355.5093904801830149
 21
27.725655003259341
 31
0.0
  0
ARC
  5
7650
  8
0
 10
355.4781918497600941
 20
27.7361842553146083
 30
0.0
 40
0.0392405262080591
 50
321.8204845188645891
 51
334.205542269655723
  0
ARC
  5
7651
  8
0
 10
355.4810944137182105
 20
27.70321675127758
 30
0.0
 40
0.0361129136096276
 50
26.1083727032692394
 51
38.4137593920213405
  0
ARC
  5
7652
  8
0
 10
355.4171730345656783
 20
27.7130761258646103
 30
0.0
 40
0.0278315506958538
 50
137.5726814280791928
 51
151.0213979558527058
  0
ARC
  5
7653
  8
0
 10
355.4349297857214083
 20
27.7465234388200699
 30
0.0
 40
0.0465968702717355
 50
205.3678347307009915
 51
215.4296434525373058
  0
ARC
  5
7654
  8
0
 10
355.4531330505071196
 20
28.0442172296795995
 30
0.0
 40
0.0222091795754215
 50
65.3209348931844005
 51
120.7659622398631996
  0
ARC
  5
7655
  8
0
 10
355.4557432578806129
 20
28.0498976938072815
 30
0.0
 40
0.0159577113288006
 50
31.1599187767661903
 51
65.3209348931844858
  0
ARC
  5
7656
  8
0
 10
355.4621180747100766
 20
28.0537523275478087
 30
0.0
 40
0.0085081146361368
 50
329.012309169078776
 51
31.1599187767661903
  0
ARC
  5
7657
  8
0
 10
355.4569661002520888
 20
28.0568464398755211
 30
0.0
 40
0.014517804471183
 50
283.1316158245335259
 51
329.0123091690783781
  0
ARC
  5
7658
  8
0
 10
355.4541295852314988
 20
28.0690052405953807
 30
0.0
 40
0.0270030859020216
 50
255.8043457872676925
 51
283.1316158245335259
  0
ARC
  5
7659
  8
0
 10
355.4515011182036233
 20
28.058614326004399
 30
0.0
 40
0.0162848796643382
 50
216.9874455719294133
 51
255.8043457872676072
  0
ARC
  5
765A
  8
0
 10
355.4461085443418824
 20
28.0545525823884816
 30
0.0
 40
0.0095337601975813
 50
160.2504959599461074
 51
216.9874455719298965
  0
ARC
  5
765B
  8
0
 10
355.4469456731274022
 20
28.0542520306234913
 30
0.0
 40
0.0104232071981816
 50
119.7574216480021931
 51
160.2504959599461927
  0
ARC
  5
765C
  8
0
 10
355.436277046192572
 20
28.0643154763931406
 30
0.0
 40
0.0379957230810885
 50
179.2517643227151041
 51
220.0775975952097099
  0
ARC
  5
765D
  8
0
 10
355.4492064595784768
 20
28.0751944162060312
 30
0.0
 40
0.0548930915731677
 50
220.0775975952097099
 51
257.0941730958048197
  0
ARC
  5
765E
  8
0
 10
355.4551874988537179
 20
28.1012968062773112
 30
0.0
 40
0.0816719563408186
 50
257.0941730958048197
 51
281.960430808380579
  0
ARC
  5
765F
  8
0
 10
355.4616716067670836
 20
28.0706875470852992
 30
0.0
 40
0.050383453600733
 50
281.960430808380579
 51
321.0333937662912831
  0
ARC
  5
7660
  8
0
 10
355.4729473036655918
 20
28.0615675439465306
 30
0.0
 40
0.0358811848885916
 50
321.0333937662911126
 51
355.4866658446018164
  0
LINE
  5
7661
  8
0
 10
355.3982845630002885
 20
28.0648116551302707
 30
0.0
 11
355.3971454124766751
 21
28.1113581850307703
 31
0.0
  0
ARC
  5
7662
  8
0
 10
355.4392615343004991
 20
28.0819533263724992
 30
0.0
 40
0.0513654887077759
 50
108.7487435796215038
 51
145.0778195754269859
  0
ARC
  5
7663
  8
0
 10
355.4526715219606103
 20
28.0651266957240004
 30
0.0
 40
0.0693132964878928
 50
68.058880995009801
 51
89.2857406932096183
  0
ARC
  5
7664
  8
0
 10
355.4495648816132984
 20
28.0409871231082306
 30
0.0
 40
0.0935318048544208
 50
87.5669008292590547
 51
106.6589627613640943
  0
ARC
  5
7665
  8
0
 10
355.4596164638784899
 20
28.0725686083847812
 30
0.0
 40
0.0599273555296639
 50
32.9464345682090993
 51
71.5614993756765188
  0
ARC
  5
7666
  8
0
 10
355.4325374926895051
 20
28.0616876948544984
 30
0.0
 40
0.034395091511659
 50
128.5061558579361929
 51
174.7888858585193077
  0
ARC
  5
7667
  8
0
 10
355.4490643864832009
 20
28.0406432715852283
 30
0.0
 40
0.0611530782976225
 50
98.0354694135900644
 51
128.3475771022704066
  0
ARC
  5
7668
  8
0
 10
355.4515357585664219
 20
28.0231371866980687
 30
0.0
 40
0.0788327470742313
 50
67.4896201449711555
 51
98.0354694135900644
  0
ARC
  5
7669
  8
0
 10
355.4625923412294242
 20
28.0498164668848489
 30
0.0
 40
0.0499531346899018
 50
39.1826063636066735
 51
67.4896201449710844
  0
ARC
  5
766A
  8
0
 10
355.4756374606479881
 20
28.0604492139113297
 30
0.0
 40
0.0331236828279122
 50
357.0491214950828862
 51
39.1826063636063466
  0
LINE
  5
766B
  8
0
 10
355.5087172226989196
 20
28.0587440139987905
 30
0.0
 11
355.5099062649766779
 21
28.1051603841307696
 31
0.0
  0
ARC
  5
766C
  8
0
 10
355.4787076345539276
 20
28.1156896361860404
 30
0.0
 40
0.0392405262080591
 50
321.8204845188645891
 51
334.205542269655723
  0
ARC
  5
766D
  8
0
 10
355.4816101985118735
 20
28.0827221321490015
 30
0.0
 40
0.0361129136096276
 50
26.1083727032692394
 51
38.4137593920213405
  0
ARC
  5
766E
  8
0
 10
355.4176888193595119
 20
28.0925815067360283
 30
0.0
 40
0.0278315506958538
 50
137.5726814280791928
 51
151.0213979558527058
  0
ARC
  5
766F
  8
0
 10
355.435445570515185
 20
28.1260288196914985
 30
0.0
 40
0.0465968702717355
 50
205.3678347307009915
 51
215.4296434525373058
  0
ARC
  5
7670
  8
0
 10
356.3410579950827923
 20
28.3892345319584294
 30
0.0
 40
0.0222091795754215
 50
65.3209348931844005
 51
120.7659622398631996
  0
ARC
  5
7671
  8
0
 10
356.3436682024562856
 20
28.3949149960861114
 30
0.0
 40
0.0159577113288006
 50
31.1599187767661903
 51
65.3209348931844858
  0
ARC
  5
7672
  8
0
 10
356.3500430192859199
 20
28.3987696298266385
 30
0.0
 40
0.0085081146361368
 50
329.012309169078776
 51
31.1599187767661903
  0
ARC
  5
7673
  8
0
 10
356.3448910448278184
 20
28.4018637421543509
 30
0.0
 40
0.014517804471183
 50
283.1316158245335259
 51
329.0123091690783781
  0
ARC
  5
7674
  8
0
 10
356.3420545298072284
 20
28.4140225428742106
 30
0.0
 40
0.0270030859020216
 50
255.8043457872676925
 51
283.1316158245335259
  0
ARC
  5
7675
  8
0
 10
356.339426062779296
 20
28.4036316282832288
 30
0.0
 40
0.0162848796643382
 50
216.9874455719294133
 51
255.8043457872676072
  0
ARC
  5
7676
  8
0
 10
356.3340334889177257
 20
28.3995698846673115
 30
0.0
 40
0.0095337601975813
 50
160.2504959599461074
 51
216.9874455719298965
  0
ARC
  5
7677
  8
0
 10
356.3348706177030749
 20
28.3992693329023211
 30
0.0
 40
0.0104232071981816
 50
119.7574216480021931
 51
160.2504959599461927
  0
ARC
  5
7678
  8
0
 10
356.3242019907684153
 20
28.4093327786719705
 30
0.0
 40
0.0379957230810885
 50
179.2517643227151041
 51
220.0775975952097099
  0
ARC
  5
7679
  8
0
 10
356.3371314041543201
 20
28.4202117184848611
 30
0.0
 40
0.0548930915731677
 50
220.0775975952097099
 51
257.0941730958048197
  0
ARC
  5
767A
  8
0
 10
356.3431124434293906
 20
28.4463141085561411
 30
0.0
 40
0.0816719563408186
 50
257.0941730958048197
 51
281.960430808380579
  0
ARC
  5
767B
  8
0
 10
356.3495965513428132
 20
28.4157048493641291
 30
0.0
 40
0.050383453600733
 50
281.960430808380579
 51
321.0333937662912831
  0
ARC
  5
767C
  8
0
 10
356.3608722482413782
 20
28.4065848462253712
 30
0.0
 40
0.0358811848885916
 50
321.0333937662911126
 51
355.4866658446018164
  0
LINE
  5
767D
  8
0
 10
356.2862095075760749
 20
28.4098289574091005
 30
0.0
 11
356.2850703570525184
 21
28.4563754873096002
 31
0.0
  0
ARC
  5
767E
  8
0
 10
356.3271864788762855
 20
28.4269706286513291
 30
0.0
 40
0.0513654887077759
 50
108.7487435796215038
 51
145.0778195754269859
  0
ARC
  5
767F
  8
0
 10
356.3405964665362831
 20
28.4101439980028303
 30
0.0
 40
0.0693132964878928
 50
68.058880995009801
 51
89.2857406932096183
  0
ARC
  5
7680
  8
0
 10
356.3374898261890849
 20
28.3860044253870711
 30
0.0
 40
0.0935318048544208
 50
87.5669008292590547
 51
106.6589627613640943
  0
ARC
  5
7681
  8
0
 10
356.3475414084542194
 20
28.4175859106636217
 30
0.0
 40
0.0599273555296639
 50
32.9464345682090993
 51
71.5614993756765188
  0
ARC
  5
7682
  8
0
 10
356.3204624372651779
 20
28.4067049971333283
 30
0.0
 40
0.034395091511659
 50
128.5061558579361929
 51
174.7888858585193077
  0
ARC
  5
7683
  8
0
 10
356.3369893310588736
 20
28.3856605738640688
 30
0.0
 40
0.0611530782976225
 50
98.0354694135900644
 51
128.3475771022704066
  0
ARC
  5
7684
  8
0
 10
356.3394607031420946
 20
28.3681544889768986
 30
0.0
 40
0.0788327470742313
 50
67.4896201449711555
 51
98.0354694135900644
  0
ARC
  5
7685
  8
0
 10
356.3505172858050969
 20
28.3948337691636787
 30
0.0
 40
0.0499531346899018
 50
39.1826063636066735
 51
67.4896201449710844
  0
ARC
  5
7686
  8
0
 10
356.3635624052237176
 20
28.4054665161901596
 30
0.0
 40
0.0331236828279122
 50
357.0491214950828862
 51
39.1826063636063466
  0
LINE
  5
7687
  8
0
 10
356.3966421672745923
 20
28.4037613162776204
 30
0.0
 11
356.3978312095525212
 21
28.4501776864095994
 31
0.0
  0
ARC
  5
7688
  8
0
 10
356.366632579129714
 20
28.4607069384648703
 30
0.0
 40
0.0392405262080591
 50
321.8204845188645891
 51
334.205542269655723
  0
ARC
  5
7689
  8
0
 10
356.3695351430877167
 20
28.4277394344278385
 30
0.0
 40
0.0361129136096276
 50
26.1083727032692394
 51
38.4137593920213405
  0
ARC
  5
768A
  8
0
 10
356.3056137639352983
 20
28.4375988090148688
 30
0.0
 40
0.0278315506958538
 50
137.5726814280791928
 51
151.0213979558527058
  0
ARC
  5
768B
  8
0
 10
356.3233705150909145
 20
28.4710461219703284
 30
0.0
 40
0.0465968702717355
 50
205.3678347307009915
 51
215.4296434525373058
  0
ARC
  5
768C
  8
0
 10
356.7857756349894203
 20
28.5852962099375816
 30
0.0
 40
0.0222091795754215
 50
65.3209348931844005
 51
120.7659622398631996
  0
ARC
  5
768D
  8
0
 10
356.7883858423629135
 20
28.5909766740652707
 30
0.0
 40
0.0159577113288006
 50
31.1599187767661903
 51
65.3209348931844858
  0
ARC
  5
768E
  8
0
 10
356.7947606591923773
 20
28.5948313078058014
 30
0.0
 40
0.0085081146361368
 50
329.012309169078776
 51
31.1599187767661903
  0
ARC
  5
768F
  8
0
 10
356.7896086847342758
 20
28.5979254201334996
 30
0.0
 40
0.014517804471183
 50
283.1316158245335259
 51
329.0123091690783781
  0
ARC
  5
7690
  8
0
 10
356.7867721697136858
 20
28.6100842208533592
 30
0.0
 40
0.0270030859020216
 50
255.8043457872676925
 51
283.1316158245335259
  0
ARC
  5
7691
  8
0
 10
356.7841437026858102
 20
28.5996933062623917
 30
0.0
 40
0.0162848796643382
 50
216.9874455719294133
 51
255.8043457872676072
  0
ARC
  5
7692
  8
0
 10
356.7787511288241831
 20
28.5956315626464708
 30
0.0
 40
0.0095337601975813
 50
160.2504959599461074
 51
216.9874455719298965
  0
ARC
  5
7693
  8
0
 10
356.7795882576095892
 20
28.5953310108814698
 30
0.0
 40
0.0104232071981816
 50
119.7574216480021931
 51
160.2504959599461927
  0
ARC
  5
7694
  8
0
 10
356.7689196306748727
 20
28.6053944566511298
 30
0.0
 40
0.0379957230810885
 50
179.2517643227151041
 51
220.0775975952097099
  0
ARC
  5
7695
  8
0
 10
356.7818490440607775
 20
28.6162733964640204
 30
0.0
 40
0.0548930915731677
 50
220.0775975952097099
 51
257.0941730958048197
  0
ARC
  5
7696
  8
0
 10
356.7878300833360186
 20
28.6423757865353004
 30
0.0
 40
0.0816719563408186
 50
257.0941730958048197
 51
281.960430808380579
  0
ARC
  5
7697
  8
0
 10
356.7943141912493275
 20
28.6117665273432884
 30
0.0
 40
0.050383453600733
 50
281.960430808380579
 51
321.0333937662912831
  0
ARC
  5
7698
  8
0
 10
356.8055898881478925
 20
28.6026465242045198
 30
0.0
 40
0.0358811848885916
 50
321.0333937662911126
 51
355.4866658446018164
  0
LINE
  5
7699
  8
0
 10
356.7309271474825891
 20
28.6058906353882598
 30
0.0
 11
356.7297879969589758
 21
28.6524371652887488
 31
0.0
  0
ARC
  5
769A
  8
0
 10
356.7719041187827997
 20
28.6230323066304884
 30
0.0
 40
0.0513654887077759
 50
108.7487435796215038
 51
145.0778195754269859
  0
ARC
  5
769B
  8
0
 10
356.7853141064427973
 20
28.6062056759819789
 30
0.0
 40
0.0693132964878928
 50
68.058880995009801
 51
89.2857406932096183
  0
ARC
  5
769C
  8
0
 10
356.7822074660955991
 20
28.5820661033662198
 30
0.0
 40
0.0935318048544208
 50
87.5669008292590547
 51
106.6589627613640943
  0
ARC
  5
769D
  8
0
 10
356.7922590483607905
 20
28.6136475886427704
 30
0.0
 40
0.0599273555296639
 50
32.9464345682090993
 51
71.5614993756765188
  0
ARC
  5
769E
  8
0
 10
356.7651800771716921
 20
28.6027666751124912
 30
0.0
 40
0.034395091511659
 50
128.5061558579361929
 51
174.7888858585193077
  0
ARC
  5
769F
  8
0
 10
356.7817069709653879
 20
28.581722251843221
 30
0.0
 40
0.0611530782976225
 50
98.0354694135900644
 51
128.3475771022704066
  0
ARC
  5
76A0
  8
0
 10
356.7841783430486089
 20
28.5642161669560508
 30
0.0
 40
0.0788327470742313
 50
67.4896201449711555
 51
98.0354694135900644
  0
ARC
  5
76A1
  8
0
 10
356.7952349257116111
 20
28.5908954471428309
 30
0.0
 40
0.0499531346899018
 50
39.1826063636066735
 51
67.4896201449710844
  0
ARC
  5
76A2
  8
0
 10
356.808280045130175
 20
28.6015281941693189
 30
0.0
 40
0.0331236828279122
 50
357.0491214950828862
 51
39.1826063636063466
  0
LINE
  5
76A3
  8
0
 10
356.8413598071811066
 20
28.599822994256769
 30
0.0
 11
356.8425488494589786
 21
28.6462393643887516
 31
0.0
  0
ARC
  5
76A4
  8
0
 10
356.8113502190362283
 20
28.656768616444019
 30
0.0
 40
0.0392405262080591
 50
321.8204845188645891
 51
334.205542269655723
  0
ARC
  5
76A5
  8
0
 10
356.8142527829941741
 20
28.6238011124070013
 30
0.0
 40
0.0361129136096276
 50
26.1083727032692394
 51
38.4137593920213405
  0
ARC
  5
76A6
  8
0
 10
356.7503314038418125
 20
28.633660486994021
 30
0.0
 40
0.0278315506958538
 50
137.5726814280791928
 51
151.0213979558527058
  0
ARC
  5
76A7
  8
0
 10
356.7680881549973719
 20
28.6671077999494806
 30
0.0
 40
0.0465968702717355
 50
205.3678347307009915
 51
215.4296434525373058
  0
ARC
  5
76A8
  8
0
 10
356.7857698513930131
 20
28.1852065084578207
 30
0.0
 40
0.0222091795754215
 50
65.3209348931844005
 51
120.7659622398631996
  0
ARC
  5
76A9
  8
0
 10
356.7883800587665064
 20
28.1908869725854991
 30
0.0
 40
0.0159577113288006
 50
31.1599187767661903
 51
65.3209348931844858
  0
ARC
  5
76AA
  8
0
 10
356.794754875596027
 20
28.1947416063260299
 30
0.0
 40
0.0085081146361368
 50
329.012309169078776
 51
31.1599187767661903
  0
ARC
  5
76AB
  8
0
 10
356.7896029011379255
 20
28.1978357186537387
 30
0.0
 40
0.014517804471183
 50
283.1316158245335259
 51
329.0123091690783781
  0
ARC
  5
76AC
  8
0
 10
356.7867663861172787
 20
28.2099945193735913
 30
0.0
 40
0.0270030859020216
 50
255.8043457872676925
 51
283.1316158245335259
  0
ARC
  5
76AD
  8
0
 10
356.7841379190894031
 20
28.1996036047826202
 30
0.0
 40
0.0162848796643382
 50
216.9874455719294133
 51
255.8043457872676072
  0
ARC
  5
76AE
  8
0
 10
356.7787453452277759
 20
28.1955418611666992
 30
0.0
 40
0.0095337601975813
 50
160.2504959599461074
 51
216.9874455719298965
  0
ARC
  5
76AF
  8
0
 10
356.779582474013182
 20
28.1952413094017089
 30
0.0
 40
0.0104232071981816
 50
119.7574216480021931
 51
160.2504959599461927
  0
ARC
  5
76B0
  8
0
 10
356.7689138470785224
 20
28.2053047551713583
 30
0.0
 40
0.0379957230810885
 50
179.2517643227151041
 51
220.0775975952097099
  0
ARC
  5
76B1
  8
0
 10
356.7818432604644272
 20
28.2161836949842488
 30
0.0
 40
0.0548930915731677
 50
220.0775975952097099
 51
257.0941730958048197
  0
ARC
  5
76B2
  8
0
 10
356.7878242997394977
 20
28.2422860850555288
 30
0.0
 40
0.0816719563408186
 50
257.0941730958048197
 51
281.960430808380579
  0
ARC
  5
76B3
  8
0
 10
356.7943084076529772
 20
28.2116768258635311
 30
0.0
 40
0.050383453600733
 50
281.960430808380579
 51
321.0333937662912831
  0
ARC
  5
76B4
  8
0
 10
356.8055841045514853
 20
28.2025568227247483
 30
0.0
 40
0.0358811848885916
 50
321.0333937662911126
 51
355.4866658446018164
  0
LINE
  5
76B5
  8
0
 10
356.730921363886182
 20
28.2058009339084883
 30
0.0
 11
356.7297822133626255
 21
28.2523474638089915
 31
0.0
  0
ARC
  5
76B6
  8
0
 10
356.7718983351863926
 20
28.2229426051507204
 30
0.0
 40
0.0513654887077759
 50
108.7487435796215038
 51
145.0778195754269859
  0
ARC
  5
76B7
  8
0
 10
356.7853083228463902
 20
28.2061159745022216
 30
0.0
 40
0.0693132964878928
 50
68.058880995009801
 51
89.2857406932096183
  0
ARC
  5
76B8
  8
0
 10
356.782201682499192
 20
28.1819764018864483
 30
0.0
 40
0.0935318048544208
 50
87.5669008292590547
 51
106.6589627613640943
  0
ARC
  5
76B9
  8
0
 10
356.7922532647643266
 20
28.2135578871630095
 30
0.0
 40
0.0599273555296639
 50
32.9464345682090993
 51
71.5614993756765188
  0
ARC
  5
76BA
  8
0
 10
356.765174293575285
 20
28.2026769736327196
 30
0.0
 40
0.034395091511659
 50
128.5061558579361929
 51
174.7888858585193077
  0
ARC
  5
76BB
  8
0
 10
356.7817011873689808
 20
28.1816325503634602
 30
0.0
 40
0.0611530782976225
 50
98.0354694135900644
 51
128.3475771022704066
  0
ARC
  5
76BC
  8
0
 10
356.7841725594522018
 20
28.16412646547629
 30
0.0
 40
0.0788327470742313
 50
67.4896201449711555
 51
98.0354694135900644
  0
ARC
  5
76BD
  8
0
 10
356.795229142115204
 20
28.1908057456630701
 30
0.0
 40
0.0499531346899018
 50
39.1826063636066735
 51
67.4896201449710844
  0
ARC
  5
76BE
  8
0
 10
356.8082742615338248
 20
28.2014384926895509
 30
0.0
 40
0.0331236828279122
 50
357.0491214950828862
 51
39.1826063636063466
  0
LINE
  5
76BF
  8
0
 10
356.8413540235846995
 20
28.1997332927770117
 30
0.0
 11
356.8425430658626283
 21
28.2461496629089908
 31
0.0
  0
ARC
  5
76C0
  8
0
 10
356.8113444354398212
 20
28.2566789149642617
 30
0.0
 40
0.0392405262080591
 50
321.8204845188645891
 51
334.205542269655723
  0
ARC
  5
76C1
  8
0
 10
356.8142469993978239
 20
28.2237114109272298
 30
0.0
 40
0.0361129136096276
 50
26.1083727032692394
 51
38.4137593920213405
  0
ARC
  5
76C2
  8
0
 10
356.7503256202454054
 20
28.2335707855142601
 30
0.0
 40
0.0278315506958538
 50
137.5726814280791928
 51
151.0213979558527058
  0
ARC
  5
76C3
  8
0
 10
356.7680823714010216
 20
28.2670180984697197
 30
0.0
 40
0.0465968702717355
 50
205.3678347307009915
 51
215.4296434525373058
  0
ARC
  5
76C4
  8
0
 10
356.7857696038400945
 20
26.7322580458600711
 30
0.0
 40
0.0222091795754215
 50
65.3209348931844005
 51
120.7659622398631996
  0
ARC
  5
76C5
  8
0
 10
356.7883798112135878
 20
26.7379385099877496
 30
0.0
 40
0.0159577113288006
 50
31.1599187767661903
 51
65.3209348931844858
  0
ARC
  5
76C6
  8
0
 10
356.7947546280431084
 20
26.741793143728291
 30
0.0
 40
0.0085081146361368
 50
329.012309169078776
 51
31.1599187767661903
  0
ARC
  5
76C7
  8
0
 10
356.7896026535850069
 20
26.7448872560559892
 30
0.0
 40
0.014517804471183
 50
283.1316158245335259
 51
329.0123091690783781
  0
ARC
  5
76C8
  8
0
 10
356.7867661385644169
 20
26.7570460567758488
 30
0.0
 40
0.0270030859020216
 50
255.8043457872676925
 51
283.1316158245335259
  0
ARC
  5
76C9
  8
0
 10
356.7841376715365982
 20
26.7466551421848706
 30
0.0
 40
0.0162848796643382
 50
216.9874455719294133
 51
255.8043457872676072
  0
ARC
  5
76CA
  8
0
 10
356.7787450976749142
 20
26.7425933985689603
 30
0.0
 40
0.0095337601975813
 50
160.2504959599461074
 51
216.9874455719298965
  0
ARC
  5
76CB
  8
0
 10
356.7795822264603771
 20
26.7422928468039593
 30
0.0
 40
0.0104232071981816
 50
119.7574216480021931
 51
160.2504959599461927
  0
ARC
  5
76CC
  8
0
 10
356.7689135995256038
 20
26.7523562925736194
 30
0.0
 40
0.0379957230810885
 50
179.2517643227151041
 51
220.0775975952097099
  0
ARC
  5
76CD
  8
0
 10
356.7818430129116223
 20
26.7632352323865099
 30
0.0
 40
0.0548930915731677
 50
220.0775975952097099
 51
257.0941730958048197
  0
ARC
  5
76CE
  8
0
 10
356.7878240521866928
 20
26.7893376224577899
 30
0.0
 40
0.0816719563408186
 50
257.0941730958048197
 51
281.960430808380579
  0
ARC
  5
76CF
  8
0
 10
356.7943081601001154
 20
26.7587283632657815
 30
0.0
 40
0.050383453600733
 50
281.960430808380579
 51
321.0333937662912831
  0
ARC
  5
76D0
  8
0
 10
356.8055838569986236
 20
26.7496083601270094
 30
0.0
 40
0.0358811848885916
 50
321.0333937662911126
 51
355.4866658446018164
  0
LINE
  5
76D1
  8
0
 10
356.7309211163333202
 20
26.7528524713107494
 30
0.0
 11
356.7297819658097069
 21
26.7993990012112384
 31
0.0
  0
ARC
  5
76D2
  8
0
 10
356.771898087633474
 20
26.7699941425529708
 30
0.0
 40
0.0513654887077759
 50
108.7487435796215038
 51
145.0778195754269859
  0
ARC
  5
76D3
  8
0
 10
356.7853080752935853
 20
26.7531675119044685
 30
0.0
 40
0.0693132964878928
 50
68.058880995009801
 51
89.2857406932096183
  0
ARC
  5
76D4
  8
0
 10
356.7822014349462734
 20
26.7290279392887093
 30
0.0
 40
0.0935318048544208
 50
87.5669008292590547
 51
106.6589627613640943
  0
ARC
  5
76D5
  8
0
 10
356.7922530172115216
 20
26.7606094245652599
 30
0.0
 40
0.0599273555296639
 50
32.9464345682090993
 51
71.5614993756765188
  0
ARC
  5
76D6
  8
0
 10
356.7651740460224801
 20
26.7497285110349701
 30
0.0
 40
0.034395091511659
 50
128.5061558579361929
 51
174.7888858585193077
  0
ARC
  5
76D7
  8
0
 10
356.781700939816119
 20
26.7286840877657106
 30
0.0
 40
0.0611530782976225
 50
98.0354694135900644
 51
128.3475771022704066
  0
ARC
  5
76D8
  8
0
 10
356.7841723118993968
 20
26.7111780028785404
 30
0.0
 40
0.0788327470742313
 50
67.4896201449711555
 51
98.0354694135900644
  0
ARC
  5
76D9
  8
0
 10
356.7952288945622854
 20
26.7378572830653205
 30
0.0
 40
0.0499531346899018
 50
39.1826063636066735
 51
67.4896201449710844
  0
ARC
  5
76DA
  8
0
 10
356.8082740139810198
 20
26.7484900300918014
 30
0.0
 40
0.0331236828279122
 50
357.0491214950828862
 51
39.1826063636063466
  0
LINE
  5
76DB
  8
0
 10
356.8413537760317809
 20
26.7467848301792586
 30
0.0
 11
356.8425428183097097
 21
26.7932012003112412
 31
0.0
  0
ARC
  5
76DC
  8
0
 10
356.8113441878869025
 20
26.8037304523665192
 30
0.0
 40
0.0392405262080591
 50
321.8204845188645891
 51
334.205542269655723
  0
ARC
  5
76DD
  8
0
 10
356.8142467518450189
 20
26.7707629483294802
 30
0.0
 40
0.0361129136096276
 50
26.1083727032692394
 51
38.4137593920213405
  0
ARC
  5
76DE
  8
0
 10
356.7503253726924868
 20
26.7806223229165106
 30
0.0
 40
0.0278315506958538
 50
137.5726814280791928
 51
151.0213979558527058
  0
ARC
  5
76DF
  8
0
 10
356.7680821238482167
 20
26.8140696358719701
 30
0.0
 40
0.0465968702717355
 50
205.3678347307009915
 51
215.4296434525373058
  0
ARC
  5
76E0
  8
0
 10
356.7857695894888934
 20
26.4055424665601102
 30
0.0
 40
0.0222091795754215
 50
65.3209348931844005
 51
120.7659622398631996
  0
ARC
  5
76E1
  8
0
 10
356.7883797968623867
 20
26.4112229306877886
 30
0.0
 40
0.0159577113288006
 50
31.1599187767661903
 51
65.3209348931844858
  0
ARC
  5
76E2
  8
0
 10
356.7947546136919073
 20
26.41507756442833
 30
0.0
 40
0.0085081146361368
 50
329.012309169078776
 51
31.1599187767661903
  0
ARC
  5
76E3
  8
0
 10
356.7896026392336921
 20
26.4181716767560317
 30
0.0
 40
0.014517804471183
 50
283.1316158245335259
 51
329.0123091690783781
  0
ARC
  5
76E4
  8
0
 10
356.7867661242132158
 20
26.4303304774758914
 30
0.0
 40
0.0270030859020216
 50
255.8043457872676925
 51
283.1316158245335259
  0
ARC
  5
76E5
  8
0
 10
356.7841376571852834
 20
26.4199395628849096
 30
0.0
 40
0.0162848796643382
 50
216.9874455719294133
 51
255.8043457872676072
  0
ARC
  5
76E6
  8
0
 10
356.7787450833237131
 20
26.4158778192689994
 30
0.0
 40
0.0095337601975813
 50
160.2504959599461074
 51
216.9874455719298965
  0
ARC
  5
76E7
  8
0
 10
356.779582212109176
 20
26.4155772675039984
 30
0.0
 40
0.0104232071981816
 50
119.7574216480021931
 51
160.2504959599461927
  0
ARC
  5
76E8
  8
0
 10
356.7689135851744027
 20
26.4256407132736513
 30
0.0
 40
0.0379957230810885
 50
179.2517643227151041
 51
220.0775975952097099
  0
ARC
  5
76E9
  8
0
 10
356.7818429985603075
 20
26.4365196530865383
 30
0.0
 40
0.0548930915731677
 50
220.0775975952097099
 51
257.0941730958048197
  0
ARC
  5
76EA
  8
0
 10
356.787824037835378
 20
26.462622043157829
 30
0.0
 40
0.0816719563408186
 50
257.0941730958048197
 51
281.960430808380579
  0
ARC
  5
76EB
  8
0
 10
356.7943081457489143
 20
26.4320127839658205
 30
0.0
 40
0.050383453600733
 50
281.960430808380579
 51
321.0333937662912831
  0
ARC
  5
76EC
  8
0
 10
356.8055838426474224
 20
26.4228927808270484
 30
0.0
 40
0.0358811848885916
 50
321.0333937662911126
 51
355.4866658446018164
  0
LINE
  5
76ED
  8
0
 10
356.7309211019821191
 20
26.4261368920107884
 30
0.0
 11
356.7297819514585058
 21
26.472683421911281
 31
0.0
  0
ARC
  5
76EE
  8
0
 10
356.7718980732822729
 20
26.4432785632530205
 30
0.0
 40
0.0513654887077759
 50
108.7487435796215038
 51
145.0778195754269859
  0
ARC
  5
76EF
  8
0
 10
356.7853080609423841
 20
26.4264519326045111
 30
0.0
 40
0.0693132964878928
 50
68.058880995009801
 51
89.2857406932096183
  0
ARC
  5
76F0
  8
0
 10
356.7822014205950722
 20
26.4023123599887484
 30
0.0
 40
0.0935318048544208
 50
87.5669008292590547
 51
106.6589627613640943
  0
ARC
  5
76F1
  8
0
 10
356.7922530028602068
 20
26.4338938452652989
 30
0.0
 40
0.0599273555296639
 50
32.9464345682090993
 51
71.5614993756765188
  0
ARC
  5
76F2
  8
0
 10
356.765174031671279
 20
26.4230129317350091
 30
0.0
 40
0.034395091511659
 50
128.5061558579361929
 51
174.7888858585193077
  0
ARC
  5
76F3
  8
0
 10
356.7817009254649179
 20
26.4019685084657496
 30
0.0
 40
0.0611530782976225
 50
98.0354694135900644
 51
128.3475771022704066
  0
ARC
  5
76F4
  8
0
 10
356.784172297548082
 20
26.3844624235785794
 30
0.0
 40
0.0788327470742313
 50
67.4896201449711555
 51
98.0354694135900644
  0
ARC
  5
76F5
  8
0
 10
356.795228880211198
 20
26.4111417037653702
 30
0.0
 40
0.0499531346899018
 50
39.1826063636066735
 51
67.4896201449710844
  0
ARC
  5
76F6
  8
0
 10
356.808273999629705
 20
26.4217744507918404
 30
0.0
 40
0.0331236828279122
 50
357.0491214950828862
 51
39.1826063636063466
  0
LINE
  5
76F7
  8
0
 10
356.8413537616805797
 20
26.4200692508793011
 30
0.0
 11
356.8425428039585086
 21
26.4664856210112802
 31
0.0
  0
ARC
  5
76F8
  8
0
 10
356.8113441735357014
 20
26.4770148730665511
 30
0.0
 40
0.0392405262080591
 50
321.8204845188645891
 51
334.205542269655723
  0
ARC
  5
76F9
  8
0
 10
356.8142467374937041
 20
26.4440473690295192
 30
0.0
 40
0.0361129136096276
 50
26.1083727032692394
 51
38.4137593920213405
  0
ARC
  5
76FA
  8
0
 10
356.7503253583412857
 20
26.4539067436165496
 30
0.0
 40
0.0278315506958538
 50
137.5726814280791928
 51
151.0213979558527058
  0
ARC
  5
76FB
  8
0
 10
356.7680821094969019
 20
26.4873540565720091
 30
0.0
 40
0.0465968702717355
 50
205.3678347307009915
 51
215.4296434525373058
  0
ARC
  5
76FC
  8
0
 10
361.6711393189053751
 20
38.7622908031380007
 30
0.0
 40
10.8424978193440396
 50
251.3169485346207921
 51
252.9465753769887044
  0
ARC
  5
76FD
  8
0
 10
361.6711393189053751
 20
38.7622908031380007
 30
0.0
 40
10.8424978193440396
 50
248.8009831933345879
 51
250.6267883990236953
  0
ARC
  5
76FE
  8
0
 10
361.6711393189053751
 20
38.7622908031380007
 30
0.0
 40
10.8424978193440396
 50
246.2627555370771972
 51
248.0789446153551978
  0
ARC
  5
76FF
  8
0
 10
361.6711393189053751
 20
38.7622908031380007
 30
0.0
 40
10.8424978193440396
 50
243.5796474110285885
 51
245.5305571535240006
  0
ARC
  5
7700
  8
0
 10
363.9484396924573275
 20
44.3442070299186071
 30
0.0
 40
17.2475412017194998
 50
252.0727401666825926
 51
252.5768127026771879
  0
ARC
  5
7701
  8
0
 10
363.9484396924573275
 20
44.3442070299186071
 30
0.0
 40
17.2475412017194998
 50
250.4395188351120964
 51
251.5982002174353909
  0
ARC
  5
7702
  8
0
 10
363.9484396924573275
 20
44.3442070299186071
 30
0.0
 40
17.2475412017194998
 50
248.8684267464581126
 51
250.1170583950654986
  0
ARC
  5
7703
  8
0
 10
363.9484396924573275
 20
44.3442070299186071
 30
0.0
 40
17.2475412017194998
 50
247.2764444997874875
 51
248.557791944416806
  0
ARC
  5
7704
  8
0
 10
363.9484396924573275
 20
44.3442070299186071
 30
0.0
 40
17.2475412017194998
 50
245.66817735948419
 51
246.9632239266601061
  0
ARC
  5
7705
  8
0
 10
363.5512341602723154
 20
43.6419867426312678
 30
0.0
 40
16.8107358637320203
 50
253.0066268424627083
 51
253.6322059307269967
  0
ARC
  5
7706
  8
0
 10
363.5512341602723154
 20
43.6419867426312678
 30
0.0
 40
16.8107358637320203
 50
251.3467633728251087
 51
252.5190564902655126
  0
ARC
  5
7707
  8
0
 10
363.5512341602723154
 20
43.6419867426312678
 30
0.0
 40
16.8107358637320203
 50
249.743096296335608
 51
251.0181792900864082
  0
ARC
  5
7708
  8
0
 10
363.5512341602723154
 20
43.6419867426312678
 30
0.0
 40
16.8107358637320203
 50
248.1163244022980052
 51
249.4206064086561128
  0
ARC
  5
7709
  8
0
 10
363.5512341602723154
 20
43.6419867426312678
 30
0.0
 40
16.8107358637320203
 50
246.4781139009589879
 51
247.7918677569329873
  0
ARC
  5
770A
  8
0
 10
362.6556771162581185
 20
41.4784506221299907
 30
0.0
 40
14.8248249505274003
 50
252.412672628082106
 51
253.7166661721473986
  0
ARC
  5
770B
  8
0
 10
362.6556771162581185
 20
41.4784506221299907
 30
0.0
 40
14.8248249505274003
 50
250.5999104882818074
 51
252.0188403936589907
  0
ARC
  5
770C
  8
0
 10
362.6556771162581185
 20
41.4784506221299907
 30
0.0
 40
14.8248249505274003
 50
248.9424987874662918
 51
250.2093293703129007
  0
ARC
  5
770D
  8
0
 10
363.1477688944900137
 20
43.1995155499063728
 30
0.0
 40
16.9404971846650589
 50
252.9271758857356076
 51
254.2211839870620054
  0
ARC
  5
770E
  8
0
 10
363.1477688944900137
 20
43.1995155499063728
 30
0.0
 40
16.9404971846650589
 50
251.3520031722372039
 51
252.6112649012981137
  0
ARC
  5
770F
  8
0
 10
363.1477688944900137
 20
43.1995155499063728
 30
0.0
 40
16.9404971846650589
 50
249.9125464150112919
 51
251.0375170461836092
  0
ARC
  5
7710
  8
0
 10
362.4549592753871252
 20
41.7510876676985276
 30
0.0
 40
15.6702209281045697
 50
252.4539138006527992
 51
253.7083258298225132
  0
ARC
  5
7711
  8
0
 10
362.4549592753871252
 20
41.7510876676985276
 30
0.0
 40
15.6702209281045697
 50
250.7434181845625858
 51
252.109947627293991
  0
ARC
  5
7712
  8
0
 10
362.4549592753871252
 20
41.7510876676985276
 30
0.0
 40
15.6702209281045697
 50
249.1886567442591911
 51
250.4059222053834901
  0
ARC
  5
7713
  8
0
 10
362.6577706505390211
 20
42.5438524107571894
 30
0.0
 40
16.8005969614863808
 50
253.0103865332980035
 51
253.6401569590834129
  0
ARC
  5
7714
  8
0
 10
362.6577706505390211
 20
42.5438524107571894
 30
0.0
 40
16.8005969614863808
 50
251.3524100970547011
 51
252.5176997599675133
  0
ARC
  5
7715
  8
0
 10
362.6577706505390211
 20
42.5438524107571894
 30
0.0
 40
16.8005969614863808
 50
249.752913664220813
 51
251.0326009428385987
  0
ARC
  5
7716
  8
0
 10
362.6007135984773981
 20
42.6750942830645812
 30
0.0
 40
17.2092894098982399
 50
252.0818149353605975
 51
252.5810585091307132
  0
ARC
  5
7717
  8
0
 10
362.6007135984773981
 20
42.6750942830645812
 30
0.0
 40
17.2092894098982399
 50
250.4606912286922977
 51
251.6001873072052888
  0
ARC
  5
7718
  8
0
 10
349.6236766744021907
 20
44.3416322051854905
 30
0.0
 40
17.2448147915467587
 50
296.3934497524978156
 51
296.9864289951220258
  0
ARC
  5
7719
  8
0
 10
349.6236766744021907
 20
44.3416322051854905
 30
0.0
 40
17.2448147915467587
 50
294.651465579502883
 51
295.8999049923835969
  0
ARC
  5
771A
  8
0
 10
350.0196530831050268
 20
43.6426865001243485
 30
0.0
 40
16.8114870789253388
 50
297.3098898884617824
 51
298.0515530988857904
  0
ARC
  5
771B
  8
0
 10
350.0196530831050268
 20
43.6426865001243485
 30
0.0
 40
16.8114870789253388
 50
295.5351381601640242
 51
296.8014952972641822
  0
ARC
  5
771C
  8
0
 10
350.0196530831050268
 20
43.6426865001243485
 30
0.0
 40
16.8114870789253388
 50
293.8550150612534821
 51
295.1872354497891138
  0
ARC
  5
771D
  8
0
 10
350.5646065260366981
 20
42.5228845300853067
 30
0.0
 40
15.9214500337585001
 50
296.6543147169518875
 51
298.0202833066119865
  0
ARC
  5
771E
  8
0
 10
350.5646065260366981
 20
42.5228845300853067
 30
0.0
 40
15.9214500337585001
 50
294.8905723392167033
 51
296.2989998877376934
  0
ARC
  5
771F
  8
0
 10
350.5646065260366981
 20
42.5228845300853067
 30
0.0
 40
15.9214500337585001
 50
293.3283001713663225
 51
294.5260572730492754
  0
ARC
  5
7720
  8
0
 10
350.4646682270706037
 20
43.0984780593253873
 30
0.0
 40
16.8320472181035292
 50
297.1940492029527832
 51
298.6947455092557107
  0
ARC
  5
7721
  8
0
 10
350.4646682270706037
 20
43.0984780593253873
 30
0.0
 40
16.8320472181035292
 50
295.500296178659994
 51
296.8322765562732002
  0
ARC
  5
7722
  8
0
 10
350.4646682270706037
 20
43.0984780593253873
 30
0.0
 40
16.8320472181035292
 50
293.9996253418037782
 51
295.1535475225895198
  0
ARC
  5
7723
  8
0
 10
351.1028050879576199
 20
41.7880603066686405
 30
0.0
 40
15.7094498045509106
 50
296.6667139206791148
 51
298.0575895504402979
  0
ARC
  5
7724
  8
0
 10
351.1028050879576199
 20
41.7880603066686405
 30
0.0
 40
15.7094498045509106
 50
294.8735768142281017
 51
296.2979372258669741
  0
ARC
  5
7725
  8
0
 10
351.1028050879576199
 20
41.7880603066686405
 30
0.0
 40
15.7094498045509106
 50
293.2756170567416234
 51
294.5091143030073226
  0
ARC
  5
7726
  8
0
 10
350.9133316924405221
 20
42.543982660762218
 30
0.0
 40
16.8007397521443416
 50
297.3138496929639132
 51
298.0520301302166786
  0
ARC
  5
7727
  8
0
 10
350.9133316924405221
 20
42.543982660762218
 30
0.0
 40
16.8007397521443416
 50
295.5395493130399132
 51
296.800097384608307
  0
ARC
  5
7728
  8
0
 10
350.9133316924405221
 20
42.543982660762218
 30
0.0
 40
16.8007397521443416
 50
293.8679302244016185
 51
295.1915968377678041
  0
ARC
  5
7729
  8
0
 10
350.9133316924405221
 20
42.543982660762218
 30
0.0
 40
16.8007397521443416
 50
292.2153288974329826
 51
293.523899968253204
  0
ARC
  5
772A
  8
0
 10
350.9133316924405221
 20
42.543982660762218
 30
0.0
 40
16.8007397521443416
 50
290.5748612211987734
 51
291.8797996144667195
  0
ARC
  5
772B
  8
0
 10
350.9710938134389835
 20
42.6742233888002289
 30
0.0
 40
17.2082409584721994
 50
296.3999873753186876
 51
296.9985871157558108
  0
ARC
  5
772C
  8
0
 10
350.9710938134389835
 20
42.6742233888002289
 30
0.0
 40
17.2082409584721994
 50
294.6670804381060975
 51
295.9045942885061891
  0
ARC
  5
772D
  8
0
 10
350.9710938134389835
 20
42.6742233888002289
 30
0.0
 40
17.2082409584721994
 50
293.059585529485787
 51
294.3355496680076158
  0
ARC
  5
772E
  8
0
 10
350.9710938134389835
 20
42.6742233888002289
 30
0.0
 40
17.2082409584721994
 50
291.4529646193522012
 51
292.725092016301403
  0
ARC
  5
772F
  8
0
 10
350.9710938134389835
 20
42.6742233888002289
 30
0.0
 40
17.2082409584721994
 50
289.855508677239186
 51
291.1235508285075753
  0
ARC
  5
7730
  8
0
 10
301.5175022040285739
 20
160.9064725617446925
 30
0.0
 40
145.6628176556986887
 50
292.8922219994698821
 51
293.0317251458469059
  0
ARC
  5
7731
  8
0
 10
301.5175022040285739
 20
160.9064725617446925
 30
0.0
 40
145.6628176556986887
 50
292.7017123769945215
 51
292.8338963764840059
  0
ARC
  5
7732
  8
0
 10
301.5175022040285739
 20
160.9064725617446925
 30
0.0
 40
145.6628176556986887
 50
292.5162860535658069
 51
292.6438378829446947
  0
ARC
  5
7733
  8
0
 10
301.5175022040285739
 20
160.9064725617446925
 30
0.0
 40
145.6628176556986887
 50
292.3416314143523778
 51
292.4556891508461831
  0
ARC
  5
7734
  8
0
 10
367.3253244280729746
 20
27.473537572177829
 30
0.0
 40
8.7650657828874348
 50
182.3002318393280916
 51
183.4630587005028133
  0
ARC
  5
7735
  8
0
 10
367.3253244280729746
 20
27.473537572177829
 30
0.0
 40
8.7650657828874348
 50
179.9710416952198955
 51
181.2989573986108951
  0
ARC
  5
7736
  8
0
 10
367.3253244280729746
 20
27.473537572177829
 30
0.0
 40
8.7650657828874348
 50
177.5563990223025996
 51
178.968011861629094
  0
ARC
  5
7737
  8
0
 10
367.3253244280729746
 20
27.473537572177829
 30
0.0
 40
8.7650657828874348
 50
174.7832201630081954
 51
176.5576531875180137
  0
LINE
  5
7738
  8
0
 10
358.1192724346860814
 20
28.7034752282045389
 30
0.0
 11
358.1192724346860814
 21
28.545664064579789
 31
0.0
  0
LINE
  5
7739
  8
0
 10
358.1192724346860814
 20
28.392638878762309
 30
0.0
 11
358.1192724346860814
 21
28.1344795451260197
 31
0.0
  0
LINE
  5
773A
  8
0
 10
358.1192724346860814
 20
27.6401545306600589
 30
0.0
 11
358.1192724346860814
 21
27.3909574191897818
 31
0.0
  0
LINE
  5
773B
  8
0
 10
358.1192724346860814
 20
27.2761715761557895
 30
0.0
 11
358.1192724346860814
 21
27.0416496202938994
 31
0.0
  0
LINE
  5
773C
  8
0
 10
358.1192724346860814
 20
26.9268459394070092
 30
0.0
 11
358.1192724346860814
 21
26.7327312006967084
 31
0.0
  0
LINE
  5
773D
  8
0
 10
358.1192724346860814
 20
26.5793158817909614
 30
0.0
 11
358.1192724346860814
 21
26.5226136871692191
 31
0.0
  0
LINE
  5
773E
  8
0
 10
357.674620969354919
 20
28.9076130336837593
 30
0.0
 11
357.674620969354919
 21
28.7193658771602109
 31
0.0
  0
LINE
  5
773F
  8
0
 10
357.674620969354919
 20
28.5663440578977195
 30
0.0
 11
357.674620969354919
 21
28.2978774456609692
 31
0.0
  0
LINE
  5
7740
  8
0
 10
357.674620969354919
 20
28.1830833337565707
 30
0.0
 11
357.674620969354919
 21
27.9121957348706395
 31
0.0
  0
LINE
  5
7741
  8
0
 10
357.674620969354919
 20
27.7974015575122095
 30
0.0
 11
357.674620969354919
 21
27.5412604110556813
 31
0.0
  0
LINE
  5
7742
  8
0
 10
357.674620969354919
 20
27.4264724365847812
 30
0.0
 11
357.674620969354919
 21
27.1861766401316594
 31
0.0
  0
LINE
  5
7743
  8
0
 10
357.674620969354919
 20
27.0713824953444693
 30
0.0
 11
357.674620969354919
 21
26.8471692856659914
 31
0.0
  0
LINE
  5
7744
  8
0
 10
357.674620969354919
 20
26.7323753764261909
 30
0.0
 11
357.674620969354919
 21
26.5442504133620183
 31
0.0
  0
LINE
  5
7745
  8
0
 10
357.674620969354919
 20
26.3908406096197687
 30
0.0
 11
357.674620969354919
 21
26.3218239923369488
 31
0.0
  0
LINE
  5
7746
  8
0
 10
357.230142117654907
 20
28.7559766940704193
 30
0.0
 11
357.230142117654907
 21
28.4794540770823694
 31
0.0
  0
LINE
  5
7747
  8
0
 10
357.230142117654907
 20
28.3646599154491987
 30
0.0
 11
357.230142117654907
 21
28.0863479008270502
 31
0.0
  0
LINE
  5
7748
  8
0
 10
357.230142117654907
 20
27.9715461087436701
 30
0.0
 11
357.230142117654907
 21
27.7531153455412394
 31
0.0
  0
LINE
  5
7749
  8
0
 10
357.2308829921312849
 20
27.1987957963136786
 30
0.0
 11
357.2308829921312849
 21
26.9956730992157716
 31
0.0
  0
LINE
  5
774A
  8
0
 10
357.230142117654907
 20
26.8808684725434617
 30
0.0
 11
357.230142117654907
 21
26.6636814941522715
 31
0.0
  0
LINE
  5
774B
  8
0
 10
357.230142117654907
 20
26.5488825518564084
 30
0.0
 11
357.230142117654907
 21
26.36998702950347
 31
0.0
  0
ARC
  5
774C
  8
0
 10
357.6753072843588939
 20
27.8219824772618409
 30
0.0
 40
0.0222091795754215
 50
59.2340377601367933
 51
114.6790651068155995
  0
ARC
  5
774D
  8
0
 10
357.6726970769855143
 20
27.8276629413895193
 30
0.0
 40
0.0159577113288006
 50
114.6790651068155
 51
148.8400812232337955
  0
ARC
  5
774E
  8
0
 10
357.66632226015588
 20
27.8315175751300501
 30
0.0
 40
0.0085081146361368
 50
148.8400812232337955
 51
210.9876908309209966
  0
ARC
  5
774F
  8
0
 10
357.6714742346139815
 20
27.8346116874577483
 30
0.0
 40
0.014517804471183
 50
210.9876908309215935
 51
256.8683841754665877
  0
ARC
  5
7750
  8
0
 10
357.6743107496346283
 20
27.8467704881776115
 30
0.0
 40
0.0270030859020216
 50
256.8683841754665877
 51
284.1956542127323928
  0
ARC
  5
7751
  8
0
 10
357.6769392166625039
 20
27.8363795735866404
 30
0.0
 40
0.0162848796643382
 50
284.1956542127323928
 51
323.0125544280704162
  0
ARC
  5
7752
  8
0
 10
357.6823317905240742
 20
27.8323178299707195
 30
0.0
 40
0.0095337601975813
 50
323.0125544280699046
 51
19.749504040053921
  0
ARC
  5
7753
  8
0
 10
357.681494661738725
 20
27.8320172782057185
 30
0.0
 40
0.0104232071981816
 50
19.7495040400537292
 51
60.2425783519977713
  0
ARC
  5
7754
  8
0
 10
357.6921632886734983
 20
27.8420807239753785
 30
0.0
 40
0.0379957230810885
 50
319.9224024047902049
 51
0.7482356772848647
  0
ARC
  5
7755
  8
0
 10
357.6792338752874798
 20
27.852959663788269
 30
0.0
 40
0.0548930915731677
 50
282.9058269041951235
 51
319.9224024047902049
  0
ARC
  5
7756
  8
0
 10
357.6732528360124093
 20
27.8790620538595491
 30
0.0
 40
0.0816719563408186
 50
258.039569191619421
 51
282.9058269041951235
  0
ARC
  5
7757
  8
0
 10
357.6667687280989867
 20
27.8484527946675406
 30
0.0
 40
0.050383453600733
 50
218.9666062337086885
 51
258.039569191619421
  0
ARC
  5
7758
  8
0
 10
357.6554930312004217
 20
27.8393327915287685
 30
0.0
 40
0.0358811848885916
 50
184.5133341553980983
 51
218.9666062337088874
  0
LINE
  5
7759
  8
0
 10
357.730155771865725
 20
27.8425769027125085
 30
0.0
 11
357.7312949223892815
 21
27.8891234326130011
 31
0.0
  0
ARC
  5
775A
  8
0
 10
357.6891788005656281
 20
27.8597185739547406
 30
0.0
 40
0.0513654887077759
 50
34.922180424572943
 51
71.2512564203785104
  0
ARC
  5
775B
  8
0
 10
357.6757688129055168
 20
27.8428919433062383
 30
0.0
 40
0.0693132964878928
 50
90.714259306790396
 51
111.941119004990199
  0
ARC
  5
775C
  8
0
 10
357.6788754532527719
 20
27.8187523706904685
 30
0.0
 40
0.0935318048544208
 50
73.3410372386359057
 51
92.4330991707409595
  0
ARC
  5
775D
  8
0
 10
357.6688238709875804
 20
27.850333855967019
 30
0.0
 40
0.0599273555296639
 50
108.438500624323396
 51
147.0535654317909007
  0
ARC
  5
775E
  8
0
 10
357.695902842176622
 20
27.8394529424367292
 30
0.0
 40
0.034395091511659
 50
5.211114141480464
 51
51.4938441420637929
  0
ARC
  5
775F
  8
0
 10
357.6793759483829263
 20
27.8184085191674697
 30
0.0
 40
0.0611530782976225
 50
51.6524228977295792
 51
81.964530586409964
  0
ARC
  5
7760
  8
0
 10
357.6769045762997052
 20
27.8009024342803102
 30
0.0
 40
0.0788327470742313
 50
81.964530586409964
 51
112.5103798550288019
  0
ARC
  5
7761
  8
0
 10
357.665847993636703
 20
27.8275817144670903
 30
0.0
 40
0.0499531346899018
 50
112.5103798550289014
 51
140.817393636393291
  0
ARC
  5
7762
  8
0
 10
357.6528028742180823
 20
27.8382144614935712
 30
0.0
 40
0.0331236828279122
 50
140.8173936363936036
 51
182.9508785049171138
  0
LINE
  5
7763
  8
0
 10
357.6197231121672075
 20
27.8365092615810283
 30
0.0
 11
357.6185340698892787
 21
27.8829256317130003
 31
0.0
  0
ARC
  5
7764
  8
0
 10
357.6497327003121995
 20
27.8934548837682783
 30
0.0
 40
0.0392405262080591
 50
205.7944577303441065
 51
218.1795154811354109
  0
ARC
  5
7765
  8
0
 10
357.6468301363540832
 20
27.8604873797312393
 30
0.0
 40
0.0361129136096276
 50
141.5862406079785956
 51
153.8916272967306895
  0
ARC
  5
7766
  8
0
 10
357.7107515155065016
 20
27.8703467543182697
 30
0.0
 40
0.0278315506958538
 50
28.9786020441472587
 51
42.4273185719208072
  0
ARC
  5
7767
  8
0
 10
357.6929947643508854
 20
27.9037940672737399
 30
0.0
 40
0.0465968702717355
 50
324.5703565474627226
 51
334.6321652692989801
  0
ARC
  5
7768
  8
0
 10
357.2299972678753761
 20
27.9961088712861894
 30
0.0
 40
0.0222091795754215
 50
59.2340377601367933
 51
114.6790651068155995
  0
ARC
  5
7769
  8
0
 10
357.2273870605019965
 20
28.0017893354138714
 30
0.0
 40
0.0159577113288006
 50
114.6790651068155
 51
148.8400812232337955
  0
ARC
  5
776A
  8
0
 10
357.221012243672476
 20
28.0056439691543986
 30
0.0
 40
0.0085081146361368
 50
148.8400812232337955
 51
210.9876908309209966
  0
ARC
  5
776B
  8
0
 10
357.2261642181305774
 20
28.008738081482111
 30
0.0
 40
0.014517804471183
 50
210.9876908309215935
 51
256.8683841754665877
  0
ARC
  5
776C
  8
0
 10
357.2290007331512243
 20
28.02089688220196
 30
0.0
 40
0.0270030859020216
 50
256.8683841754665877
 51
284.1956542127323928
  0
ARC
  5
776D
  8
0
 10
357.2316292001790998
 20
28.0105059676109889
 30
0.0
 40
0.0162848796643382
 50
284.1956542127323928
 51
323.0125544280704162
  0
ARC
  5
776E
  8
0
 10
357.2370217740406133
 20
28.0064442239950715
 30
0.0
 40
0.0095337601975813
 50
323.0125544280699046
 51
19.749504040053921
  0
ARC
  5
776F
  8
0
 10
357.2361846452552072
 20
28.0061436722300705
 30
0.0
 40
0.0104232071981816
 50
19.7495040400537292
 51
60.2425783519977713
  0
ARC
  5
7770
  8
0
 10
357.2468532721899805
 20
28.0162071179997305
 30
0.0
 40
0.0379957230810885
 50
319.9224024047902049
 51
0.7482356772848647
  0
ARC
  5
7771
  8
0
 10
357.2339238588040189
 20
28.0270860578126211
 30
0.0
 40
0.0548930915731677
 50
282.9058269041951235
 51
319.9224024047902049
  0
ARC
  5
7772
  8
0
 10
357.2279428195288915
 20
28.0531884478839011
 30
0.0
 40
0.0816719563408186
 50
258.039569191619421
 51
282.9058269041951235
  0
ARC
  5
7773
  8
0
 10
357.2214587116155258
 20
28.0225791886918891
 30
0.0
 40
0.050383453600733
 50
218.9666062337086885
 51
258.039569191619421
  0
ARC
  5
7774
  8
0
 10
357.2101830147170176
 20
28.0134591855531205
 30
0.0
 40
0.0358811848885916
 50
184.5133341553980983
 51
218.9666062337088874
  0
LINE
  5
7775
  8
0
 10
357.2848457553823209
 20
28.0167032967368606
 30
0.0
 11
357.2859849059058206
 21
28.0632498266373602
 31
0.0
  0
ARC
  5
7776
  8
0
 10
357.2438687840821103
 20
28.0338449679790891
 30
0.0
 40
0.0513654887077759
 50
34.922180424572943
 51
71.2512564203785104
  0
ARC
  5
7777
  8
0
 10
357.2304587964219991
 20
28.0170183373305903
 30
0.0
 40
0.0693132964878928
 50
90.714259306790396
 51
111.941119004990199
  0
ARC
  5
7778
  8
0
 10
357.233565436769311
 20
27.9928787647148205
 30
0.0
 40
0.0935318048544208
 50
73.3410372386359057
 51
92.4330991707409595
  0
ARC
  5
7779
  8
0
 10
357.2235138545041195
 20
28.0244602499913817
 30
0.0
 40
0.0599273555296639
 50
108.438500624323396
 51
147.0535654317909007
  0
ARC
  5
777A
  8
0
 10
357.2505928256931043
 20
28.0135793364610883
 30
0.0
 40
0.034395091511659
 50
5.211114141480464
 51
51.4938441420637929
  0
ARC
  5
777B
  8
0
 10
357.2340659318995222
 20
27.9925349131918217
 30
0.0
 40
0.0611530782976225
 50
51.6524228977295792
 51
81.964530586409964
  0
ARC
  5
777C
  8
0
 10
357.2315945598163012
 20
27.9750288283046586
 30
0.0
 40
0.0788327470742313
 50
81.964530586409964
 51
112.5103798550288019
  0
ARC
  5
777D
  8
0
 10
357.2205379771531852
 20
28.0017081084914388
 30
0.0
 40
0.0499531346899018
 50
112.5103798550289014
 51
140.817393636393291
  0
ARC
  5
777E
  8
0
 10
357.2074928577346213
 20
28.0123408555179196
 30
0.0
 40
0.0331236828279122
 50
140.8173936363936036
 51
182.9508785049171138
  0
LINE
  5
777F
  8
0
 10
357.1744130956836898
 20
28.0106356556053804
 30
0.0
 11
357.1732240534058178
 21
28.0570520257373595
 31
0.0
  0
ARC
  5
7780
  8
0
 10
357.2044226838286818
 20
28.0675812777926303
 30
0.0
 40
0.0392405262080591
 50
205.7944577303441065
 51
218.1795154811354109
  0
ARC
  5
7781
  8
0
 10
357.2015201198706222
 20
28.0346137737555985
 30
0.0
 40
0.0361129136096276
 50
141.5862406079785956
 51
153.8916272967306895
  0
ARC
  5
7782
  8
0
 10
357.2654414990230975
 20
28.0444731483426217
 30
0.0
 40
0.0278315506958538
 50
28.9786020441472587
 51
42.4273185719208072
  0
ARC
  5
7783
  8
0
 10
357.2476847478674244
 20
28.0779204612980884
 30
0.0
 40
0.0465968702717355
 50
324.5703565474627226
 51
334.6321652692989801
  0
ARC
  5
7784
  8
0
 10
357.674974482543405
 20
28.2076579993764192
 30
0.0
 40
0.0222091795754215
 50
59.2340377601367933
 51
114.6790651068155995
  0
ARC
  5
7785
  8
0
 10
357.672364275169798
 20
28.2133384635041011
 30
0.0
 40
0.0159577113288006
 50
114.6790651068155
 51
148.8400812232337955
  0
ARC
  5
7786
  8
0
 10
357.6659894583403911
 20
28.2171930972446283
 30
0.0
 40
0.0085081146361368
 50
148.8400812232337955
 51
210.9876908309209966
  0
ARC
  5
7787
  8
0
 10
357.6711414327984926
 20
28.2202872095723301
 30
0.0
 40
0.014517804471183
 50
210.9876908309215935
 51
256.8683841754665877
  0
ARC
  5
7788
  8
0
 10
357.6739779478190826
 20
28.2324460102922004
 30
0.0
 40
0.0270030859020216
 50
256.8683841754665877
 51
284.1956542127323928
  0
ARC
  5
7789
  8
0
 10
357.676606414847015
 20
28.2220550957012115
 30
0.0
 40
0.0162848796643382
 50
284.1956542127323928
 51
323.0125544280704162
  0
ARC
  5
778A
  8
0
 10
357.6819989887084716
 20
28.2179933520853012
 30
0.0
 40
0.0095337601975813
 50
323.0125544280699046
 51
19.749504040053921
  0
ARC
  5
778B
  8
0
 10
357.6811618599231224
 20
28.2176928003203109
 30
0.0
 40
0.0104232071981816
 50
19.7495040400537292
 51
60.2425783519977713
  0
ARC
  5
778C
  8
0
 10
357.6918304868578957
 20
28.2277562460899603
 30
0.0
 40
0.0379957230810885
 50
319.9224024047902049
 51
0.7482356772848647
  0
ARC
  5
778D
  8
0
 10
357.6789010734718772
 20
28.2386351859028508
 30
0.0
 40
0.0548930915731677
 50
282.9058269041951235
 51
319.9224024047902049
  0
ARC
  5
778E
  8
0
 10
357.6729200341968067
 20
28.2647375759741308
 30
0.0
 40
0.0816719563408186
 50
258.039569191619421
 51
282.9058269041951235
  0
ARC
  5
778F
  8
0
 10
357.6664359262833841
 20
28.2341283167821189
 30
0.0
 40
0.050383453600733
 50
218.9666062337086885
 51
258.039569191619421
  0
ARC
  5
7790
  8
0
 10
357.6551602293848759
 20
28.2250083136433503
 30
0.0
 40
0.0358811848885916
 50
184.5133341553980983
 51
218.9666062337088874
  0
LINE
  5
7791
  8
0
 10
357.7298229700501793
 20
28.2282524248270903
 30
0.0
 11
357.7309621205737926
 21
28.27479895472759
 31
0.0
  0
ARC
  5
7792
  8
0
 10
357.6888459987500255
 20
28.2453940960693188
 30
0.0
 40
0.0513654887077759
 50
34.922180424572943
 51
71.2512564203785104
  0
ARC
  5
7793
  8
0
 10
357.6754360110899142
 20
28.2285674654208201
 30
0.0
 40
0.0693132964878928
 50
90.714259306790396
 51
111.941119004990199
  0
ARC
  5
7794
  8
0
 10
357.6785426514372261
 20
28.2044278928050502
 30
0.0
 40
0.0935318048544208
 50
73.3410372386359057
 51
92.4330991707409595
  0
ARC
  5
7795
  8
0
 10
357.6684910691719779
 20
28.2360093780816115
 30
0.0
 40
0.0599273555296639
 50
108.438500624323396
 51
147.0535654317909007
  0
ARC
  5
7796
  8
0
 10
357.6955700403610194
 20
28.225128464551311
 30
0.0
 40
0.034395091511659
 50
5.211114141480464
 51
51.4938441420637929
  0
ARC
  5
7797
  8
0
 10
357.6790431465673805
 20
28.2040840412820515
 30
0.0
 40
0.0611530782976225
 50
51.6524228977295792
 51
81.964530586409964
  0
ARC
  5
7798
  8
0
 10
357.6765717744842163
 20
28.1865779563948813
 30
0.0
 40
0.0788327470742313
 50
81.964530586409964
 51
112.5103798550288019
  0
ARC
  5
7799
  8
0
 10
357.6655151918211004
 20
28.2132572365816685
 30
0.0
 40
0.0499531346899018
 50
112.5103798550289014
 51
140.817393636393291
  0
ARC
  5
779A
  8
0
 10
357.6524700724024797
 20
28.2238899836081494
 30
0.0
 40
0.0331236828279122
 50
140.8173936363936036
 51
182.9508785049171138
  0
LINE
  5
779B
  8
0
 10
357.619390310351605
 20
28.2221847836956101
 30
0.0
 11
357.6182012680736761
 21
28.2686011538275892
 31
0.0
  0
ARC
  5
779C
  8
0
 10
357.649399898496597
 20
28.2791304058828601
 30
0.0
 40
0.0392405262080591
 50
205.7944577303441065
 51
218.1795154811354109
  0
ARC
  5
779D
  8
0
 10
357.6464973345384806
 20
28.2461629018458282
 30
0.0
 40
0.0361129136096276
 50
141.5862406079785956
 51
153.8916272967306895
  0
ARC
  5
779E
  8
0
 10
357.7104187136910127
 20
28.2560222764328515
 30
0.0
 40
0.0278315506958538
 50
28.9786020441472587
 51
42.4273185719208072
  0
ARC
  5
779F
  8
0
 10
357.6926619625352828
 20
28.2894695893883217
 30
0.0
 40
0.0465968702717355
 50
324.5703565474627226
 51
334.6321652692989801
  0
ARC
  5
77A0
  8
0
 10
357.6755451661090888
 20
28.6114768258827503
 30
0.0
 40
0.0192084886304507
 50
65.5188757843733498
 51
122.2005481192124989
  0
ARC
  5
77A1
  8
0
 10
357.6719493051784866
 20
28.6171868349946905
 30
0.0
 40
0.0124605689591559
 50
122.2005481192122005
 51
181.5404450858547136
  0
ARC
  5
77A2
  8
0
 10
357.6710318199599214
 20
28.6189861541467714
 30
0.0
 40
0.0117343103701824
 50
190.4795581222471128
 51
250.9134017450163014
  0
ARC
  5
77A3
  8
0
 10
357.6742133193901054
 20
28.625979145039409
 30
0.0
 40
0.0193965694016986
 50
248.7863564299113079
 51
295.2114285969965977
  0
ARC
  5
77A4
  8
0
 10
357.6771233967992885
 20
28.6208660905120098
 30
0.0
 40
0.0135386427676041
 50
293.2858616915278276
 51
343.3670490340796846
  0
ARC
  5
77A5
  8
0
 10
357.6786643615059234
 20
28.6184941915041513
 30
0.0
 40
0.0115296327631541
 50
352.507640480105124
 51
65.1751016366537641
  0
LINE
  5
77A6
  8
0
 10
357.7511519302893248
 20
28.6845064600130115
 30
0.0
 11
357.7498044349475776
 21
28.6290109807284914
 31
0.0
  0
LINE
  5
77A7
  8
0
 10
357.5986102835893234
 20
28.6786446505130108
 30
0.0
 11
357.600646162589328
 21
28.6164209421129989
 31
0.0
  0
ARC
  5
77A8
  8
0
 10
357.693790686345892
 20
28.6308925607192997
 30
0.0
 40
0.0560453421408633
 50
324.1191437675361726
 51
358.0760782234875137
  0
ARC
  5
77A9
  8
0
 10
357.679709531913204
 20
28.6410784481859793
 30
0.0
 40
0.0734243873862318
 50
287.9599778945408843
 51
324.1191437675357747
  0
ARC
  5
77AA
  8
0
 10
357.671014718597803
 20
28.667902071325571
 30
0.0
 40
0.1016220209203394
 50
257.5964165728926787
 51
287.9599778945408843
  0
ARC
  5
77AB
  8
0
 10
357.6635003535502051
 20
28.6337349682278415
 30
0.0
 40
0.0666383587884347
 50
223.0599433878120976
 51
257.5964165728926787
  0
ARC
  5
77AC
  8
0
 10
357.655685325582283
 20
28.62643203580161
 30
0.0
 40
0.0559422153637504
 50
190.3088501086284907
 51
223.0599433878122113
  0
ARC
  5
77AD
  8
0
 10
357.6909962094532034
 20
28.6492370967448586
 30
0.0
 40
0.0697326231735562
 50
30.3831414554653207
 51
64.7343464817798377
  0
ARC
  5
77AE
  8
0
 10
357.6789648878432217
 20
28.5936583844659893
 30
0.0
 40
0.1257869600255895
 50
70.5938331480590904
 51
91.8648790007299709
  0
ARC
  5
77AF
  8
0
 10
357.6804357838129818
 20
28.6084145092053497
 30
0.0
 40
0.1111036368362345
 50
92.8707035262972909
 51
127.4328520661825053
  0
ARC
  5
77B0
  8
0
 10
357.6628212032708234
 20
28.6423479715989409
 30
0.0
 40
0.0737509250182313
 50
132.5973106421627108
 51
155.0495844553188078
  0
ARC
  5
77B1
  8
0
 10
357.6941850684302722
 20
28.6906928213843493
 30
0.0
 40
0.0647077057168651
 50
330.5463814472067838
 51
344.2716728367341261
  0
ARC
  5
77B2
  8
0
 10
357.7126772941567197
 20
28.6595634954636012
 30
0.0
 40
0.0458524711008086
 50
17.2387897331971907
 51
32.9551924234820177
  0
ARC
  5
77B3
  8
0
 10
357.6417591116110088
 20
28.6842728829319604
 30
0.0
 40
0.0470651530606101
 50
193.2836812718873034
 51
204.9172468540081127
  0
ARC
  5
77B4
  8
0
 10
357.6967332392305252
 20
28.6267663141721194
 30
0.0
 40
0.0531186440225259
 50
2.4219034543258182
 51
64.3108106289427042
  0
ARC
  5
77B5
  8
0
 10
357.6772010531159935
 20
28.5877356176556106
 30
0.0
 40
0.0967608948503192
 50
63.9068378830476433
 51
95.0788529392091846
  0
ARC
  5
77B6
  8
0
 10
357.676443649653379
 20
28.5962576798013401
 30
0.0
 40
0.0882052415601883
 50
95.0788529392091846
 51
133.1379188942941028
  0
ARC
  5
77B7
  8
0
 10
357.6508652973440121
 20
28.6235550697187584
 30
0.0
 40
0.0507966916930118
 50
133.1379188942943017
 51
174.9438285036841023
  0
ARC
  5
77B8
  8
0
 10
357.2318629842957876
 20
28.8011346233725689
 30
0.0
 40
0.0192084886304507
 50
65.5188757843733498
 51
122.2005481192124989
  0
ARC
  5
77B9
  8
0
 10
357.2282671233652991
 20
28.8068446324845091
 30
0.0
 40
0.0124605689591559
 50
122.2005481192122005
 51
181.5404450858547136
  0
ARC
  5
77BA
  8
0
 10
357.2273496381466771
 20
28.80864395163659
 30
0.0
 40
0.0117343103701824
 50
190.4795581222471128
 51
250.9134017450163014
  0
ARC
  5
77BB
  8
0
 10
357.2305311375768042
 20
28.8156369425292311
 30
0.0
 40
0.0193965694016986
 50
248.7863564299113079
 51
295.2114285969965977
  0
ARC
  5
77BC
  8
0
 10
357.2334412149861009
 20
28.8105238880018284
 30
0.0
 40
0.0135386427676041
 50
293.2858616915278276
 51
343.3670490340797983
  0
ARC
  5
77BD
  8
0
 10
357.2349821796926221
 20
28.8081519889939699
 30
0.0
 40
0.0115296327631541
 50
352.5076404801052945
 51
65.1751016366537641
  0
LINE
  5
77BE
  8
0
 10
357.3074697484760804
 20
28.8741642575028301
 30
0.0
 11
357.3061222531343901
 21
28.8186687782183206
 31
0.0
  0
LINE
  5
77BF
  8
0
 10
357.1549281017760791
 20
28.8683024480028294
 30
0.0
 11
357.1569639807760836
 21
28.8060787396028317
 31
0.0
  0
ARC
  5
77C0
  8
0
 10
357.2501085045325908
 20
28.8205503582091183
 30
0.0
 40
0.0560453421408633
 50
324.1191437675361726
 51
358.0760782234875137
  0
ARC
  5
77C1
  8
0
 10
357.2360273500999028
 20
28.8307362456758085
 30
0.0
 40
0.0734243873862318
 50
287.9599778945408843
 51
324.1191437675360021
  0
ARC
  5
77C2
  8
0
 10
357.2273325367846155
 20
28.8575598688153896
 30
0.0
 40
0.1016220209203394
 50
257.5964165728926787
 51
287.9599778945408843
  0
ARC
  5
77C3
  8
0
 10
357.2198181717370176
 20
28.8233927657176601
 30
0.0
 40
0.0666383587884347
 50
223.0599433878120976
 51
257.5964165728926787
  0
ARC
  5
77C4
  8
0
 10
357.2120031437690955
 20
28.8160898332914392
 30
0.0
 40
0.0559422153637504
 50
190.3088501086284907
 51
223.0599433878122113
  0
ARC
  5
77C5
  8
0
 10
357.2473140276397885
 20
28.8388948942346914
 30
0.0
 40
0.0697326231735562
 50
30.3831414554653207
 51
64.7343464817798377
  0
ARC
  5
77C6
  8
0
 10
357.2352827060299774
 20
28.7833161819558185
 30
0.0
 40
0.1257869600255895
 50
70.5938331480590904
 51
91.8648790007299709
  0
ARC
  5
77C7
  8
0
 10
357.2367536019996805
 20
28.7980723066951683
 30
0.0
 40
0.1111036368362345
 50
92.8707035262972909
 51
127.4328520661825053
  0
ARC
  5
77C8
  8
0
 10
357.2191390214575222
 20
28.8320057690887595
 30
0.0
 40
0.0737509250182313
 50
132.5973106421627108
 51
155.0495844553188078
  0
ARC
  5
77C9
  8
0
 10
357.2505028866170278
 20
28.8803506188741714
 30
0.0
 40
0.0647077057168651
 50
330.5463814472067838
 51
344.2716728367341261
  0
ARC
  5
77CA
  8
0
 10
357.2689951123434753
 20
28.8492212929534197
 30
0.0
 40
0.0458524711008086
 50
17.2387897331971907
 51
32.9551924234820177
  0
ARC
  5
77CB
  8
0
 10
357.1980769297977076
 20
28.8739306804217897
 30
0.0
 40
0.0470651530606101
 50
193.2836812718873034
 51
204.9172468540081127
  0
ARC
  5
77CC
  8
0
 10
357.2530510574172808
 20
28.8164241116619486
 30
0.0
 40
0.0531186440225259
 50
2.4219034543258182
 51
64.3108106289427042
  0
ARC
  5
77CD
  8
0
 10
357.233518871302806
 20
28.7773934151454291
 30
0.0
 40
0.0967608948503192
 50
63.9068378830476433
 51
95.0788529392091846
  0
ARC
  5
77CE
  8
0
 10
357.2327614678400778
 20
28.7859154772911587
 30
0.0
 40
0.0882052415601883
 50
95.0788529392091846
 51
133.1379188942941028
  0
ARC
  5
77CF
  8
0
 10
357.2071831155308246
 20
28.8132128672085805
 30
0.0
 40
0.0507966916930118
 50
133.1379188942943017
 51
174.9438285036841023
  0
ARC
  5
77D0
  8
0
 10
358.1199682621128204
 20
28.4377632804126286
 30
0.0
 40
0.0192084886304507
 50
65.5188757843733498
 51
122.2005481192124989
  0
ARC
  5
77D1
  8
0
 10
358.1163724011822751
 20
28.4434732895245794
 30
0.0
 40
0.0124605689591559
 50
122.2005481192122005
 51
181.5404450858547136
  0
ARC
  5
77D2
  8
0
 10
358.1154549159637099
 20
28.4452726086766603
 30
0.0
 40
0.0117343103701824
 50
190.4795581222471128
 51
250.9134017450163014
  0
ARC
  5
77D3
  8
0
 10
358.1186364153937802
 20
28.4522655995692908
 30
0.0
 40
0.0193965694016986
 50
248.7863564299113079
 51
295.2114285969965977
  0
ARC
  5
77D4
  8
0
 10
358.1215464928030769
 20
28.4471525450418916
 30
0.0
 40
0.0135386427676041
 50
293.2858616915278276
 51
343.3670490340796846
  0
ARC
  5
77D5
  8
0
 10
358.1230874575095982
 20
28.4447806460340402
 30
0.0
 40
0.0115296327631541
 50
352.507640480105124
 51
65.1751016366537641
  0
LINE
  5
77D6
  8
0
 10
358.1955750262931133
 20
28.5107929145428898
 30
0.0
 11
358.194227530951423
 21
28.4552974352583803
 31
0.0
  0
LINE
  5
77D7
  8
0
 10
358.0430333795931119
 20
28.5049311050428891
 30
0.0
 11
358.0450692585931165
 21
28.4427073966428914
 31
0.0
  0
ARC
  5
77D8
  8
0
 10
358.1382137823496237
 20
28.4571790152491815
 30
0.0
 40
0.0560453421408633
 50
324.1191437675361726
 51
358.0760782234875137
  0
ARC
  5
77D9
  8
0
 10
358.1241326279168788
 20
28.4673649027158717
 30
0.0
 40
0.0734243873862318
 50
287.9599778945408843
 51
324.1191437675360021
  0
ARC
  5
77DA
  8
0
 10
358.1154378146015915
 20
28.4941885258554493
 30
0.0
 40
0.1016220209203394
 50
257.5964165728926787
 51
287.9599778945408843
  0
ARC
  5
77DB
  8
0
 10
358.1079234495538799
 20
28.4600214227577304
 30
0.0
 40
0.0666383587884347
 50
223.0599433878120976
 51
257.5964165728926787
  0
ARC
  5
77DC
  8
0
 10
358.1001084215860146
 20
28.4527184903314989
 30
0.0
 40
0.0559422153637504
 50
190.3088501086284907
 51
223.0599433878122113
  0
ARC
  5
77DD
  8
0
 10
358.1354193054568782
 20
28.4755235512747511
 30
0.0
 40
0.0697326231735562
 50
30.3831414554653207
 51
64.7343464817798377
  0
ARC
  5
77DE
  8
0
 10
358.1233879838470102
 20
28.4199448389958818
 30
0.0
 40
0.1257869600255895
 50
70.5938331480590904
 51
91.8648790007299709
  0
ARC
  5
77DF
  8
0
 10
358.1248588798167134
 20
28.4347009637352315
 30
0.0
 40
0.1111036368362345
 50
92.8707035262972909
 51
127.4328520661825053
  0
ARC
  5
77E0
  8
0
 10
358.1072442992744982
 20
28.4686344261288191
 30
0.0
 40
0.0737509250182313
 50
132.5973106421627108
 51
155.0495844553188078
  0
ARC
  5
77E1
  8
0
 10
358.1386081644341175
 20
28.5169792759142311
 30
0.0
 40
0.0647077057168651
 50
330.5463814472067838
 51
344.2716728367341261
  0
ARC
  5
77E2
  8
0
 10
358.1571003901605081
 20
28.4858499499934794
 30
0.0
 40
0.0458524711008086
 50
17.2387897331971907
 51
32.9551924234820177
  0
ARC
  5
77E3
  8
0
 10
358.0861822076146836
 20
28.5105593374618493
 30
0.0
 40
0.0470651530606101
 50
193.2836812718873034
 51
204.9172468540081127
  0
ARC
  5
77E4
  8
0
 10
358.1411563352343137
 20
28.4530527687020083
 30
0.0
 40
0.0531186440225259
 50
2.4219034543258182
 51
64.3108106289427042
  0
ARC
  5
77E5
  8
0
 10
358.121624149119782
 20
28.4140220721854995
 30
0.0
 40
0.0967608948503192
 50
63.9068378830476433
 51
95.0788529392091846
  0
ARC
  5
77E6
  8
0
 10
358.1208667456571106
 20
28.4225441343312291
 30
0.0
 40
0.0882052415601883
 50
95.0788529392091846
 51
133.1379188942941028
  0
ARC
  5
77E7
  8
0
 10
358.0952883933476869
 20
28.4498415242486402
 30
0.0
 40
0.0507966916930118
 50
133.1379188942943017
 51
174.9438285036841023
  0
ARC
  5
77E8
  8
0
 10
358.5646334980191909
 20
27.8921158926220905
 30
0.0
 40
0.0192084886304507
 50
65.5188757843733498
 51
122.2005481192124989
  0
ARC
  5
77E9
  8
0
 10
358.5610376370885888
 20
27.89782590173402
 30
0.0
 40
0.0124605689591559
 50
122.2005481192122005
 51
181.5404450858547136
  0
ARC
  5
77EA
  8
0
 10
358.5601201518700805
 20
27.8996252208861009
 30
0.0
 40
0.0117343103701824
 50
190.4795581222471128
 51
250.9134017450163014
  0
ARC
  5
77EB
  8
0
 10
358.5633016513002076
 20
27.9066182117787385
 30
0.0
 40
0.0193965694016986
 50
248.7863564299113079
 51
295.2114285969965977
  0
ARC
  5
77EC
  8
0
 10
358.5662117287095043
 20
27.9015051572513393
 30
0.0
 40
0.0135386427676041
 50
293.2858616915278276
 51
343.3670490340797983
  0
ARC
  5
77ED
  8
0
 10
358.5677526934160255
 20
27.8991332582434808
 30
0.0
 40
0.0115296327631541
 50
352.507640480105124
 51
65.1751016366537641
  0
LINE
  5
77EE
  8
0
 10
358.6402402621994838
 20
27.965145526752341
 30
0.0
 11
358.6388927668577935
 21
27.9096500474678209
 31
0.0
  0
LINE
  5
77EF
  8
0
 10
358.4876986154994825
 20
27.9592837172523403
 30
0.0
 11
358.489734494499487
 21
27.8970600088523391
 31
0.0
  0
ARC
  5
77F0
  8
0
 10
358.5828790182559942
 20
27.9115316274586291
 30
0.0
 40
0.0560453421408633
 50
324.1191437675361726
 51
358.0760782234875137
  0
ARC
  5
77F1
  8
0
 10
358.5687978638233062
 20
27.9217175149253194
 30
0.0
 40
0.0734243873862318
 50
287.9599778945408843
 51
324.1191437675357747
  0
ARC
  5
77F2
  8
0
 10
358.5601030505080189
 20
27.9485411380649005
 30
0.0
 40
0.1016220209203394
 50
257.5964165728926787
 51
287.9599778945408843
  0
ARC
  5
77F3
  8
0
 10
358.5525886854604209
 20
27.914374034967171
 30
0.0
 40
0.0666383587884347
 50
223.0599433878120976
 51
257.5964165728926787
  0
ARC
  5
77F4
  8
0
 10
358.5447736574923852
 20
27.9070711025409501
 30
0.0
 40
0.0559422153637504
 50
190.3088501086284907
 51
223.0599433878122113
  0
ARC
  5
77F5
  8
0
 10
358.5800845413633056
 20
27.9298761634841917
 30
0.0
 40
0.0697326231735562
 50
30.3831414554653207
 51
64.7343464817798377
  0
ARC
  5
77F6
  8
0
 10
358.5680532197533807
 20
27.8742974512053294
 30
0.0
 40
0.1257869600255895
 50
70.5938331480590904
 51
91.8648790007299709
  0
ARC
  5
77F7
  8
0
 10
358.5695241157230839
 20
27.8890535759446792
 30
0.0
 40
0.1111036368362345
 50
92.8707035262972909
 51
127.4328520661825053
  0
ARC
  5
77F8
  8
0
 10
358.5519095351809256
 20
27.9229870383382703
 30
0.0
 40
0.0737509250182313
 50
132.5973106421627108
 51
155.0495844553188078
  0
ARC
  5
77F9
  8
0
 10
358.5832734003403743
 20
27.9713318881236788
 30
0.0
 40
0.0647077057168651
 50
330.5463814472067838
 51
344.2716728367341261
  0
ARC
  5
77FA
  8
0
 10
358.6017656260668787
 20
27.9402025622029306
 30
0.0
 40
0.0458524711008086
 50
17.2387897331971907
 51
32.9551924234820177
  0
ARC
  5
77FB
  8
0
 10
358.530847443521111
 20
27.9649119496713006
 30
0.0
 40
0.0470651530606101
 50
193.2836812718873034
 51
204.9172468540081127
  0
ARC
  5
77FC
  8
0
 10
358.5858215711406842
 20
27.9074053809114595
 30
0.0
 40
0.0531186440225259
 50
2.4219034543258182
 51
64.3108106289427042
  0
ARC
  5
77FD
  8
0
 10
358.5662893850260957
 20
27.86837468439494
 30
0.0
 40
0.0967608948503192
 50
63.9068378830476433
 51
95.0788529392091846
  0
ARC
  5
77FE
  8
0
 10
358.5655319815634812
 20
27.8768967465406803
 30
0.0
 40
0.0882052415601883
 50
95.0788529392091846
 51
133.1379188942941028
  0
ARC
  5
77FF
  8
0
 10
358.539953629254228
 20
27.9041941364580914
 30
0.0
 40
0.0507966916930118
 50
133.1379188942943017
 51
174.9438285036841023
  0
ARC
  5
7800
  8
0
 10
358.5656360266543743
 20
27.5234884267057396
 30
0.0
 40
0.0192084886304507
 50
68.8004313055894698
 51
125.4821036404260042
  0
ARC
  5
7801
  8
0
 10
358.5617192058713272
 20
27.5289832365153195
 30
0.0
 40
0.0124605689591559
 50
125.4821036404257057
 51
184.8220006070696968
  0
ARC
  5
7802
  8
0
 10
358.5607002272770956
 20
27.5307270860391817
 30
0.0
 40
0.0117343103701824
 50
193.7611136434622097
 51
254.1949572662315973
  0
ARC
  5
7803
  8
0
 10
358.5634762127224917
 20
27.5378907279241005
 30
0.0
 40
0.0193965694016986
 50
252.0679119511272006
 51
298.4929841182106998
  0
ARC
  5
7804
  8
0
 10
358.5666742032095726
 20
27.5329526378102187
 30
0.0
 40
0.0135386427676041
 50
296.567417212745795
 51
346.6486045552945825
  0
ARC
  5
7805
  8
0
 10
358.5683484149528226
 20
27.5306728369046496
 30
0.0
 40
0.0115296327631541
 50
355.7891960013201924
 51
68.4566571578688325
  0
LINE
  5
7806
  8
0
 10
358.6369384089783239
 20
27.6007262446833792
 30
0.0
 11
358.6387698309225129
 21
27.5452446273820115
 31
0.0
  0
LINE
  5
7807
  8
0
 10
358.4849824309259816
 20
27.5861421601137806
 30
0.0
 11
358.4905768210816177
 21
27.5241370192854795
 31
0.0
  0
ARC
  5
7808
  8
0
 10
358.582740221696497
 20
27.5439167472415889
 30
0.0
 40
0.0560453421408633
 50
327.4006992887515253
 51
1.357633744702631
  0
ARC
  5
7809
  8
0
 10
358.5680990890945736
 20
27.5532798903983682
 30
0.0
 40
0.0734243873862318
 50
291.241533415755498
 51
327.4006992887512979
  0
ARC
  5
780A
  8
0
 10
358.5578830776748873
 20
27.5795618166519212
 30
0.0
 40
0.1016220209203394
 50
260.8779720941087135
 51
291.241533415755498
  0
ARC
  5
780B
  8
0
 10
358.5523368491769816
 20
27.5450205953995209
 30
0.0
 40
0.0666383587884347
 50
226.341498909027905
 51
260.8779720941087135
  0
ARC
  5
780C
  8
0
 10
358.5449526746821789
 20
27.5372822847833092
 30
0.0
 40
0.0559422153637504
 50
193.5904056298431897
 51
226.3414989090279903
  0
ARC
  5
780D
  8
0
 10
358.5789002372313803
 20
27.562071240415591
 30
0.0
 40
0.0697326231735562
 50
33.66469697667997
 51
68.0159020029956025
  0
ARC
  5
780E
  8
0
 10
358.5700701156994796
 20
27.5058949561668911
 30
0.0
 40
0.1257869600255895
 50
73.8753886692744715
 51
95.1464345219448404
  0
ARC
  5
780F
  8
0
 10
358.5706939202854073
 20
27.5207110831950885
 30
0.0
 40
0.1111036368362345
 50
96.1522590475113361
 51
130.7144075873989948
  0
ARC
  5
7810
  8
0
 10
358.5511657814441833
 20
27.5535805996365291
 30
0.0
 40
0.0737509250182313
 50
135.8788661633776087
 51
158.3311399765341889
  0
ARC
  5
7811
  8
0
 10
358.5797108322641975
 20
27.6036415286351087
 30
0.0
 40
0.0647077057168651
 50
333.8279369684228755
 51
347.5532283579498198
  0
ARC
  5
7812
  8
0
 10
358.5999546610339053
 20
27.5736217894400291
 30
0.0
 40
0.0458524711008086
 50
20.5203452544122698
 51
36.236747944697008
  0
ARC
  5
7813
  8
0
 10
358.5277383327422172
 20
27.59423111676346
 30
0.0
 40
0.0470651530606101
 50
196.5652367931027129
 51
208.1988023752228116
  0
ARC
  5
7814
  8
0
 10
358.5859141469139786
 20
27.5399657060166412
 30
0.0
 40
0.0531186440225259
 50
5.7034589755410243
 51
67.5923661501570621
  0
ARC
  5
7815
  8
0
 10
358.568648207953288
 20
27.4998809343847306
 30
0.0
 40
0.0967608948503192
 50
67.1883934042613333
 51
98.360408460426811
  0
ARC
  5
7816
  8
0
 10
358.5674042210652033
 20
27.508345667094229
 30
0.0
 40
0.0882052415601883
 50
98.360408460426811
 51
136.419474415510507
  0
ARC
  5
7817
  8
0
 10
358.5403052350013127
 20
27.5341341249285101
 30
0.0
 40
0.0507966916930118
 50
136.4194744155105923
 51
178.2253840248993129
  0
ARC
  5
7818
  8
0
 10
358.5664607353627957
 20
27.1669272679385294
 30
0.0
 40
0.0192084886304507
 50
68.8004313055894698
 51
125.4821036404260042
  0
ARC
  5
7819
  8
0
 10
358.5625439145796918
 20
27.1724220777481094
 30
0.0
 40
0.0124605689591559
 50
125.4821036404257057
 51
184.8220006070696968
  0
ARC
  5
781A
  8
0
 10
358.561524935985517
 20
27.1741659272719716
 30
0.0
 40
0.0117343103701824
 50
193.7611136434622097
 51
254.1949572662315973
  0
ARC
  5
781B
  8
0
 10
358.5643009214309131
 20
27.1813295691568797
 30
0.0
 40
0.0193965694016986
 50
252.0679119511272006
 51
298.4929841182106998
  0
ARC
  5
781C
  8
0
 10
358.5674989119179941
 20
27.1763914790430015
 30
0.0
 40
0.0135386427676041
 50
296.567417212745795
 51
346.6486045552945825
  0
ARC
  5
781D
  8
0
 10
358.5691731236611872
 20
27.1741116781374394
 30
0.0
 40
0.0115296327631541
 50
355.7891960013201924
 51
68.4566571578688325
  0
LINE
  5
781E
  8
0
 10
358.6377631176866885
 20
27.2441650859161584
 30
0.0
 11
358.6395945396308775
 21
27.1886834686147907
 31
0.0
  0
LINE
  5
781F
  8
0
 10
358.485807139634403
 20
27.2295810013465704
 30
0.0
 11
358.491401529790096
 21
27.1675758605182693
 31
0.0
  0
ARC
  5
7820
  8
0
 10
358.5835649304049184
 20
27.1873555884743716
 30
0.0
 40
0.0560453421408633
 50
327.4006992887515253
 51
1.357633744702631
  0
ARC
  5
7821
  8
0
 10
358.5689237978029951
 20
27.1967187316311616
 30
0.0
 40
0.0734243873862318
 50
291.241533415755498
 51
327.4006992887512979
  0
ARC
  5
7822
  8
0
 10
358.5587077863834224
 20
27.223000657884711
 30
0.0
 40
0.1016220209203394
 50
260.8779720941087135
 51
291.241533415755498
  0
ARC
  5
7823
  8
0
 10
358.553161557885403
 20
27.1884594366323107
 30
0.0
 40
0.0666383587884347
 50
226.341498909027905
 51
260.8779720941087135
  0
ARC
  5
7824
  8
0
 10
358.545777383390714
 20
27.180721126016099
 30
0.0
 40
0.0559422153637504
 50
193.5904056298431897
 51
226.3414989090279903
  0
ARC
  5
7825
  8
0
 10
358.5797249459398017
 20
27.2055100816483808
 30
0.0
 40
0.0697326231735562
 50
33.66469697667997
 51
68.0159020029956025
  0
ARC
  5
7826
  8
0
 10
358.5708948244079011
 20
27.1493337973996809
 30
0.0
 40
0.1257869600255895
 50
73.8753886692744715
 51
95.1464345219448404
  0
ARC
  5
7827
  8
0
 10
358.5715186289937719
 20
27.1641499244278783
 30
0.0
 40
0.1111036368362345
 50
96.1522590475113361
 51
130.7144075873989948
  0
ARC
  5
7828
  8
0
 10
358.5519904901526047
 20
27.1970194408693189
 30
0.0
 40
0.0737509250182313
 50
135.8788661633776087
 51
158.3311399765341889
  0
ARC
  5
7829
  8
0
 10
358.5805355409726189
 20
27.2470803698678914
 30
0.0
 40
0.0647077057168651
 50
333.8279369684228755
 51
347.5532283579498198
  0
ARC
  5
782A
  8
0
 10
358.6007793697423267
 20
27.2170606306728189
 30
0.0
 40
0.0458524711008086
 50
20.5203452544122698
 51
36.236747944697008
  0
ARC
  5
782B
  8
0
 10
358.5285630414506954
 20
27.2376699579962498
 30
0.0
 40
0.0470651530606101
 50
196.5652367931027129
 51
208.1988023752228116
  0
ARC
  5
782C
  8
0
 10
358.5867388556224
 20
27.183404547249431
 30
0.0
 40
0.0531186440225259
 50
5.7034589755410243
 51
67.5923661501570621
  0
ARC
  5
782D
  8
0
 10
358.5694729166617094
 20
27.1433197756175204
 30
0.0
 40
0.0967608948503192
 50
67.1883934042613333
 51
98.360408460426811
  0
ARC
  5
782E
  8
0
 10
358.5682289297736247
 20
27.1517845083270117
 30
0.0
 40
0.0882052415601883
 50
98.360408460426811
 51
136.419474415510507
  0
ARC
  5
782F
  8
0
 10
358.5411299437096773
 20
27.1775729661612999
 30
0.0
 40
0.0507966916930118
 50
136.4194744155105923
 51
178.2253840248993129
  0
ARC
  5
7830
  8
0
 10
358.1216127595840817
 20
26.6247202659457507
 30
0.0
 40
0.0192084886304507
 50
68.8004313055894698
 51
125.4821036404260042
  0
ARC
  5
7831
  8
0
 10
358.1176959388009777
 20
26.6302150757553306
 30
0.0
 40
0.0124605689591559
 50
125.4821036404257057
 51
184.8220006070696968
  0
ARC
  5
7832
  8
0
 10
358.116676960206803
 20
26.6319589252791893
 30
0.0
 40
0.0117343103701824
 50
193.7611136434622097
 51
254.1949572662315973
  0
ARC
  5
7833
  8
0
 10
358.12265093613928
 20
26.6341844770502298
 30
0.0
 40
0.0135386427676041
 50
296.567417212745795
 51
346.6486045552945825
  0
ARC
  5
7834
  8
0
 10
358.1243251478824732
 20
26.6319046761446607
 30
0.0
 40
0.0115296327631541
 50
355.7891960013201924
 51
68.4566571578688325
  0
LINE
  5
7835
  8
0
 10
358.1929151419079744
 20
26.7019580839233797
 30
0.0
 11
358.1947465638522203
 21
26.6464764666220084
 31
0.0
  0
LINE
  5
7836
  8
0
 10
358.040959163855689
 20
26.6873739993537917
 30
0.0
 11
358.0465535540113251
 21
26.6253688585254906
 31
0.0
  0
ARC
  5
7837
  8
0
 10
358.1387169546262044
 20
26.6451485864815893
 30
0.0
 40
0.0560453421408633
 50
327.4006992887515253
 51
1.357633744702631
  0
ARC
  5
7838
  8
0
 10
358.124075822024281
 20
26.6545117296383793
 30
0.0
 40
0.0734243873862318
 50
291.241533415755498
 51
327.4006992887512979
  0
ARC
  5
7839
  8
0
 10
358.1138598106047084
 20
26.6807936558919288
 30
0.0
 40
0.1016220209203394
 50
260.8779720941087135
 51
291.241533415755498
  0
ARC
  5
783A
  8
0
 10
358.108313582106689
 20
26.6462524346395284
 30
0.0
 40
0.0666383587884347
 50
226.341498909027905
 51
260.8779720941087135
  0
ARC
  5
783B
  8
0
 10
358.1009294076118863
 20
26.6385141240233203
 30
0.0
 40
0.0559422153637504
 50
193.5904056298431897
 51
226.3414989090279903
  0
ARC
  5
783C
  8
0
 10
358.1348769701610877
 20
26.6633030796555985
 30
0.0
 40
0.0697326231735562
 50
33.66469697667997
 51
68.0159020029956025
  0
ARC
  5
783D
  8
0
 10
358.126046848629187
 20
26.6071267954068986
 30
0.0
 40
0.1257869600255895
 50
73.8753886692744715
 51
95.1464345219448404
  0
ARC
  5
783E
  8
0
 10
358.1266706532151147
 20
26.6219429224350996
 30
0.0
 40
0.1111036368362345
 50
96.1522590475113361
 51
130.7144075873989948
  0
ARC
  5
783F
  8
0
 10
358.1071425143738907
 20
26.6548124388765402
 30
0.0
 40
0.0737509250182313
 50
135.8788661633776087
 51
158.3311399765341889
  0
ARC
  5
7840
  8
0
 10
358.1356875651939049
 20
26.7048733678751091
 30
0.0
 40
0.0647077057168651
 50
333.8279369684228755
 51
347.5532283579498198
  0
ARC
  5
7841
  8
0
 10
358.1559313939636127
 20
26.6748536286800402
 30
0.0
 40
0.0458524711008086
 50
20.5203452544122698
 51
36.236747944697008
  0
ARC
  5
7842
  8
0
 10
358.0837150656719245
 20
26.6954629560034711
 30
0.0
 40
0.0470651530606101
 50
196.5652367931027129
 51
208.1988023752228116
  0
ARC
  5
7843
  8
0
 10
358.141890879843686
 20
26.6411975452566487
 30
0.0
 40
0.0531186440225259
 50
5.7034589755410243
 51
67.5923661501570621
  0
ARC
  5
7844
  8
0
 10
358.1246249408829954
 20
26.601112773624731
 30
0.0
 40
0.0967608948503192
 50
67.1883934042613333
 51
98.360408460426811
  0
ARC
  5
7845
  8
0
 10
358.1233809539949107
 20
26.6095775063342401
 30
0.0
 40
0.0882052415601883
 50
98.360408460426811
 51
136.419474415510507
  0
ARC
  5
7846
  8
0
 10
358.0962819679310201
 20
26.6353659641685212
 30
0.0
 40
0.0507966916930118
 50
136.4194744155105923
 51
178.2253840248995118
  0
ARC
  5
7847
  8
0
 10
357.6761415210560813
 20
26.4361979465767298
 30
0.0
 40
0.0192084886304507
 50
68.8004313055894698
 51
125.4821036404260042
  0
ARC
  5
7848
  8
0
 10
357.6722247002729773
 20
26.4416927563863098
 30
0.0
 40
0.0124605689591559
 50
125.4821036404257057
 51
184.8220006070696968
  0
ARC
  5
7849
  8
0
 10
357.6712057216789162
 20
26.4434366059101684
 30
0.0
 40
0.0117343103701824
 50
193.7611136434622097
 51
254.1949572662315973
  0
ARC
  5
784A
  8
0
 10
357.6739817071241987
 20
26.4506002477950908
 30
0.0
 40
0.0193965694016986
 50
252.0679119511272006
 51
298.4929841182106998
  0
ARC
  5
784B
  8
0
 10
357.6771796976112796
 20
26.445662157681209
 30
0.0
 40
0.0135386427676041
 50
296.567417212745795
 51
346.6486045552945825
  0
ARC
  5
784C
  8
0
 10
357.6788539093545864
 20
26.4433823567756399
 30
0.0
 40
0.0115296327631541
 50
355.7891960013201924
 51
68.4566571578688325
  0
LINE
  5
784D
  8
0
 10
357.747443903379974
 20
26.5134357645543588
 30
0.0
 11
357.7492753253242768
 21
26.4579541472529911
 31
0.0
  0
LINE
  5
784E
  8
0
 10
357.5954879253278023
 20
26.4988516799847709
 30
0.0
 11
357.6010823154833815
 21
26.4368465391564698
 31
0.0
  0
ARC
  5
784F
  8
0
 10
357.6932457160983176
 20
26.4566262671125791
 30
0.0
 40
0.0560453421408633
 50
327.4006992887515253
 51
1.357633744702631
  0
ARC
  5
7850
  8
0
 10
357.6786045834963943
 20
26.4659894102693585
 30
0.0
 40
0.0734243873862318
 50
291.241533415755498
 51
327.4006992887512979
  0
ARC
  5
7851
  8
0
 10
357.668388572076708
 20
26.4922713365229114
 30
0.0
 40
0.1016220209203394
 50
260.8779720941087135
 51
291.241533415755498
  0
ARC
  5
7852
  8
0
 10
357.6628423435788022
 20
26.4577301152705111
 30
0.0
 40
0.0666383587884347
 50
226.341498909027905
 51
260.8779720941087135
  0
ARC
  5
7853
  8
0
 10
357.6554581690839996
 20
26.4499918046542994
 30
0.0
 40
0.0559422153637504
 50
193.5904056298431897
 51
226.3414989090279903
  0
ARC
  5
7854
  8
0
 10
357.6894057316330873
 20
26.4747807602865812
 30
0.0
 40
0.0697326231735562
 50
33.66469697667997
 51
68.0159020029956025
  0
ARC
  5
7855
  8
0
 10
357.6805756101013003
 20
26.4186044760378813
 30
0.0
 40
0.1257869600255895
 50
73.8753886692744715
 51
95.1464345219448404
  0
ARC
  5
7856
  8
0
 10
357.6811994146871143
 20
26.4334206030660788
 30
0.0
 40
0.1111036368362345
 50
96.1522590475113361
 51
130.7144075873989948
  0
ARC
  5
7857
  8
0
 10
357.6616712758458902
 20
26.4662901195075193
 30
0.0
 40
0.0737509250182313
 50
135.8788661633776087
 51
158.3311399765341889
  0
ARC
  5
7858
  8
0
 10
357.6902163266660182
 20
26.5163510485060989
 30
0.0
 40
0.0647077057168651
 50
333.8279369684228755
 51
347.5532283579498198
  0
ARC
  5
7859
  8
0
 10
357.7104601554357259
 20
26.48633130931103
 30
0.0
 40
0.0458524711008086
 50
20.5203452544122698
 51
36.236747944697008
  0
ARC
  5
785A
  8
0
 10
357.638243827143981
 20
26.5069406366344502
 30
0.0
 40
0.0470651530606101
 50
196.5652367931027129
 51
208.1988023752228116
  0
ARC
  5
785B
  8
0
 10
357.6964196413156856
 20
26.4526752258876385
 30
0.0
 40
0.0531186440225259
 50
5.7034589755410243
 51
67.5923661501570621
  0
ARC
  5
785C
  8
0
 10
357.6791537023551086
 20
26.4125904542557208
 30
0.0
 40
0.0967608948503192
 50
67.1883934042613333
 51
98.360408460426811
  0
ARC
  5
785D
  8
0
 10
357.6779097154670239
 20
26.4210551869652193
 30
0.0
 40
0.0882052415601883
 50
98.360408460426811
 51
136.419474415510507
  0
ARC
  5
785E
  8
0
 10
357.6508107294030196
 20
26.4468436447995003
 30
0.0
 40
0.0507966916930118
 50
136.4194744155105923
 51
178.2253840248995118
  0
ARC
  5
785F
  8
0
 10
357.2335452193665901
 20
26.2620379265721304
 30
0.0
 40
0.0192084886304507
 50
68.8004313055894698
 51
125.4821036404260042
  0
ARC
  5
7860
  8
0
 10
357.2296283985834862
 20
26.2675327363817104
 30
0.0
 40
0.0124605689591559
 50
125.4821036404257057
 51
184.8220006070696968
  0
ARC
  5
7861
  8
0
 10
357.2286094199894251
 20
26.269276585905569
 30
0.0
 40
0.0117343103701824
 50
193.7611136434622097
 51
254.1949572662315973
  0
ARC
  5
7862
  8
0
 10
357.2313854054347075
 20
26.2764402277904807
 30
0.0
 40
0.0193965694016986
 50
252.0679119511272006
 51
298.4929841182106998
  0
ARC
  5
7863
  8
0
 10
357.2345833959217885
 20
26.2715021376766096
 30
0.0
 40
0.0135386427676041
 50
296.567417212745795
 51
346.6486045552945825
  0
ARC
  5
7864
  8
0
 10
357.2362576076650953
 20
26.2692223367710405
 30
0.0
 40
0.0115296327631541
 50
355.7891960013201924
 51
68.4566571578688325
  0
LINE
  5
7865
  8
0
 10
357.3048476016904829
 20
26.3392757445497594
 30
0.0
 11
357.3066790236347856
 21
26.2837941272483917
 31
0.0
  0
LINE
  5
7866
  8
0
 10
357.1528916236383111
 20
26.3246916599801715
 30
0.0
 11
357.1584860137938904
 21
26.2626865191518704
 31
0.0
  0
ARC
  5
7867
  8
0
 10
357.2506494144088265
 20
26.2824662471079797
 30
0.0
 40
0.0560453421408633
 50
327.4006992887515253
 51
1.357633744702631
  0
ARC
  5
7868
  8
0
 10
357.2360082818069031
 20
26.2918293902647591
 30
0.0
 40
0.0734243873862318
 50
291.241533415755498
 51
327.4006992887512979
  0
ARC
  5
7869
  8
0
 10
357.2257922703872168
 20
26.3181113165183085
 30
0.0
 40
0.1016220209203394
 50
260.8779720941087135
 51
291.241533415755498
  0
ARC
  5
786A
  8
0
 10
357.2202460418893111
 20
26.283570095265901
 30
0.0
 40
0.0666383587884347
 50
226.341498909027905
 51
260.8779720941087135
  0
ARC
  5
786B
  8
0
 10
357.2128618673945084
 20
26.2758317846497
 30
0.0
 40
0.0559422153637504
 50
193.5904056298431897
 51
226.3414989090279903
  0
ARC
  5
786C
  8
0
 10
357.2468094299435961
 20
26.3006207402819712
 30
0.0
 40
0.0697326231735562
 50
33.66469697667997
 51
68.0159020029956025
  0
ARC
  5
786D
  8
0
 10
357.2379793084118091
 20
26.2444444560332784
 30
0.0
 40
0.1257869600255895
 50
73.8753886692744715
 51
95.1464345219448404
  0
ARC
  5
786E
  8
0
 10
357.2386031129976232
 20
26.2592605830614794
 30
0.0
 40
0.1111036368362345
 50
96.1522590475113361
 51
130.7144075873989948
  0
ARC
  5
786F
  8
0
 10
357.2190749741565128
 20
26.2921300995029199
 30
0.0
 40
0.0737509250182313
 50
135.8788661633776087
 51
158.3311399765341889
  0
ARC
  5
7870
  8
0
 10
357.247620024976527
 20
26.3421910285014995
 30
0.0
 40
0.0647077057168651
 50
333.8279369684228755
 51
347.5532283579498198
  0
ARC
  5
7871
  8
0
 10
357.2678638537461779
 20
26.3121712893064199
 30
0.0
 40
0.0458524711008086
 50
20.5203452544122698
 51
36.236747944697008
  0
ARC
  5
7872
  8
0
 10
357.1956475254544898
 20
26.3327806166298508
 30
0.0
 40
0.0470651530606101
 50
196.5652367931027129
 51
208.1988023752228116
  0
ARC
  5
7873
  8
0
 10
357.2538233396261944
 20
26.2785152058830285
 30
0.0
 40
0.0531186440225259
 50
5.7034589755410243
 51
67.5923661501570621
  0
ARC
  5
7874
  8
0
 10
357.2365574006655038
 20
26.2384304342511108
 30
0.0
 40
0.0967608948503192
 50
67.1883934042613333
 51
98.360408460426811
  0
ARC
  5
7875
  8
0
 10
357.2353134137774759
 20
26.2468951669606092
 30
0.0
 40
0.0882052415601883
 50
98.360408460426811
 51
136.419474415510507
  0
ARC
  5
7876
  8
0
 10
357.2082144277134717
 20
26.2726836247948903
 30
0.0
 40
0.0507966916930118
 50
136.4194744155105923
 51
178.2253840248995118
  0
ARC
  5
7877
  8
0
 10
357.6759963465892724
 20
27.4510619931706685
 30
0.0
 40
0.0222091795754215
 50
59.2340377601367933
 51
114.6790651068155995
  0
ARC
  5
7878
  8
0
 10
357.6733861392157792
 20
27.4567424572983505
 30
0.0
 40
0.0159577113288006
 50
114.6790651068155
 51
148.8400812232337955
  0
ARC
  5
7879
  8
0
 10
357.6670113223863154
 20
27.4605970910388812
 30
0.0
 40
0.0085081146361368
 50
148.8400812232337955
 51
210.9876908309209966
  0
ARC
  5
787A
  8
0
 10
357.6721632968443032
 20
27.4636912033665794
 30
0.0
 40
0.014517804471183
 50
210.9876908309215935
 51
256.8683841754665877
  0
ARC
  5
787B
  8
0
 10
357.6749998118648932
 20
27.4758500040864391
 30
0.0
 40
0.0270030859020216
 50
256.8683841754665877
 51
284.1956542127323928
  0
ARC
  5
787C
  8
0
 10
357.6776282788928256
 20
27.4654590894954715
 30
0.0
 40
0.0162848796643382
 50
284.1956542127323928
 51
323.0125544280704162
  0
ARC
  5
787D
  8
0
 10
357.6830208527545096
 20
27.4613973458795506
 30
0.0
 40
0.0095337601975813
 50
323.0125544280699046
 51
19.749504040053921
  0
ARC
  5
787E
  8
0
 10
357.6821837239689899
 20
27.4610967941145603
 30
0.0
 40
0.0104232071981816
 50
19.7495040400537292
 51
60.2425783519977713
  0
ARC
  5
787F
  8
0
 10
357.69285235090382
 20
27.4711602398842096
 30
0.0
 40
0.0379957230810885
 50
319.9224024047902049
 51
0.7482356772848647
  0
ARC
  5
7880
  8
0
 10
357.6799229375179152
 20
27.4820391796971002
 30
0.0
 40
0.0548930915731677
 50
282.9058269041951235
 51
319.9224024047902049
  0
ARC
  5
7881
  8
0
 10
357.6739418982426741
 20
27.5081415697683802
 30
0.0
 40
0.0816719563408186
 50
258.039569191619421
 51
282.9058269041951235
  0
ARC
  5
7882
  8
0
 10
357.6674577903293084
 20
27.4775323105763682
 30
0.0
 40
0.050383453600733
 50
218.9666062337086885
 51
258.039569191619421
  0
ARC
  5
7883
  8
0
 10
357.6561820934306866
 20
27.4684123074375997
 30
0.0
 40
0.0358811848885916
 50
184.5133341553980983
 51
218.9666062337088874
  0
LINE
  5
7884
  8
0
 10
357.7308448340961036
 20
27.4716564186213397
 30
0.0
 11
357.7319839846197169
 21
27.5182029485218393
 31
0.0
  0
ARC
  5
7885
  8
0
 10
357.689867862795893
 20
27.4887980898635718
 30
0.0
 40
0.0513654887077759
 50
34.922180424572943
 51
71.2512564203785104
  0
ARC
  5
7886
  8
0
 10
357.6764578751357817
 20
27.4719714592150694
 30
0.0
 40
0.0693132964878928
 50
90.714259306790396
 51
111.941119004990199
  0
ARC
  5
7887
  8
0
 10
357.6795645154830936
 20
27.4478318865992996
 30
0.0
 40
0.0935318048544208
 50
73.3410372386359057
 51
92.4330991707409595
  0
ARC
  5
7888
  8
0
 10
357.6695129332179022
 20
27.4794133718758502
 30
0.0
 40
0.0599273555296639
 50
108.438500624323396
 51
147.0535654317909007
  0
ARC
  5
7889
  8
0
 10
357.6965919044068869
 20
27.4685324583455603
 30
0.0
 40
0.034395091511659
 50
5.211114141480464
 51
51.4938441420637929
  0
ARC
  5
788A
  8
0
 10
357.6800650106131911
 20
27.4474880350763009
 30
0.0
 40
0.0611530782976225
 50
51.6524228977295792
 51
81.964530586409964
  0
ARC
  5
788B
  8
0
 10
357.677593638530027
 20
27.4299819501891307
 30
0.0
 40
0.0788327470742313
 50
81.964530586409964
 51
112.5103798550288019
  0
ARC
  5
788C
  8
0
 10
357.6665370558670247
 20
27.4566612303759214
 30
0.0
 40
0.0499531346899018
 50
112.5103798550289014
 51
140.817393636393291
  0
ARC
  5
788D
  8
0
 10
357.653491936448404
 20
27.4672939774023988
 30
0.0
 40
0.0331236828279122
 50
140.8173936363936036
 51
182.9508785049171138
  0
LINE
  5
788E
  8
0
 10
357.6204121743974724
 20
27.4655887774898595
 30
0.0
 11
357.6192231321197141
 21
27.5120051476218386
 31
0.0
  0
ARC
  5
788F
  8
0
 10
357.6504217625425213
 20
27.5225343996771095
 30
0.0
 40
0.0392405262080591
 50
205.7944577303441065
 51
218.1795154811354109
  0
ARC
  5
7890
  8
0
 10
357.6475191985845186
 20
27.4895668956400705
 30
0.0
 40
0.0361129136096276
 50
141.5862406079785956
 51
153.8916272967306895
  0
ARC
  5
7891
  8
0
 10
357.7114405777368802
 20
27.4994262702271008
 30
0.0
 40
0.0278315506958538
 50
28.9786020441472587
 51
42.4273185719208072
  0
ARC
  5
7892
  8
0
 10
357.6936838265812071
 20
27.5328735831825711
 30
0.0
 40
0.0465968702717355
 50
324.5703565474627226
 51
334.6321652692989801
  0
ARC
  5
7893
  8
0
 10
357.6753643871505233
 20
27.0959643518191093
 30
0.0
 40
0.0222091795754215
 50
59.2340377601367933
 51
114.6790651068155995
  0
ARC
  5
7894
  8
0
 10
357.6727541797769732
 20
27.1016448159467913
 30
0.0
 40
0.0159577113288006
 50
114.6790651068155
 51
148.8400812232337955
  0
ARC
  5
7895
  8
0
 10
357.6663793629475094
 20
27.1054994496873185
 30
0.0
 40
0.0085081146361368
 50
148.8400812232337955
 51
210.9876908309209966
  0
ARC
  5
7896
  8
0
 10
357.6715313374057246
 20
27.1085935620150309
 30
0.0
 40
0.014517804471183
 50
210.9876908309215935
 51
256.8683841754665877
  0
ARC
  5
7897
  8
0
 10
357.6743678524263146
 20
27.1207523627348799
 30
0.0
 40
0.0270030859020216
 50
256.8683841754665877
 51
284.1956542127323928
  0
ARC
  5
7898
  8
0
 10
357.6769963194540765
 20
27.1103614481439088
 30
0.0
 40
0.0162848796643382
 50
284.1956542127323928
 51
323.0125544280704162
  0
ARC
  5
7899
  8
0
 10
357.6823888933157036
 20
27.1062997045279914
 30
0.0
 40
0.0095337601975813
 50
323.0125544280699046
 51
19.749504040053921
  0
ARC
  5
789A
  8
0
 10
357.6815517645301838
 20
27.1059991527629904
 30
0.0
 40
0.0104232071981816
 50
19.7495040400537292
 51
60.2425783519977713
  0
ARC
  5
789B
  8
0
 10
357.6922203914651277
 20
27.1160625985326504
 30
0.0
 40
0.0379957230810885
 50
319.9224024047902049
 51
0.7482356772848647
  0
ARC
  5
789C
  8
0
 10
357.6792909780791092
 20
27.126941538345541
 30
0.0
 40
0.0548930915731677
 50
282.9058269041951235
 51
319.9224024047902049
  0
ARC
  5
789D
  8
0
 10
357.6733099388039818
 20
27.153043928416821
 30
0.0
 40
0.0816719563408186
 50
258.039569191619421
 51
282.9058269041951235
  0
ARC
  5
789E
  8
0
 10
357.6668258308906161
 20
27.1224346692248091
 30
0.0
 40
0.050383453600733
 50
218.9666062337086885
 51
258.039569191619421
  0
ARC
  5
789F
  8
0
 10
357.6555501339921079
 20
27.1133146660860405
 30
0.0
 40
0.0358811848885916
 50
184.5133341553980983
 51
218.9666062337088874
  0
LINE
  5
78A0
  8
0
 10
357.7302128746574112
 20
27.1165587772697805
 30
0.0
 11
357.7313520251809109
 21
27.1631053071702802
 31
0.0
  0
ARC
  5
78A1
  8
0
 10
357.6892359033572006
 20
27.133700448512009
 30
0.0
 40
0.0513654887077759
 50
34.922180424572943
 51
71.2512564203785104
  0
ARC
  5
78A2
  8
0
 10
357.6758259156969757
 20
27.1168738178635103
 30
0.0
 40
0.0693132964878928
 50
90.714259306790396
 51
111.941119004990199
  0
ARC
  5
78A3
  8
0
 10
357.6789325560444013
 20
27.0927342452477404
 30
0.0
 40
0.0935318048544208
 50
73.3410372386359057
 51
92.4330991707409595
  0
ARC
  5
78A4
  8
0
 10
357.6688809737792099
 20
27.124315730524291
 30
0.0
 40
0.0599273555296639
 50
108.438500624323396
 51
147.0535654317909007
  0
ARC
  5
78A5
  8
0
 10
357.6959599449681946
 20
27.1134348169940083
 30
0.0
 40
0.034395091511659
 50
5.211114141480464
 51
51.4938441420637929
  0
ARC
  5
78A6
  8
0
 10
357.6794330511746125
 20
27.0923903937247417
 30
0.0
 40
0.0611530782976225
 50
51.6524228977295792
 51
81.964530586409964
  0
ARC
  5
78A7
  8
0
 10
357.6769616790912778
 20
27.0748843088375786
 30
0.0
 40
0.0788327470742313
 50
81.964530586409964
 51
112.5103798550288019
  0
ARC
  5
78A8
  8
0
 10
357.6659050964282756
 20
27.1015635890243587
 30
0.0
 40
0.0499531346899018
 50
112.5103798550289014
 51
140.817393636393291
  0
ARC
  5
78A9
  8
0
 10
357.652859977009598
 20
27.1121963360508396
 30
0.0
 40
0.0331236828279122
 50
140.8173936363936036
 51
182.9508785049171138
  0
LINE
  5
78AA
  8
0
 10
357.6197802149587801
 20
27.1104911361383003
 30
0.0
 11
357.6185911726809081
 21
27.1569075062702794
 31
0.0
  0
ARC
  5
78AB
  8
0
 10
357.6497898031037721
 20
27.1674367583255503
 30
0.0
 40
0.0392405262080591
 50
205.7944577303441065
 51
218.1795154811354109
  0
ARC
  5
78AC
  8
0
 10
357.6468872391457126
 20
27.1344692542885184
 30
0.0
 40
0.0361129136096276
 50
141.5862406079785956
 51
153.8916272967306895
  0
ARC
  5
78AD
  8
0
 10
357.7108086182981879
 20
27.1443286288755417
 30
0.0
 40
0.0278315506958538
 50
28.9786020441472587
 51
42.4273185719208072
  0
ARC
  5
78AE
  8
0
 10
357.6930518671425148
 20
27.1777759418310083
 30
0.0
 40
0.0465968702717355
 50
324.5703565474627226
 51
334.6321652692989801
  0
ARC
  5
78AF
  8
0
 10
357.6751725130193904
 20
26.7569539269809589
 30
0.0
 40
0.0222091795754215
 50
59.2340377601367933
 51
114.6790651068155995
  0
ARC
  5
78B0
  8
0
 10
357.6725623056458971
 20
26.7626343911086515
 30
0.0
 40
0.0159577113288006
 50
114.6790651068155
 51
148.8400812232337955
  0
ARC
  5
78B1
  8
0
 10
357.6661874888163766
 20
26.7664890248491787
 30
0.0
 40
0.0085081146361368
 50
148.8400812232337955
 51
210.9876908309209966
  0
ARC
  5
78B2
  8
0
 10
357.671339463274478
 20
26.7695831371768804
 30
0.0
 40
0.014517804471183
 50
210.9876908309215935
 51
256.8683841754665877
  0
ARC
  5
78B3
  8
0
 10
357.6741759782951249
 20
26.7817419378967401
 30
0.0
 40
0.0270030859020216
 50
256.8683841754665877
 51
284.1956542127323928
  0
ARC
  5
78B4
  8
0
 10
357.6768044453230004
 20
26.7713510233057583
 30
0.0
 40
0.0162848796643382
 50
284.1956542127323928
 51
323.0125544280704162
  0
ARC
  5
78B5
  8
0
 10
357.6821970191846276
 20
26.767289279689841
 30
0.0
 40
0.0095337601975813
 50
323.0125544280699046
 51
19.749504040053921
  0
ARC
  5
78B6
  8
0
 10
357.6813598903992215
 20
26.7669887279248506
 30
0.0
 40
0.0104232071981816
 50
19.7495040400537292
 51
60.2425783519977713
  0
ARC
  5
78B7
  8
0
 10
357.6920285173338812
 20
26.7770521736945
 30
0.0
 40
0.0379957230810885
 50
319.9224024047902049
 51
0.7482356772848647
  0
ARC
  5
78B8
  8
0
 10
357.6790991039479763
 20
26.7879311135073905
 30
0.0
 40
0.0548930915731677
 50
282.9058269041951235
 51
319.9224024047902049
  0
ARC
  5
78B9
  8
0
 10
357.6731180646727921
 20
26.8140335035786812
 30
0.0
 40
0.0816719563408186
 50
258.039569191619421
 51
282.9058269041951235
  0
ARC
  5
78BA
  8
0
 10
357.6666339567594264
 20
26.7834242443866692
 30
0.0
 40
0.050383453600733
 50
218.9666062337086885
 51
258.039569191619421
  0
ARC
  5
78BB
  8
0
 10
357.6553582598609182
 20
26.7743042412479006
 30
0.0
 40
0.0358811848885916
 50
184.5133341553980983
 51
218.9666062337088874
  0
LINE
  5
78BC
  8
0
 10
357.7300210005262215
 20
26.7775483524316407
 30
0.0
 11
357.7311601510497781
 21
26.8240948823321403
 31
0.0
  0
ARC
  5
78BD
  8
0
 10
357.6890440292260109
 20
26.7946900236738692
 30
0.0
 40
0.0513654887077759
 50
34.922180424572943
 51
71.2512564203785104
  0
ARC
  5
78BE
  8
0
 10
357.6756340415660134
 20
26.7778633930253598
 30
0.0
 40
0.0693132964878928
 50
90.714259306790396
 51
111.941119004990199
  0
ARC
  5
78BF
  8
0
 10
357.6787406819132116
 20
26.7537238204096006
 30
0.0
 40
0.0935318048544208
 50
73.3410372386359057
 51
92.4330991707409595
  0
ARC
  5
78C0
  8
0
 10
357.668689099648077
 20
26.7853053056861512
 30
0.0
 40
0.0599273555296639
 50
108.438500624323396
 51
147.0535654317909007
  0
ARC
  5
78C1
  8
0
 10
357.6957680708371186
 20
26.7744243921558613
 30
0.0
 40
0.034395091511659
 50
5.211114141480464
 51
51.4938441420637929
  0
ARC
  5
78C2
  8
0
 10
357.6792411770434228
 20
26.7533799688865983
 30
0.0
 40
0.0611530782976225
 50
51.6524228977295792
 51
81.964530586409964
  0
ARC
  5
78C3
  8
0
 10
357.6767698049600881
 20
26.7358738839994317
 30
0.0
 40
0.0788327470742313
 50
81.964530586409964
 51
112.5103798550288019
  0
ARC
  5
78C4
  8
0
 10
357.6657132222971995
 20
26.7625531641862189
 30
0.0
 40
0.0499531346899018
 50
112.5103798550289014
 51
140.817393636393291
  0
ARC
  5
78C5
  8
0
 10
357.6526681028785219
 20
26.7731859112126998
 30
0.0
 40
0.0331236828279122
 50
140.8173936363936036
 51
182.9508785049171138
  0
LINE
  5
78C6
  8
0
 10
357.6195883408275904
 20
26.7714807113001498
 30
0.0
 11
357.6183992985497753
 21
26.8178970814321396
 31
0.0
  0
ARC
  5
78C7
  8
0
 10
357.6495979289726961
 20
26.8284263334874105
 30
0.0
 40
0.0392405262080591
 50
205.7944577303441065
 51
218.1795154811354109
  0
ARC
  5
78C8
  8
0
 10
357.6466953650145797
 20
26.7954588294503715
 30
0.0
 40
0.0361129136096276
 50
141.5862406079785956
 51
153.8916272967306895
  0
ARC
  5
78C9
  8
0
 10
357.7106167441669982
 20
26.8053182040373983
 30
0.0
 40
0.0278315506958538
 50
28.9786020441472587
 51
42.4273185719208072
  0
ARC
  5
78CA
  8
0
 10
357.6928599930113251
 20
26.8387655169928685
 30
0.0
 40
0.0465968702717355
 50
324.5703565474627226
 51
334.6321652692989801
  0
ARC
  5
78CB
  8
0
 10
357.2302282173019989
 20
26.5734512088950297
 30
0.0
 40
0.0222091795754215
 50
59.2340377601367933
 51
114.6790651068155995
  0
ARC
  5
78CC
  8
0
 10
357.2276180099285057
 20
26.5791316730227116
 30
0.0
 40
0.0159577113288006
 50
114.6790651068155
 51
148.8400812232337955
  0
ARC
  5
78CD
  8
0
 10
357.2212431930989851
 20
26.5829863067632388
 30
0.0
 40
0.0085081146361368
 50
148.8400812232337955
 51
210.9876908309209966
  0
ARC
  5
78CE
  8
0
 10
357.2263951675570866
 20
26.5860804190909406
 30
0.0
 40
0.014517804471183
 50
210.9876908309215935
 51
256.8683841754665877
  0
ARC
  5
78CF
  8
0
 10
357.2292316825776766
 20
26.5982392198108002
 30
0.0
 40
0.0270030859020216
 50
256.8683841754665877
 51
284.1956542127323928
  0
ARC
  5
78D0
  8
0
 10
357.231860149605609
 20
26.5878483052198291
 30
0.0
 40
0.0162848796643382
 50
284.1956542127323928
 51
323.0125544280704162
  0
ARC
  5
78D1
  8
0
 10
357.2372527234671793
 20
26.5837865616039117
 30
0.0
 40
0.0095337601975813
 50
323.0125544280699046
 51
19.749504040053921
  0
ARC
  5
78D2
  8
0
 10
357.2364155946817164
 20
26.5834860098389214
 30
0.0
 40
0.0104232071981816
 50
19.7495040400537292
 51
60.2425783519977713
  0
ARC
  5
78D3
  8
0
 10
357.2470842216164897
 20
26.5935494556085708
 30
0.0
 40
0.0379957230810885
 50
319.9224024047902049
 51
0.7482356772848647
  0
ARC
  5
78D4
  8
0
 10
357.2341548082305849
 20
26.6044283954214613
 30
0.0
 40
0.0548930915731677
 50
282.9058269041951235
 51
319.9224024047902049
  0
ARC
  5
78D5
  8
0
 10
357.2281737689555143
 20
26.6305307854927413
 30
0.0
 40
0.0816719563408186
 50
258.039569191619421
 51
282.9058269041951235
  0
ARC
  5
78D6
  8
0
 10
357.2216896610420918
 20
26.5999215263007294
 30
0.0
 40
0.050383453600733
 50
218.9666062337086885
 51
258.039569191619421
  0
ARC
  5
78D7
  8
0
 10
357.2104139641435268
 20
26.5908015231619608
 30
0.0
 40
0.0358811848885916
 50
184.5133341553980983
 51
218.9666062337088874
  0
LINE
  5
78D8
  8
0
 10
357.2850767048087732
 20
26.5940456343457008
 30
0.0
 11
357.2862158553323866
 21
26.6405921642462005
 31
0.0
  0
ARC
  5
78D9
  8
0
 10
357.2440997335086195
 20
26.6111873055879293
 30
0.0
 40
0.0513654887077759
 50
34.922180424572943
 51
71.2512564203785104
  0
ARC
  5
78DA
  8
0
 10
357.2306897458485082
 20
26.5943606749394306
 30
0.0
 40
0.0693132964878928
 50
90.714259306790396
 51
111.941119004990199
  0
ARC
  5
78DB
  8
0
 10
357.2337963861958201
 20
26.5702211023236607
 30
0.0
 40
0.0935318048544208
 50
73.3410372386359057
 51
92.4330991707409595
  0
ARC
  5
78DC
  8
0
 10
357.2237448039305718
 20
26.6018025876002184
 30
0.0
 40
0.0599273555296639
 50
108.438500624323396
 51
147.0535654317909007
  0
ARC
  5
78DD
  8
0
 10
357.2508237751196134
 20
26.5909216740699215
 30
0.0
 40
0.034395091511659
 50
5.211114141480464
 51
51.4938441420637929
  0
ARC
  5
78DE
  8
0
 10
357.2342968813259745
 20
26.5698772508006584
 30
0.0
 40
0.0611530782976225
 50
51.6524228977295792
 51
81.964530586409964
  0
ARC
  5
78DF
  8
0
 10
357.2318255092428103
 20
26.5523711659134882
 30
0.0
 40
0.0788327470742313
 50
81.964530586409964
 51
112.5103798550288019
  0
ARC
  5
78E0
  8
0
 10
357.2207689265796944
 20
26.579050446100279
 30
0.0
 40
0.0499531346899018
 50
112.5103798550289014
 51
140.817393636393291
  0
ARC
  5
78E1
  8
0
 10
357.2077238071610736
 20
26.5896831931267599
 30
0.0
 40
0.0331236828279122
 50
140.8173936363936036
 51
182.9508785049171138
  0
LINE
  5
78E2
  8
0
 10
357.1746440451103126
 20
26.5879779932142206
 30
0.0
 11
357.1734550028323838
 21
26.6343943633461997
 31
0.0
  0
ARC
  5
78E3
  8
0
 10
357.2046536332551909
 20
26.6449236154014706
 30
0.0
 40
0.0392405262080591
 50
205.7944577303441065
 51
218.1795154811354109
  0
ARC
  5
78E4
  8
0
 10
357.2017510692971882
 20
26.6119561113644387
 30
0.0
 40
0.0361129136096276
 50
141.5862406079785956
 51
153.8916272967306895
  0
ARC
  5
78E5
  8
0
 10
357.2656724484496067
 20
26.6218154859514584
 30
0.0
 40
0.0278315506958538
 50
28.9786020441472587
 51
42.4273185719208072
  0
ARC
  5
78E6
  8
0
 10
357.2479156972938767
 20
26.6552627989069286
 30
0.0
 40
0.0465968702717355
 50
324.5703565474627226
 51
334.6321652692989801
  0
ARC
  5
78E7
  8
0
 10
357.2313140454808149
 20
26.9054560840329309
 30
0.0
 40
0.0222091795754215
 50
59.2340377601367933
 51
114.6790651068155995
  0
ARC
  5
78E8
  8
0
 10
357.2287038381073216
 20
26.9111365481606093
 30
0.0
 40
0.0159577113288006
 50
114.6790651068155
 51
148.8400812232337955
  0
ARC
  5
78E9
  8
0
 10
357.2223290212778011
 20
26.91499118190114
 30
0.0
 40
0.0085081146361368
 50
148.8400812232337955
 51
210.9876908309209966
  0
ARC
  5
78EA
  8
0
 10
357.2274809957359025
 20
26.9180852942288489
 30
0.0
 40
0.014517804471183
 50
210.9876908309215935
 51
256.8683841754665877
  0
ARC
  5
78EB
  8
0
 10
357.2303175107564925
 20
26.9302440949487085
 30
0.0
 40
0.0270030859020216
 50
256.8683841754665877
 51
284.1956542127323928
  0
ARC
  5
78EC
  8
0
 10
357.2329459777844249
 20
26.9198531803577303
 30
0.0
 40
0.0162848796643382
 50
284.1956542127323928
 51
323.0125544280704162
  0
ARC
  5
78ED
  8
0
 10
357.2383385516458816
 20
26.9157914367418094
 30
0.0
 40
0.0095337601975813
 50
323.0125544280699046
 51
19.749504040053921
  0
ARC
  5
78EE
  8
0
 10
357.2375014228604755
 20
26.9154908849768191
 30
0.0
 40
0.0104232071981816
 50
19.7495040400537292
 51
60.2425783519977713
  0
ARC
  5
78EF
  8
0
 10
357.2481700497953057
 20
26.9255543307464684
 30
0.0
 40
0.0379957230810885
 50
319.9224024047902049
 51
0.7482356772848647
  0
ARC
  5
78F0
  8
0
 10
357.2352406364092872
 20
26.936433270559359
 30
0.0
 40
0.0548930915731677
 50
282.9058269041951235
 51
319.9224024047902049
  0
ARC
  5
78F1
  8
0
 10
357.2292595971342166
 20
26.962535660630639
 30
0.0
 40
0.0816719563408186
 50
258.039569191619421
 51
282.9058269041951235
  0
ARC
  5
78F2
  8
0
 10
357.222775489220794
 20
26.9319264014386306
 30
0.0
 40
0.050383453600733
 50
218.9666062337086885
 51
258.039569191619421
  0
ARC
  5
78F3
  8
0
 10
357.2114997923222859
 20
26.9228063982998584
 30
0.0
 40
0.0358811848885916
 50
184.5133341553980983
 51
218.9666062337088874
  0
LINE
  5
78F4
  8
0
 10
357.2861625329875892
 20
26.9260505094835985
 30
0.0
 11
357.2873016835110889
 21
26.9725970393841017
 31
0.0
  0
ARC
  5
78F5
  8
0
 10
357.2451855616873786
 20
26.9431921807258306
 30
0.0
 40
0.0513654887077759
 50
34.922180424572943
 51
71.2512564203785104
  0
ARC
  5
78F6
  8
0
 10
357.2317755740273242
 20
26.9263655500773282
 30
0.0
 40
0.0693132964878928
 50
90.714259306790396
 51
111.941119004990199
  0
ARC
  5
78F7
  8
0
 10
357.2348822143745792
 20
26.9022259774615584
 30
0.0
 40
0.0935318048544208
 50
73.3410372386359057
 51
92.4330991707409595
  0
ARC
  5
78F8
  8
0
 10
357.2248306321093878
 20
26.9338074627381197
 30
0.0
 40
0.0599273555296639
 50
108.438500624323396
 51
147.0535654317909007
  0
ARC
  5
78F9
  8
0
 10
357.2519096032983725
 20
26.9229265492078298
 30
0.0
 40
0.034395091511659
 50
5.211114141480464
 51
51.4938441420637929
  0
ARC
  5
78FA
  8
0
 10
357.2353827095047905
 20
26.9018821259385597
 30
0.0
 40
0.0611530782976225
 50
51.6524228977295792
 51
81.964530586409964
  0
ARC
  5
78FB
  8
0
 10
357.2329113374216263
 20
26.8843760410514001
 30
0.0
 40
0.0788327470742313
 50
81.964530586409964
 51
112.5103798550288019
  0
ARC
  5
78FC
  8
0
 10
357.2218547547585104
 20
26.9110553212381802
 30
0.0
 40
0.0499531346899018
 50
112.5103798550289014
 51
140.817393636393291
  0
ARC
  5
78FD
  8
0
 10
357.2088096353398896
 20
26.9216880682646611
 30
0.0
 40
0.0331236828279122
 50
140.8173936363936036
 51
182.9508785049171138
  0
LINE
  5
78FE
  8
0
 10
357.1757298732890149
 20
26.9199828683521183
 30
0.0
 11
357.1745408310110861
 21
26.9663992384841009
 31
0.0
  0
ARC
  5
78FF
  8
0
 10
357.2057394614340069
 20
26.9769284905393683
 30
0.0
 40
0.0392405262080591
 50
205.7944577303441065
 51
218.1795154811354109
  0
ARC
  5
7900
  8
0
 10
357.2028368974760042
 20
26.9439609865023399
 30
0.0
 40
0.0361129136096276
 50
141.5862406079785956
 51
153.8916272967306895
  0
ARC
  5
7901
  8
0
 10
357.2667582766284227
 20
26.9538203610893703
 30
0.0
 40
0.0278315506958538
 50
28.9786020441472587
 51
42.4273185719208072
  0
ARC
  5
7902
  8
0
 10
357.2490015254726927
 20
26.9872676740448298
 30
0.0
 40
0.0465968702717355
 50
324.5703565474627226
 51
334.6321652692989801
  0
ARC
  5
7903
  8
0
 10
358.1185901842002863
 20
26.9513924550349913
 30
0.0
 40
0.0222091795754215
 50
59.2340377601367933
 51
114.6790651068155995
  0
ARC
  5
7904
  8
0
 10
358.1159799768267931
 20
26.9570729191626803
 30
0.0
 40
0.0159577113288006
 50
114.6790651068155
 51
148.8400812232337955
  0
ARC
  5
7905
  8
0
 10
358.1096051599972725
 20
26.9609275529032111
 30
0.0
 40
0.0085081146361368
 50
148.8400812232337955
 51
210.9876908309209966
  0
ARC
  5
7906
  8
0
 10
358.1147571344553739
 20
26.9640216652309093
 30
0.0
 40
0.014517804471183
 50
210.9876908309215935
 51
256.8683841754665877
  0
ARC
  5
7907
  8
0
 10
358.1175936494760776
 20
26.9761804659507689
 30
0.0
 40
0.0270030859020216
 50
256.8683841754665877
 51
284.1956542127323928
  0
ARC
  5
7908
  8
0
 10
358.1202221165038964
 20
26.9657895513597907
 30
0.0
 40
0.0162848796643382
 50
284.1956542127323928
 51
323.0125544280704162
  0
ARC
  5
7909
  8
0
 10
358.1256146903655235
 20
26.9617278077438804
 30
0.0
 40
0.0095337601975813
 50
323.0125544280699046
 51
19.749504040053921
  0
ARC
  5
790A
  8
0
 10
358.1247775615801174
 20
26.9614272559788795
 30
0.0
 40
0.0104232071981816
 50
19.7495040400537292
 51
60.2425783519977713
  0
ARC
  5
790B
  8
0
 10
358.1354461885148908
 20
26.9714907017485288
 30
0.0
 40
0.0379957230810885
 50
319.9224024047902049
 51
0.7482356772848647
  0
ARC
  5
790C
  8
0
 10
358.1225167751288723
 20
26.98236964156143
 30
0.0
 40
0.0548930915731677
 50
282.9058269041951235
 51
319.9224024047902049
  0
ARC
  5
790D
  8
0
 10
358.1165357358538017
 20
27.00847203163271
 30
0.0
 40
0.0816719563408186
 50
258.039569191619421
 51
282.9058269041951235
  0
ARC
  5
790E
  8
0
 10
358.1100516279403791
 20
26.9778627724407016
 30
0.0
 40
0.050383453600733
 50
218.9666062337086885
 51
258.039569191619421
  0
ARC
  5
790F
  8
0
 10
358.0987759310418141
 20
26.9687427693019295
 30
0.0
 40
0.0358811848885916
 50
184.5133341553980983
 51
218.9666062337088874
  0
LINE
  5
7910
  8
0
 10
358.1734386717071175
 20
26.9719868804856588
 30
0.0
 11
358.174577822230674
 21
27.0185334103861585
 31
0.0
  0
ARC
  5
7911
  8
0
 10
358.1324617004070205
 20
26.9891285517278909
 30
0.0
 40
0.0513654887077759
 50
34.922180424572943
 51
71.2512564203785104
  0
ARC
  5
7912
  8
0
 10
358.1190517127469093
 20
26.9723019210793993
 30
0.0
 40
0.0693132964878928
 50
90.714259306790396
 51
111.941119004990199
  0
ARC
  5
7913
  8
0
 10
358.1221583530941075
 20
26.9481623484636295
 30
0.0
 40
0.0935318048544208
 50
73.3410372386359057
 51
92.4330991707409595
  0
ARC
  5
7914
  8
0
 10
358.1121067708289729
 20
26.97974383374018
 30
0.0
 40
0.0599273555296639
 50
108.438500624323396
 51
147.0535654317909007
  0
ARC
  5
7915
  8
0
 10
358.1391857420180145
 20
26.9688629202098902
 30
0.0
 40
0.034395091511659
 50
5.211114141480464
 51
51.4938441420637929
  0
ARC
  5
7916
  8
0
 10
358.1226588482243756
 20
26.9478184969406307
 30
0.0
 40
0.0611530782976225
 50
51.6524228977295792
 51
81.964530586409964
  0
ARC
  5
7917
  8
0
 10
358.1201874761410977
 20
26.9303124120534605
 30
0.0
 40
0.0788327470742313
 50
81.964530586409964
 51
112.5103798550288019
  0
ARC
  5
7918
  8
0
 10
358.1091308934780955
 20
26.9569916922402406
 30
0.0
 40
0.0499531346899018
 50
112.5103798550289014
 51
140.817393636393291
  0
ARC
  5
7919
  8
0
 10
358.0960857740594747
 20
26.9676244392667286
 30
0.0
 40
0.0331236828279122
 50
140.8173936363936036
 51
182.9508785049171138
  0
LINE
  5
791A
  8
0
 10
358.0630060120086
 20
26.9659192393541893
 30
0.0
 11
358.061816969730728
 21
27.0123356094861613
 31
0.0
  0
ARC
  5
791B
  8
0
 10
358.093015600153592
 20
27.0228648615414393
 30
0.0
 40
0.0392405262080591
 50
205.7944577303441065
 51
218.1795154811354109
  0
ARC
  5
791C
  8
0
 10
358.0901130361954756
 20
26.9898973575044003
 30
0.0
 40
0.0361129136096276
 50
141.5862406079785956
 51
153.8916272967306895
  0
ARC
  5
791D
  8
0
 10
358.1540344153478941
 20
26.9997567320914307
 30
0.0
 40
0.0278315506958538
 50
28.9786020441472587
 51
42.4273185719208072
  0
ARC
  5
791E
  8
0
 10
358.1362776641922778
 20
27.0332040450468902
 30
0.0
 40
0.0465968702717355
 50
324.5703565474627226
 51
334.6321652692989801
  0
ARC
  5
791F
  8
0
 10
358.1207563162457177
 20
27.3007619628620901
 30
0.0
 40
0.0222091795754215
 50
59.2340377601367933
 51
114.6790651068155995
  0
ARC
  5
7920
  8
0
 10
358.1181461088722244
 20
27.3064424269897685
 30
0.0
 40
0.0159577113288006
 50
114.6790651068155
 51
148.8400812232337955
  0
ARC
  5
7921
  8
0
 10
358.1117712920427039
 20
27.3102970607302993
 30
0.0
 40
0.0085081146361368
 50
148.8400812232337955
 51
210.9876908309209966
  0
ARC
  5
7922
  8
0
 10
358.1169232665008053
 20
27.313391173058001
 30
0.0
 40
0.014517804471183
 50
210.9876908309215935
 51
256.8683841754665877
  0
ARC
  5
7923
  8
0
 10
358.1197597815213953
 20
27.3255499737778607
 30
0.0
 40
0.0270030859020216
 50
256.8683841754665877
 51
284.1956542127323928
  0
ARC
  5
7924
  8
0
 10
358.1223882485493277
 20
27.3151590591868789
 30
0.0
 40
0.0162848796643382
 50
284.1956542127323928
 51
323.0125544280704162
  0
ARC
  5
7925
  8
0
 10
358.1277808224108981
 20
27.3110973155709686
 30
0.0
 40
0.0095337601975813
 50
323.0125544280699046
 51
19.749504040053921
  0
ARC
  5
7926
  8
0
 10
358.1269436936253783
 20
27.3107967638059712
 30
0.0
 40
0.0104232071981816
 50
19.7495040400537292
 51
60.2425783519977713
  0
ARC
  5
7927
  8
0
 10
358.1376123205602084
 20
27.3208602095756312
 30
0.0
 40
0.0379957230810885
 50
319.9224024047902049
 51
0.7482356772848647
  0
ARC
  5
7928
  8
0
 10
358.1246829071741899
 20
27.3317391493885182
 30
0.0
 40
0.0548930915731677
 50
282.9058269041951235
 51
319.9224024047902049
  0
ARC
  5
7929
  8
0
 10
358.1187018678991194
 20
27.3578415394597982
 30
0.0
 40
0.0816719563408186
 50
258.039569191619421
 51
282.9058269041951235
  0
ARC
  5
792A
  8
0
 10
358.1122177599858105
 20
27.3272322802677898
 30
0.0
 40
0.050383453600733
 50
218.9666062337086885
 51
258.039569191619421
  0
ARC
  5
792B
  8
0
 10
358.1009420630871887
 20
27.3181122771290212
 30
0.0
 40
0.0358811848885916
 50
184.5133341553980983
 51
218.9666062337088874
  0
LINE
  5
792C
  8
0
 10
358.175604803752492
 20
27.3213563883127506
 30
0.0
 11
358.1767439542761053
 21
27.3679029182132503
 31
0.0
  0
ARC
  5
792D
  8
0
 10
358.1346278324522814
 20
27.3384980595549898
 30
0.0
 40
0.0513654887077759
 50
34.922180424572943
 51
71.2512564203785104
  0
ARC
  5
792E
  8
0
 10
358.121217844792227
 20
27.321671428906491
 30
0.0
 40
0.0693132964878928
 50
90.714259306790396
 51
111.941119004990199
  0
ARC
  5
792F
  8
0
 10
358.124324485139482
 20
27.2975318562907212
 30
0.0
 40
0.0935318048544208
 50
73.3410372386359057
 51
92.4330991707409595
  0
ARC
  5
7930
  8
0
 10
358.1142729028742906
 20
27.3291133415672682
 30
0.0
 40
0.0599273555296639
 50
108.438500624323396
 51
147.0535654317909007
  0
ARC
  5
7931
  8
0
 10
358.1413518740632753
 20
27.3182324280369784
 30
0.0
 40
0.034395091511659
 50
5.211114141480464
 51
51.4938441420637929
  0
ARC
  5
7932
  8
0
 10
358.1248249802696932
 20
27.2971880047677189
 30
0.0
 40
0.0611530782976225
 50
51.6524228977295792
 51
81.964530586409964
  0
ARC
  5
7933
  8
0
 10
358.1223536081864722
 20
27.2796819198805487
 30
0.0
 40
0.0788327470742313
 50
81.964530586409964
 51
112.5103798550288019
  0
ARC
  5
7934
  8
0
 10
358.1112970255235268
 20
27.3063612000673395
 30
0.0
 40
0.0499531346899018
 50
112.5103798550289014
 51
140.817393636393291
  0
ARC
  5
7935
  8
0
 10
358.0982519061047924
 20
27.3169939470938203
 30
0.0
 40
0.0331236828279122
 50
140.8173936363936036
 51
182.9508785049171138
  0
LINE
  5
7936
  8
0
 10
358.0651721440539745
 20
27.3152887471812811
 30
0.0
 11
358.0639831017761026
 21
27.3617051173132495
 31
0.0
  0
ARC
  5
7937
  8
0
 10
358.0951817321990234
 20
27.372234369368531
 30
0.0
 40
0.0392405262080591
 50
205.7944577303441065
 51
218.1795154811354109
  0
ARC
  5
7938
  8
0
 10
358.092279168240907
 20
27.3392668653314885
 30
0.0
 40
0.0361129136096276
 50
141.5862406079785956
 51
153.8916272967306895
  0
ARC
  5
7939
  8
0
 10
358.1562005473933255
 20
27.3491262399185189
 30
0.0
 40
0.0278315506958538
 50
28.9786020441472587
 51
42.4273185719208072
  0
ARC
  5
793A
  8
0
 10
358.1384437962375955
 20
27.3825735528739784
 30
0.0
 40
0.0465968702717355
 50
324.5703565474627226
 51
334.6321652692989801
  0
ARC
  5
793B
  8
0
 10
358.1189340042654976
 20
27.6647118488081709
 30
0.0
 40
0.0222091795754215
 50
59.2340377601367933
 51
114.6790651068155995
  0
ARC
  5
793C
  8
0
 10
358.1163237968918907
 20
27.67039231293586
 30
0.0
 40
0.0159577113288006
 50
114.6790651068155
 51
148.8400812232337955
  0
ARC
  5
793D
  8
0
 10
358.1099489800624269
 20
27.6742469466763907
 30
0.0
 40
0.0085081146361368
 50
148.8400812232337955
 51
210.9876908309209966
  0
ARC
  5
793E
  8
0
 10
358.1151009545205284
 20
27.6773410590040889
 30
0.0
 40
0.014517804471183
 50
210.9876908309215935
 51
256.8683841754665877
  0
ARC
  5
793F
  8
0
 10
358.1179374695411184
 20
27.6894998597239415
 30
0.0
 40
0.0270030859020216
 50
256.8683841754665877
 51
284.1956542127323928
  0
ARC
  5
7940
  8
0
 10
358.1205659365689939
 20
27.679108945132981
 30
0.0
 40
0.0162848796643382
 50
284.1956542127323928
 51
323.0125544280704162
  0
ARC
  5
7941
  8
0
 10
358.1259585104306211
 20
27.6750472015170601
 30
0.0
 40
0.0095337601975813
 50
323.0125544280699046
 51
19.749504040053921
  0
ARC
  5
7942
  8
0
 10
358.125121381645215
 20
27.6747466497520591
 30
0.0
 40
0.0104232071981816
 50
19.7495040400537292
 51
60.2425783519977713
  0
ARC
  5
7943
  8
0
 10
358.1357900085798747
 20
27.6848100955217085
 30
0.0
 40
0.0379957230810885
 50
319.9224024047902049
 51
0.7482356772848647
  0
ARC
  5
7944
  8
0
 10
358.1228605951940267
 20
27.695689035334599
 30
0.0
 40
0.0548930915731677
 50
282.9058269041951235
 51
319.9224024047902049
  0
ARC
  5
7945
  8
0
 10
358.1168795559188993
 20
27.7217914254058897
 30
0.0
 40
0.0816719563408186
 50
258.039569191619421
 51
282.9058269041951235
  0
ARC
  5
7946
  8
0
 10
358.1103954480054767
 20
27.6911821662138813
 30
0.0
 40
0.050383453600733
 50
218.9666062337086885
 51
258.039569191619421
  0
ARC
  5
7947
  8
0
 10
358.0991197511069117
 20
27.6820621630751091
 30
0.0
 40
0.0358811848885916
 50
184.5133341553980983
 51
218.9666062337088874
  0
LINE
  5
7948
  8
0
 10
358.1737824917722151
 20
27.6853062742588385
 30
0.0
 11
358.1749216422958284
 21
27.7318528041593417
 31
0.0
  0
ARC
  5
7949
  8
0
 10
358.1328055204720044
 20
27.7024479455010706
 30
0.0
 40
0.0513654887077759
 50
34.922180424572943
 51
71.2512564203785104
  0
ARC
  5
794A
  8
0
 10
358.1193955328120069
 20
27.6856213148525683
 30
0.0
 40
0.0693132964878928
 50
90.714259306790396
 51
111.941119004990199
  0
ARC
  5
794B
  8
0
 10
358.1225021731592051
 20
27.6614817422368091
 30
0.0
 40
0.0935318048544208
 50
73.3410372386359057
 51
92.4330991707409595
  0
ARC
  5
794C
  8
0
 10
358.1124505908941273
 20
27.6930632275133597
 30
0.0
 40
0.0599273555296639
 50
108.438500624323396
 51
147.0535654317909007
  0
ARC
  5
794D
  8
0
 10
358.1395295620831121
 20
27.6821823139830698
 30
0.0
 40
0.034395091511659
 50
5.211114141480464
 51
51.4938441420637929
  0
ARC
  5
794E
  8
0
 10
358.1230026682894163
 20
27.6611378907138104
 30
0.0
 40
0.0611530782976225
 50
51.6524228977295792
 51
81.964530586409964
  0
ARC
  5
794F
  8
0
 10
358.1205312962061953
 20
27.6436318058266401
 30
0.0
 40
0.0788327470742313
 50
81.964530586409964
 51
112.5103798550288019
  0
ARC
  5
7950
  8
0
 10
358.109474713543193
 20
27.6703110860134203
 30
0.0
 40
0.0499531346899018
 50
112.5103798550289014
 51
140.817393636393291
  0
ARC
  5
7951
  8
0
 10
358.0964295941245723
 20
27.6809438330399082
 30
0.0
 40
0.0331236828279122
 50
140.8173936363936036
 51
182.9508785049171138
  0
LINE
  5
7952
  8
0
 10
358.0633498320736976
 20
27.6792386331273583
 30
0.0
 11
358.0621607897958256
 21
27.725655003259341
 31
0.0
  0
ARC
  5
7953
  8
0
 10
358.0933594202186896
 20
27.7361842553146083
 30
0.0
 40
0.0392405262080591
 50
205.7944577303441065
 51
218.1795154811354109
  0
ARC
  5
7954
  8
0
 10
358.0904568562605732
 20
27.70321675127758
 30
0.0
 40
0.0361129136096276
 50
141.5862406079785956
 51
153.8916272967306895
  0
ARC
  5
7955
  8
0
 10
358.1543782354131054
 20
27.7130761258646103
 30
0.0
 40
0.0278315506958538
 50
28.9786020441472587
 51
42.4273185719208072
  0
ARC
  5
7956
  8
0
 10
358.1366214842573754
 20
27.7465234388200699
 30
0.0
 40
0.0465968702717355
 50
324.5703565474627226
 51
334.6321652692989801
  0
ARC
  5
7957
  8
0
 10
358.1184182194717209
 20
28.0442172296795995
 30
0.0
 40
0.0222091795754215
 50
59.2340377601367933
 51
114.6790651068155995
  0
ARC
  5
7958
  8
0
 10
358.1158080120982277
 20
28.0498976938072815
 30
0.0
 40
0.0159577113288006
 50
114.6790651068155
 51
148.8400812232337955
  0
ARC
  5
7959
  8
0
 10
358.1094331952685934
 20
28.0537523275478087
 30
0.0
 40
0.0085081146361368
 50
148.8400812232337955
 51
210.9876908309209966
  0
ARC
  5
795A
  8
0
 10
358.1145851697268085
 20
28.0568464398755211
 30
0.0
 40
0.014517804471183
 50
210.9876908309215935
 51
256.8683841754665877
  0
ARC
  5
795B
  8
0
 10
358.1174216847473986
 20
28.0690052405953807
 30
0.0
 40
0.0270030859020216
 50
256.8683841754665877
 51
284.1956542127323928
  0
ARC
  5
795C
  8
0
 10
358.1200501517752173
 20
28.058614326004399
 30
0.0
 40
0.0162848796643382
 50
284.1956542127323928
 51
323.0125544280704162
  0
ARC
  5
795D
  8
0
 10
358.1254427256367876
 20
28.0545525823884816
 30
0.0
 40
0.0095337601975813
 50
323.0125544280699046
 51
19.749504040053921
  0
ARC
  5
795E
  8
0
 10
358.1246055968513815
 20
28.0542520306234913
 30
0.0
 40
0.0104232071981816
 50
19.7495040400537292
 51
60.2425783519977713
  0
ARC
  5
795F
  8
0
 10
358.1352742237862117
 20
28.0643154763931406
 30
0.0
 40
0.0379957230810885
 50
319.9224024047902049
 51
0.7482356772848647
  0
ARC
  5
7960
  8
0
 10
358.1223448104001932
 20
28.0751944162060312
 30
0.0
 40
0.0548930915731677
 50
282.9058269041951235
 51
319.9224024047902049
  0
ARC
  5
7961
  8
0
 10
358.1163637711251226
 20
28.1012968062773112
 30
0.0
 40
0.0816719563408186
 50
258.039569191619421
 51
282.9058269041951235
  0
ARC
  5
7962
  8
0
 10
358.1098796632117001
 20
28.0706875470852992
 30
0.0
 40
0.050383453600733
 50
218.9666062337086885
 51
258.039569191619421
  0
ARC
  5
7963
  8
0
 10
358.0986039663130782
 20
28.0615675439465306
 30
0.0
 40
0.0358811848885916
 50
184.5133341553980983
 51
218.9666062337088874
  0
LINE
  5
7964
  8
0
 10
358.1732667069783815
 20
28.0648116551302707
 30
0.0
 11
358.1744058575019949
 21
28.1113581850307703
 31
0.0
  0
ARC
  5
7965
  8
0
 10
358.1322897356782846
 20
28.0819533263724992
 30
0.0
 40
0.0513654887077759
 50
34.922180424572943
 51
71.2512564203785104
  0
ARC
  5
7966
  8
0
 10
358.1188797480181734
 20
28.0651266957240004
 30
0.0
 40
0.0693132964878928
 50
90.714259306790396
 51
111.941119004990199
  0
ARC
  5
7967
  8
0
 10
358.1219863883654284
 20
28.0409871231082306
 30
0.0
 40
0.0935318048544208
 50
73.3410372386359057
 51
92.4330991707409595
  0
ARC
  5
7968
  8
0
 10
358.1119348061002938
 20
28.0725686083847812
 30
0.0
 40
0.0599273555296639
 50
108.438500624323396
 51
147.0535654317909007
  0
ARC
  5
7969
  8
0
 10
358.1390137772892786
 20
28.0616876948544984
 30
0.0
 40
0.034395091511659
 50
5.211114141480464
 51
51.4938441420637929
  0
ARC
  5
796A
  8
0
 10
358.1224868834956965
 20
28.0406432715852283
 30
0.0
 40
0.0611530782976225
 50
51.6524228977295792
 51
81.964530586409964
  0
ARC
  5
796B
  8
0
 10
358.1200155114124186
 20
28.0231371866980687
 30
0.0
 40
0.0788327470742313
 50
81.964530586409964
 51
112.5103798550288019
  0
ARC
  5
796C
  8
0
 10
358.1089589287494164
 20
28.0498164668848489
 30
0.0
 40
0.0499531346899018
 50
112.5103798550289014
 51
140.817393636393291
  0
ARC
  5
796D
  8
0
 10
358.0959138093307956
 20
28.0604492139113297
 30
0.0
 40
0.0331236828279122
 50
140.8173936363936036
 51
182.9508785049171138
  0
LINE
  5
796E
  8
0
 10
358.0628340472799209
 20
28.0587440139987905
 30
0.0
 11
358.0616450050019921
 21
28.1051603841307696
 31
0.0
  0
ARC
  5
796F
  8
0
 10
358.0928436354249129
 20
28.1156896361860404
 30
0.0
 40
0.0392405262080591
 50
205.7944577303441065
 51
218.1795154811354109
  0
ARC
  5
7970
  8
0
 10
358.0899410714667965
 20
28.0827221321490015
 30
0.0
 40
0.0361129136096276
 50
141.5862406079785956
 51
153.8916272967306895
  0
ARC
  5
7971
  8
0
 10
358.1538624506192718
 20
28.0925815067360283
 30
0.0
 40
0.0278315506958538
 50
28.9786020441472587
 51
42.4273185719208072
  0
ARC
  5
7972
  8
0
 10
358.1361056994635987
 20
28.1260288196914985
 30
0.0
 40
0.0465968702717355
 50
324.5703565474627226
 51
334.6321652692989801
  0
ARC
  5
7973
  8
0
 10
357.2304932748958777
 20
28.3892345319584294
 30
0.0
 40
0.0222091795754215
 50
59.2340377601367933
 51
114.6790651068155995
  0
ARC
  5
7974
  8
0
 10
357.2278830675223844
 20
28.3949149960861114
 30
0.0
 40
0.0159577113288006
 50
114.6790651068155
 51
148.8400812232337955
  0
ARC
  5
7975
  8
0
 10
357.2215082506929207
 20
28.3987696298266385
 30
0.0
 40
0.0085081146361368
 50
148.8400812232337955
 51
210.9876908309209966
  0
ARC
  5
7976
  8
0
 10
357.2266602251510221
 20
28.4018637421543509
 30
0.0
 40
0.014517804471183
 50
210.9876908309215935
 51
256.8683841754665877
  0
ARC
  5
7977
  8
0
 10
357.2294967401716121
 20
28.4140225428742106
 30
0.0
 40
0.0270030859020216
 50
256.8683841754665877
 51
284.1956542127323928
  0
ARC
  5
7978
  8
0
 10
357.2321252071994877
 20
28.4036316282832288
 30
0.0
 40
0.0162848796643382
 50
284.1956542127323928
 51
323.0125544280704162
  0
ARC
  5
7979
  8
0
 10
357.2375177810611149
 20
28.3995698846673115
 30
0.0
 40
0.0095337601975813
 50
323.0125544280699046
 51
19.749504040053921
  0
ARC
  5
797A
  8
0
 10
357.2366806522757088
 20
28.3992693329023211
 30
0.0
 40
0.0104232071981816
 50
19.7495040400537292
 51
60.2425783519977713
  0
ARC
  5
797B
  8
0
 10
357.2473492792104253
 20
28.4093327786719705
 30
0.0
 40
0.0379957230810885
 50
319.9224024047902049
 51
0.7482356772848647
  0
ARC
  5
797C
  8
0
 10
357.2344198658245205
 20
28.4202117184848611
 30
0.0
 40
0.0548930915731677
 50
282.9058269041951235
 51
319.9224024047902049
  0
ARC
  5
797D
  8
0
 10
357.2284388265492794
 20
28.4463141085561411
 30
0.0
 40
0.0816719563408186
 50
258.039569191619421
 51
282.9058269041951235
  0
ARC
  5
797E
  8
0
 10
357.2219547186360273
 20
28.4157048493641291
 30
0.0
 40
0.050383453600733
 50
218.9666062337086885
 51
258.039569191619421
  0
ARC
  5
797F
  8
0
 10
357.2106790217374055
 20
28.4065848462253712
 30
0.0
 40
0.0358811848885916
 50
184.5133341553980983
 51
218.9666062337088874
  0
LINE
  5
7980
  8
0
 10
357.2853417624027088
 20
28.4098289574091005
 30
0.0
 11
357.2864809129263222
 21
28.4563754873096002
 31
0.0
  0
ARC
  5
7981
  8
0
 10
357.2443647911024982
 20
28.4269706286513291
 30
0.0
 40
0.0513654887077759
 50
34.922180424572943
 51
71.2512564203785104
  0
ARC
  5
7982
  8
0
 10
357.2309548034425006
 20
28.4101439980028303
 30
0.0
 40
0.0693132964878928
 50
90.714259306790396
 51
111.941119004990199
  0
ARC
  5
7983
  8
0
 10
357.2340614437896988
 20
28.3860044253870711
 30
0.0
 40
0.0935318048544208
 50
73.3410372386359057
 51
92.4330991707409595
  0
ARC
  5
7984
  8
0
 10
357.2240098615246211
 20
28.4175859106636217
 30
0.0
 40
0.0599273555296639
 50
108.438500624323396
 51
147.0535654317909007
  0
ARC
  5
7985
  8
0
 10
357.2510888327136058
 20
28.4067049971333283
 30
0.0
 40
0.034395091511659
 50
5.211114141480464
 51
51.4938441420637929
  0
ARC
  5
7986
  8
0
 10
357.2345619389199101
 20
28.3856605738640688
 30
0.0
 40
0.0611530782976225
 50
51.6524228977295792
 51
81.964530586409964
  0
ARC
  5
7987
  8
0
 10
357.232090566836689
 20
28.3681544889768986
 30
0.0
 40
0.0788327470742313
 50
81.964530586409964
 51
112.5103798550288019
  0
ARC
  5
7988
  8
0
 10
357.2210339841736868
 20
28.3948337691636787
 30
0.0
 40
0.0499531346899018
 50
112.5103798550289014
 51
140.817393636393291
  0
ARC
  5
7989
  8
0
 10
357.2079888647551229
 20
28.4054665161901596
 30
0.0
 40
0.0331236828279122
 50
140.8173936363936036
 51
182.9508785049171138
  0
LINE
  5
798A
  8
0
 10
357.1749091027041914
 20
28.4037613162776204
 30
0.0
 11
357.1737200604263194
 21
28.4501776864095994
 31
0.0
  0
ARC
  5
798B
  8
0
 10
357.2049186908491265
 20
28.4607069384648703
 30
0.0
 40
0.0392405262080591
 50
205.7944577303441065
 51
218.1795154811354109
  0
ARC
  5
798C
  8
0
 10
357.2020161268911238
 20
28.4277394344278385
 30
0.0
 40
0.0361129136096276
 50
141.5862406079785956
 51
153.8916272967306895
  0
ARC
  5
798D
  8
0
 10
357.2659375060434854
 20
28.4375988090148688
 30
0.0
 40
0.0278315506958538
 50
28.9786020441472587
 51
42.4273185719208072
  0
ARC
  5
798E
  8
0
 10
357.248180754887926
 20
28.4710461219703284
 30
0.0
 40
0.0465968702717355
 50
324.5703565474627226
 51
334.6321652692989801
  0
LINE
  5
798F
  8
0
 10
358.1163637711251226
 20
28.0196248499364984
 30
0.0
 11
358.1163637711251226
 21
27.7548682750103488
 31
0.0
  0
LINE
  5
7990
  8
0
 10
355.4551874988537179
 20
28.0196248499364984
 30
0.0
 11
355.4551874988537179
 21
27.7548682750103488
 31
0.0
  0
ENDSEC
  0
EOF
