  0
SECTION
  2
HEADER
  9
$ACADVER
  1
AC1009
  9
$INSBASE
 10
352.3675590484303939
 20
31.1625080095210798
 30
0.0
  9
$EXTMIN
 10
349.0833069916009208
 20
27.4874121241995297
 30
-0.0000000349181948
  9
$EXTMAX
 10
352.831573832263075
 20
31.6163312952287292
 30
0.0000000814935746
  9
$LIMMIN
 10
0.0
 20
0.0
  9
$LIMMAX
 10
11.6929133858000007
 20
8.2677165353999982
  9
$ORTHOMODE
 70
     0
  9
$REGENMODE
 70
     1
  9
$FILLMODE
 70
     1
  9
$QTEXTMODE
 70
     0
  9
$MIRRTEXT
 70
     0
  9
$DRAGMODE
 70
     2
  9
$LTSCALE
 40
0.6431102362
  9
$OSMODE
 70
  4095
  9
$ATTMODE
 70
     1
  9
$TEXTSIZE
 40
0.2
  9
$TRACEWID
 40
0.05
  9
$TEXTSTYLE
  7
STANDARD
  9
$CLAYER
  8
0
  9
$CELTYPE
  6
BYLAYER
  9
$CECOLOR
 62
   256
  9
$DIMSCALE
 40
1.0
  9
$DIMASZ
 40
0.1875
  9
$DIMEXO
 40
0.0625
  9
$DIMDLI
 40
0.4443307087
  9
$DIMRND
 40
0.0
  9
$DIMDLE
 40
0.0
  9
$DIMEXE
 40
0.125
  9
$DIMTP
 40
0.01
  9
$DIMTM
 40
0.01
  9
$DIMTXT
 40
1.0
  9
$DIMCEN
 40
0.1052362205
  9
$DIMTSZ
 40
0.0
  9
$DIMTOL
 70
     1
  9
$DIMLIM
 70
     0
  9
$DIMTIH
 70
     0
  9
$DIMTOH
 70
     1
  9
$DIMSE1
 70
     0
  9
$DIMSE2
 70
     0
  9
$DIMTAD
 70
     0
  9
$DIMZIN
 70
     0
  9
$DIMBLK
  1

  9
$DIMASO
 70
     1
  9
$DIMSHO
 70
     1
  9
$DIMPOST
  1
\X
  9
$DIMAPOST
  1

  9
$DIMALT
 70
     1
  9
$DIMALTD
 70
     2
  9
$DIMALTF
 40
25.3999999999999986
  9
$DIMLFAC
 40
1.0
  9
$DIMTOFL
 70
     0
  9
$DIMTVP
 40
0.0
  9
$DIMTIX
 70
     0
  9
$DIMSOXD
 70
     0
  9
$DIMSAH
 70
     0
  9
$DIMBLK1
  1

  9
$DIMBLK2
  1

  9
$DIMSTYLE
  2
STANDARD
  9
$DIMCLRD
 70
     0
  9
$DIMCLRE
 70
     0
  9
$DIMCLRT
 70
     0
  9
$DIMTFAC
 40
1.0
  9
$DIMGAP
 40
0.09
  9
$LUNITS
 70
     2
  9
$LUPREC
 70
     4
  9
$SKETCHINC
 40
0.1
  9
$FILLETRAD
 40
0.0
  9
$AUNITS
 70
     0
  9
$AUPREC
 70
     0
  9
$MENU
  1
.
  9
$ELEVATION
 40
0.0
  9
$PELEVATION
 40
0.0
  9
$THICKNESS
 40
0.0
  9
$LIMCHECK
 70
     0
  9
$BLIPMODE
 70
     0
  9
$CHAMFERA
 40
0.0
  9
$CHAMFERB
 40
0.0
  9
$SKPOLY
 70
     0
  9
$TDCREATE
 40
2458172.5207638889551163
  9
$TDUPDATE
 40
2459906.6264699078164995
  9
$TDINDWG
 40
0.1052694907
  9
$TDUSRTIMER
 40
0.1052694907
  9
$USRTIMER
 70
     1
  9
$ANGBASE
 50
0.0
  9
$ANGDIR
 70
     0
  9
$PDMODE
 70
     0
  9
$PDSIZE
 40
0.3125
  9
$PLINEWID
 40
0.0
  9
$COORDS
 70
     1
  9
$SPLFRAME
 70
     0
  9
$SPLINETYPE
 70
     6
  9
$SPLINESEGS
 70
     8
  9
$ATTDIA
 70
     1
  9
$ATTREQ
 70
     1
  9
$HANDLING
 70
     1
  9
$HANDSEED
  5
6528
  9
$SURFTAB1
 70
     6
  9
$SURFTAB2
 70
     6
  9
$SURFTYPE
 70
     6
  9
$SURFU
 70
     6
  9
$SURFV
 70
     6
  9
$UCSNAME
  2

  9
$UCSORG
 10
0.0
 20
0.0
 30
0.0
  9
$UCSXDIR
 10
1.0
 20
0.0
 30
0.0
  9
$UCSYDIR
 10
0.0
 20
1.0
 30
0.0
  9
$PUCSNAME
  2

  9
$PUCSORG
 10
0.0
 20
0.0
 30
0.0
  9
$PUCSXDIR
 10
1.0
 20
0.0
 30
0.0
  9
$PUCSYDIR
 10
0.0
 20
1.0
 30
0.0
  9
$USERI1
 70
     0
  9
$USERI2
 70
     0
  9
$USERI3
 70
     0
  9
$USERI4
 70
     0
  9
$USERI5
 70
     0
  9
$USERR1
 40
0.0
  9
$USERR2
 40
0.0
  9
$USERR3
 40
0.0
  9
$USERR4
 40
0.0
  9
$USERR5
 40
0.0
  9
$WORLDVIEW
 70
     1
  9
$SHADEDGE
 70
     3
  9
$SHADEDIF
 70
    70
  9
$TILEMODE
 70
     1
  9
$MAXACTVP
 70
    64
  9
$PLIMCHECK
 70
     0
  9
$PEXTMIN
 10
1.0000000000000000E+20
 20
1.0000000000000000E+20
 30
1.0000000000000000E+20
  9
$PEXTMAX
 10
-1.0000000000000000E+20
 20
-1.0000000000000000E+20
 30
-1.0000000000000000E+20
  9
$PLIMMIN
 10
0.0
 20
0.0
  9
$PLIMMAX
 10
12.0
 20
9.0
  9
$UNITMODE
 70
     0
  9
$VISRETAIN
 70
     1
  9
$PLINEGEN
 70
     0
  9
$PSLTSCALE
 70
     1
  0
ENDSEC
  0
SECTION
  2
TABLES
  0
TABLE
  2
VPORT
 70
     1
  0
VPORT
  2
*ACTIVE
 70
     0
 10
0.0
 20
0.0
 11
1.0
 21
1.0
 12
9.3933018908817285
 22
0.331362020494794
 13
0.0
 23
0.0
 14
1.0
 24
1.0
 15
0.0
 25
0.0
 16
0.0
 26
0.0
 36
15.9267624695958698
 17
341.5641385210502108
 27
29.2205096892193303
 37
0.0
 40
4.1642974609183376
 41
2.1441798941798931
 42
50.0
 43
0.0
 44
0.0
 50
0.0
 51
0.0
 71
     0
 72
   100
 73
     1
 74
     1
 75
     0
 76
     0
 77
     0
 78
     0
  0
ENDTAB
  0
TABLE
  2
LTYPE
 70
     2
  0
LTYPE
  2
CONTINUOUS
 70
     0
  3
Solid line
 72
    65
 73
     0
 40
0.0
  0
LTYPE
  2
PHANTOM2
 70
     0
  3
___ _ _ ___ _ _ ___ _ _ ___ _ _
 72
    65
 73
     6
 40
1.25
 49
0.625
 49
-0.125
 49
0.125
 49
-0.125
 49
0.125
 49
-0.125
  0
ENDTAB
  0
TABLE
  2
LAYER
 70
     2
  0
LAYER
  2
0
 70
     0
 62
   255
  6
CONTINUOUS
  0
LAYER
  2
DEFPOINTS
 70
     0
 62
     7
  6
CONTINUOUS
  0
ENDTAB
  0
TABLE
  2
STYLE
 70
     1
  0
STYLE
  2
STANDARD
 70
     0
 40
0.0
 41
0.8
 50
0.0
 71
     0
 42
0.2
  3
txt
  4

  0
ENDTAB
  0
TABLE
  2
VIEW
 70
     0
  0
ENDTAB
  0
TABLE
  2
UCS
 70
     0
  0
ENDTAB
  0
TABLE
  2
APPID
 70
    10
  0
APPID
  2
ACAD
 70
     0
  0
APPID
  2
ACAD_MLEADERVER
 70
     0
  0
APPID
  2
ACAD_EXEMPT_FROM_CAD_STANDARDS
 70
     0
  0
APPID
  2
ACAD_DSTYLE_DIMJAG
 70
     0
  0
APPID
  2
ACAD_DSTYLE_DIMTALN
 70
     0
  0
APPID
  2
ACAD_NAV_VCDISPLAY
 70
     0
  0
APPID
  2
ACAECLAYERSTANDARD
 70
     0
  0
APPID
  2
ACCMTRANSPARENCY
 70
     0
  0
APPID
  2
DCO15
 70
     0
  0
APPID
  2
ACDBATTR
 70
     0
  0
ENDTAB
  0
TABLE
  2
DIMSTYLE
 70
     1
  0
DIMSTYLE
  2
STANDARD
 70
     0
  3

  4

  5

  6

  7

 40
1.0
 41
0.1875
 42
0.0625
 43
0.38
 44
0.125
 45
0.0
 46
0.0
 47
0.01
 48
0.01
140
0.15625
141
0.09
142
0.0
143
25.3999999999999986
144
1.0
145
0.0
146
1.0
147
0.09
 71
     1
 72
     0
 73
     1
 74
     1
 75
     0
 76
     0
 77
     0
 78
     4
170
     0
171
     2
172
     0
173
     0
174
     0
175
     0
176
     0
177
     0
178
     0
  0
ENDTAB
  0
ENDSEC
  0
SECTION
  2
BLOCKS
  0
BLOCK
  8
0
  2
$MODEL_SPACE
 70
     0
 10
0.0
 20
0.0
 30
0.0
  3
$MODEL_SPACE
  1

  0
ENDBLK
  5
21
  8
0
  0
BLOCK
 67
     1
  8
0
  2
$PAPER_SPACE
 70
     0
 10
0.0
 20
0.0
 30
0.0
  3
$PAPER_SPACE
  1

  0
ENDBLK
  5
1D
 67
     1
  8
0
  0
ENDSEC
  0
SECTION
  2
ENTITIES
  0
ATTDEF
  5
829
  8
DEFPOINTS
 10
352.3693254592805033
 20
31.1626316019391005
 30
0.0
 40
0.001
  1
K-72419-Y
  3

  2
MODELNUMBER
 70
     0
1001
ACDBATTR
1070
     0
1070
     1
  0
ATTDEF
  5
82A
  8
DEFPOINTS
 10
352.3693254592805033
 20
31.1609649352724283
 30
0.0
 40
0.001
  1
AWAKEN
  3

  2
TRADENAME
 70
     0
1001
ACDBATTR
1070
     0
1070
     1
  0
ATTDEF
  5
82B
  8
DEFPOINTS
 10
352.3693254592805033
 20
31.1592982686057596
 30
0.0
 40
0.001
  1
SHOWERHEAD
  3

  2
PRODUCT
 70
     0
1001
ACDBATTR
1070
     0
1070
     1
  0
LINE
  5
62CD
  8
0
 10
349.5924262401563851
 20
30.2812101518971097
 30
0.0
 11
349.5659185411374779
 21
30.2537637355458102
 31
0.0
  0
LINE
  5
62CE
  8
0
 10
349.6389717639959827
 20
30.1710857422311705
 30
0.0
 11
349.663068513952112
 21
30.1943581777507895
 31
0.0
  0
LINE
  5
62CF
  8
0
 10
350.0298662980191011
 20
29.6786263742631391
 30
0.0
 11
350.090394581246926
 21
29.61302184030124
 31
0.0
  0
LINE
  5
62D0
  8
0
 10
349.113778118744392
 20
30.9684119570201588
 30
0.0
 11
349.7685669214803283
 21
31.6118761009710809
 31
0.0
  0
LINE
  5
62D1
  8
0
 10
351.6762190022304253
 20
31.1710366436210791
 30
0.0
 11
352.0176247082803798
 21
31.5124423496710904
 31
0.0
  0
LINE
  5
62D2
  8
0
 10
351.6258332619049725
 20
30.8380865793464594
 30
0.0
 11
351.6869160364174718
 21
30.8992722158268798
 31
0.0
  0
LINE
  5
62D3
  8
0
 10
349.1136561208302851
 20
30.9404521694210786
 30
0.0
 11
352.1455032083304104
 21
27.9086050819210705
 31
0.0
  0
LINE
  5
62D4
  8
0
 10
351.6817152817012015
 20
28.1948463976166401
 30
0.0
 11
351.9065191081804187
 21
27.5029713615710811
 31
0.0
  0
LINE
  5
62D5
  8
0
 10
352.8169412393752964
 20
28.5641539289907094
 30
0.0
 11
349.7685669214803283
 21
31.6118761009710809
 31
0.0
  0
LINE
  5
62D6
  8
0
 10
352.8193068768803187
 20
28.6712064542712106
 30
0.0
 11
349.8762627472437998
 21
31.6142511096569514
 31
0.0
  0
LINE
  5
62D7
  8
0
 10
352.2277124786804166
 20
30.1292292373710815
 30
0.0
 11
352.2374977012804038
 21
30.1834695864710802
 31
0.0
  0
LINE
  5
62D8
  8
0
 10
351.7016435987072214
 20
30.9826384483924606
 30
0.0
 11
351.6591502817058768
 21
31.0852263905627488
 31
0.0
  0
LINE
  5
62D9
  8
0
 10
351.334280276580273
 20
31.0226614394710793
 30
0.0
 11
351.3885206253802949
 21
31.0324466622710808
 31
0.0
  0
LINE
  5
62DA
  8
0
 10
352.2374977012804038
 20
30.1834695864710802
 30
0.0
 11
351.3885206253802949
 21
31.0324466622710808
 31
0.0
  0
LINE
  5
62DB
  8
0
 10
352.8193068768803187
 20
28.6712064542712106
 30
0.0
 11
352.8169412393752964
 21
28.5641539289907094
 31
0.0
  0
LINE
  5
62DC
  8
0
 10
352.8169412393752964
 20
28.5641539289907094
 30
0.0
 11
352.1734629959294125
 21
27.9087270798351383
 31
0.0
  0
LINE
  5
62DD
  8
0
 10
349.8762627472437998
 20
31.6142511096569514
 30
0.0
 11
349.7685669214803283
 21
31.6118761009710809
 31
0.0
  0
LINE
  5
62DE
  8
0
 10
352.7174933885802943
 20
30.8125736693710799
 30
0.0
 11
352.0176247082803798
 21
31.5124423496710904
 31
0.0
  0
ARC
  5
62DF
  8
0
 10
298.0658641871852979
 20
-24.9089195340852712
 30
0.0
 40
76.6758515999249539
 50
46.5698607349570679
 51
47.4909343434840778
  0
ARC
  5
62E0
  8
0
 10
120.2776415563251931
 20
-185.7880301182854907
 30
0.0
 40
316.3358820325966008
 50
42.6834895366102671
 51
42.907607450512927
  0
ARC
  5
62E1
  8
0
 10
349.1275755456779848
 20
30.9543715942687392
 30
0.0
 40
0.0196850394
 50
134.5000018365007861
 51
224.9999999999996021
  0
ARC
  5
62E2
  8
0
 10
350.9139401194240122
 20
30.9166340521722987
 30
0.0
 40
0.1968464212350733
 50
226.3965491394071137
 51
311.0127405804013847
  0
ARC
  5
62E3
  8
0
 10
352.1594226331779964
 20
27.9225245067687418
 30
0.0
 40
0.0196850394
 50
224.9999999999996021
 51
315.4999981635004929
  0
ARC
  5
62E4
  8
0
 10
352.2225341914078172
 20
27.6042515535756507
 30
0.0
 40
0.0196854243899992
 50
287.8253381092803806
 51
18.4552314530607617
  0
ARC
  5
62E5
  8
0
 10
351.5965433813339018
 20
30.868831555959769
 30
0.0
 40
0.0426452650281364
 50
267.2802184585689815
 51
300.6389175160143168
  0
ARC
  5
62E6
  8
0
 10
352.1393764286976875
 20
29.7183347740585084
 30
0.0
 40
0.21259924449004
 50
152.885896595614696
 51
220.8875133652962859
  0
ARC
  5
62E7
  8
0
 10
351.7318967014944064
 20
31.1153589442890102
 30
0.0
 40
0.0787401574124296
 50
134.9999999843253136
 51
202.5000000580085953
  0
ARC
  5
62E8
  8
0
 10
351.628897178780278
 20
30.9525058947710789
 30
0.0
 40
0.0787401575000053
 50
317.462880090286319
 51
22.4999999488614897
  0
ARC
  5
62E9
  8
0
 10
351.5978876313790806
 20
30.86581905863817
 30
0.0
 40
0.0393700805107987
 50
301.189993736752001
 51
314.9999994747311121
  0
LINE
  5
62EA
  8
0
 10
352.2412072199022077
 20
27.6104832419712984
 30
0.0
 11
352.2253747214804207
 21
27.6586844201710811
 31
0.0
  0
LINE
  5
62EB
  8
0
 10
351.0431160231802892
 20
30.7681008927710806
 30
0.0
 11
351.334280276580273
 21
31.0226614394710793
 31
0.0
  0
LINE
  5
62EC
  8
0
 10
351.9501417040759179
 20
29.8152298603894685
 30
0.0
 11
352.2277124784803277
 21
30.1292292375710815
 31
0.0
  0
LINE
  5
62ED
  8
0
 10
350.5291227819457163
 20
29.4341541974903684
 30
0.0
 11
350.4959232604455792
 21
29.3997763418903695
 31
0.0
  0
LINE
  5
62EE
  8
0
 10
350.5984009596455735
 20
29.2901835896903684
 30
0.0
 11
350.6330187038457211
 21
29.3236137338903688
 31
0.0
  0
ARC
  5
62EF
  8
0
 10
350.5072747066864167
 20
29.3896065936883915
 30
0.0
 40
0.0152407057004381
 50
138.1428733912572113
 51
210.4094296206083072
  0
ARC
  5
62F0
  8
0
 10
350.7767983948364758
 20
29.5553472361317802
 30
0.0
 40
0.3316439756232987
 50
211.5347795354319942
 51
232.7684271247011054
  0
ARC
  5
62F1
  8
0
 10
350.5878820296238132
 20
29.3029922361517308
 30
0.0
 40
0.0165743570909252
 50
224.8973114638633888
 51
309.39409439372929
  0
ARC
  5
62F2
  8
0
 10
350.1444940843811082
 20
28.9685497501534215
 30
0.0
 40
0.6039261017460623
 50
36.0099834203262716
 51
50.4404098022205716
  0
ARC
  5
62F3
  8
0
 10
350.5218301000326164
 20
29.4257528336483603
 30
0.0
 40
0.0111250224220698
 50
49.0408599185589367
 51
98.9579462333280162
  0
ARC
  5
62F4
  8
0
 10
350.5366087536688724
 20
29.4376061907645514
 30
0.0
 40
0.0165335172428841
 50
182.9955940475556133
 51
215.5910453712538981
  0
ARC
  5
62F5
  8
0
 10
350.6236800124681281
 20
29.3168410828028101
 30
0.0
 40
0.0115360287533446
 50
345.0708905057906009
 51
35.9505554854800167
  0
ARC
  5
62F6
  8
0
 10
350.5923808381980962
 20
29.2614047036381208
 30
0.0
 40
0.0674845348431145
 50
51.0257624959507581
 51
58.1698090206111473
  0
LINE
  5
62F7
  8
0
 10
349.2739288337455719
 20
30.7127895193403688
 30
0.0
 11
349.240729312245719
 21
30.6784116637403699
 31
0.0
  0
LINE
  5
62F8
  8
0
 10
349.3432070114457133
 20
30.5688189115403688
 30
0.0
 11
349.3778247556455767
 21
30.6022490557403692
 31
0.0
  0
ARC
  5
62F9
  8
0
 10
349.2520807584862723
 20
30.6682419155383883
 30
0.0
 40
0.0152407057004381
 50
138.1428733912572113
 51
210.4094296206083072
  0
ARC
  5
62FA
  8
0
 10
349.5216044466366156
 20
30.8339825579817806
 30
0.0
 40
0.3316439756232987
 50
211.5347795354319942
 51
232.7684271247011054
  0
ARC
  5
62FB
  8
0
 10
349.3326880814237825
 20
30.5816275580017312
 30
0.0
 40
0.0165743570909252
 50
224.8973114638633888
 51
309.39409439372929
  0
ARC
  5
62FC
  8
0
 10
348.8893001361810207
 20
30.2471850720034183
 30
0.0
 40
0.6039261017460623
 50
36.0099834203262716
 51
50.4404098022205716
  0
ARC
  5
62FD
  8
0
 10
349.266636151832472
 20
30.7043881554983606
 30
0.0
 40
0.0111250224220698
 50
49.0408599185589367
 51
98.9579462333280162
  0
ARC
  5
62FE
  8
0
 10
349.2814148054688985
 20
30.7162415126145483
 30
0.0
 40
0.0165335172428841
 50
182.9955940475556133
 51
215.5910453712538981
  0
ARC
  5
62FF
  8
0
 10
349.3684860642682111
 20
30.5954764046528105
 30
0.0
 40
0.0115360287533446
 50
345.0708905057906009
 51
35.9505554854800167
  0
ARC
  5
6300
  8
0
 10
349.3371868899981223
 20
30.5400400254881284
 30
0.0
 40
0.0674845348431145
 50
51.0257624959507581
 51
58.1698090206111473
  0
LINE
  5
6301
  8
0
 10
349.4376247448457207
 20
30.5332090056903702
 30
0.0
 11
349.4044252233455836
 21
30.4988311500903713
 31
0.0
  0
LINE
  5
6302
  8
0
 10
349.5069029225455779
 20
30.3892383978903702
 30
0.0
 11
349.5415206667457255
 21
30.4226685420903706
 31
0.0
  0
ARC
  5
6303
  8
0
 10
349.4157766695864211
 20
30.4886614018883897
 30
0.0
 40
0.0152407057004381
 50
138.1428733912572113
 51
210.4094296206083072
  0
ARC
  5
6304
  8
0
 10
349.6853003577364802
 20
30.6544020443317784
 30
0.0
 40
0.3316439756232987
 50
211.5347795354319942
 51
232.7684271247011054
  0
ARC
  5
6305
  8
0
 10
349.4963839925238176
 20
30.402047044351729
 30
0.0
 40
0.0165743570909252
 50
224.8973114638633888
 51
309.39409439372929
  0
ARC
  5
6306
  8
0
 10
349.0529960472811126
 20
30.0676045583534091
 30
0.0
 40
0.6039261017460623
 50
36.0099834203262716
 51
50.4404098022205716
  0
ARC
  5
6307
  8
0
 10
349.4303320629326208
 20
30.5248076418483585
 30
0.0
 40
0.0111250224220698
 50
49.0408599185589367
 51
98.9579462333280162
  0
ARC
  5
6308
  8
0
 10
349.4451107165688768
 20
30.5366609989645497
 30
0.0
 40
0.0165335172428841
 50
182.9955940475556133
 51
215.5910453712538981
  0
ARC
  5
6309
  8
0
 10
349.5321819753680757
 20
30.4158958910028083
 30
0.0
 40
0.0115360287533446
 50
345.0708905057906009
 51
35.9505554854800167
  0
ARC
  5
630A
  8
0
 10
349.5008828010981006
 20
30.3604595118381191
 30
0.0
 40
0.0674845348431145
 50
51.0257624959507581
 51
58.1698090206111473
  0
LINE
  5
630B
  8
0
 10
349.6303702626457266
 20
30.3519989120903695
 30
0.0
 11
349.5971707411455895
 21
30.3176210564903705
 31
0.0
  0
LINE
  5
630C
  8
0
 10
349.6996484403456975
 20
30.2080283042903694
 30
0.0
 11
349.7342661845456746
 21
30.2414584484903699
 31
0.0
  0
ARC
  5
630D
  8
0
 10
349.608522187386427
 20
30.307451308288389
 30
0.0
 40
0.0152407057004381
 50
138.1428733912572113
 51
210.4094296206083072
  0
ARC
  5
630E
  8
0
 10
349.8780458755365999
 20
30.4731919507317812
 30
0.0
 40
0.3316439756232987
 50
211.5347795354319942
 51
232.7684271247011054
  0
ARC
  5
630F
  8
0
 10
349.6891295103238235
 20
30.2208369507517283
 30
0.0
 40
0.0165743570909252
 50
224.8973114638633888
 51
309.39409439372929
  0
ARC
  5
6310
  8
0
 10
349.2457415650811186
 20
29.886394464753419
 30
0.0
 40
0.6039261017460623
 50
36.0099834203262716
 51
50.4404098022205716
  0
ARC
  5
6311
  8
0
 10
349.6230775807326268
 20
30.3435975482483613
 30
0.0
 40
0.0111250224220698
 50
49.0408599185589367
 51
98.9579462333280162
  0
ARC
  5
6312
  8
0
 10
349.6378562343688827
 20
30.3554509053645489
 30
0.0
 40
0.0165335172428841
 50
182.9955940475556133
 51
215.5910453712538981
  0
ARC
  5
6313
  8
0
 10
349.7249274931680816
 20
30.2346857974028111
 30
0.0
 40
0.0115360287533446
 50
345.0708905057906009
 51
35.9505554854800167
  0
ARC
  5
6314
  8
0
 10
349.6936283188982202
 20
30.1792494182381184
 30
0.0
 40
0.0674845348431145
 50
51.0257624959507581
 51
58.1698090206111473
  0
LINE
  5
6315
  8
0
 10
349.7749501914464076
 20
30.1193057843443093
 30
0.0
 11
349.741750669946498
 21
30.0849279287443103
 31
0.0
  0
LINE
  5
6316
  8
0
 10
349.8442283691463786
 20
29.9753351765443092
 30
0.0
 11
349.8788461133464125
 21
30.0087653207443097
 31
0.0
  0
ARC
  5
6317
  8
0
 10
349.7531021161871081
 20
30.0747581805423287
 30
0.0
 40
0.0152407057004381
 50
138.1428733912572113
 51
210.4094296206083072
  0
ARC
  5
6318
  8
0
 10
350.0226258043372809
 20
30.240498822985721
 30
0.0
 40
0.3316439756232987
 50
211.5347795354319942
 51
232.7684271247011054
  0
ARC
  5
6319
  8
0
 10
349.8337094391246183
 20
29.9881438230056716
 30
0.0
 40
0.0165743570909252
 50
224.8973114638633888
 51
309.39409439372929
  0
ARC
  5
631A
  8
0
 10
349.3903214938817996
 20
29.6537013370073588
 30
0.0
 40
0.6039261017460623
 50
36.0099834203262716
 51
50.4404098022205716
  0
ARC
  5
631B
  8
0
 10
349.7676575095333078
 20
30.1109044205023011
 30
0.0
 40
0.0111250224220698
 50
49.0408599185589367
 51
98.9579462333280162
  0
ARC
  5
631C
  8
0
 10
349.7824361631696775
 20
30.1227577776184887
 30
0.0
 40
0.0165335172428841
 50
182.9955940475556133
 51
215.5910453712538981
  0
ARC
  5
631D
  8
0
 10
349.86950742196899
 20
30.0019926696567616
 30
0.0
 40
0.0115360287533446
 50
345.0708905057906009
 51
35.9505554854800167
  0
ARC
  5
631E
  8
0
 10
349.8382082476989012
 20
29.9465562904920688
 30
0.0
 40
0.0674845348431145
 50
51.0257624959507581
 51
58.1698090206111473
  0
LINE
  5
631F
  8
0
 10
349.9686746816760774
 20
29.955172745876979
 30
0.0
 11
349.9354751601761109
 21
29.92079489027698
 31
0.0
  0
LINE
  5
6320
  8
0
 10
350.0379528593761052
 20
29.8112021380769683
 30
0.0
 11
350.0725706035760822
 21
29.8446322822769794
 31
0.0
  0
ARC
  5
6321
  8
0
 10
349.9468266064167778
 20
29.9106251420749985
 30
0.0
 40
0.0152407057004381
 50
138.1428733912572113
 51
210.4094296206083072
  0
ARC
  5
6322
  8
0
 10
350.2163502945670075
 20
30.0763657845183907
 30
0.0
 40
0.3316439756232987
 50
211.5347795354319942
 51
232.7684271247011054
  0
ARC
  5
6323
  8
0
 10
350.0274339293541743
 20
29.8240107845383413
 30
0.0
 40
0.0165743570909252
 50
224.8973114638633888
 51
309.39409439372929
  0
ARC
  5
6324
  8
0
 10
349.5840459841115262
 20
29.4895682985400214
 30
0.0
 40
0.6039261017460623
 50
36.0099834203262716
 51
50.4404098022205716
  0
ARC
  5
6325
  8
0
 10
349.9613819997629776
 20
29.9467713820349601
 30
0.0
 40
0.0111250224220698
 50
49.0408599185589367
 51
98.9579462333280162
  0
ARC
  5
6326
  8
0
 10
349.9761606533994041
 20
29.9586247391511584
 30
0.0
 40
0.0165335172428841
 50
182.9955940475556133
 51
215.5910453712538981
  0
ARC
  5
6327
  8
0
 10
350.0632319121986029
 20
29.8378596311894206
 30
0.0
 40
0.0115360287533446
 50
345.0708905057906009
 51
35.9505554854800167
  0
ARC
  5
6328
  8
0
 10
350.0319327379286278
 20
29.7824232520247314
 30
0.0
 40
0.0674845348431145
 50
51.0257624959507581
 51
58.1698090206111473
  0
LINE
  5
6329
  8
0
 10
350.1771240124955966
 20
29.8019435247903708
 30
0.0
 11
350.1439244909955733
 21
29.7675656691903683
 31
0.0
  0
LINE
  5
632A
  8
0
 10
350.2464021901956244
 20
29.6579729169903707
 30
0.0
 11
350.2810199343957152
 21
29.6914030611903712
 31
0.0
  0
ARC
  5
632B
  8
0
 10
350.1552759372362971
 20
29.7573959209883903
 30
0.0
 40
0.0152407057004381
 50
138.1428733912572113
 51
210.4094296206083072
  0
ARC
  5
632C
  8
0
 10
350.4247996253865267
 20
29.923136563431779
 30
0.0
 40
0.3316439756232987
 50
211.5347795354319942
 51
232.7684271247011054
  0
ARC
  5
632D
  8
0
 10
350.2358832601736935
 20
29.6707815634517402
 30
0.0
 40
0.0165743570909252
 50
224.8973114638633888
 51
309.39409439372929
  0
ARC
  5
632E
  8
0
 10
349.7924953149309886
 20
29.3363390774534203
 30
0.0
 40
0.6039261017460623
 50
36.0099834203262716
 51
50.4404098022205716
  0
ARC
  5
632F
  8
0
 10
350.1698313305824968
 20
29.7935421609483591
 30
0.0
 40
0.0111250224220698
 50
49.0408599185589367
 51
98.9579462333280162
  0
ARC
  5
6330
  8
0
 10
350.1846099842189233
 20
29.8053955180645502
 30
0.0
 40
0.0165335172428841
 50
182.9955940475556133
 51
215.5910453712538981
  0
ARC
  5
6331
  8
0
 10
350.2716812430181221
 20
29.6846304101028089
 30
0.0
 40
0.0115360287533446
 50
345.0708905057906009
 51
35.9505554854800167
  0
ARC
  5
6332
  8
0
 10
350.2403820687482039
 20
29.6291940309381197
 30
0.0
 40
0.0674845348431145
 50
51.0257624959507581
 51
58.1698090206111473
  0
LINE
  5
6333
  8
0
 10
350.1109796877840949
 20
29.739256489341571
 30
0.0
 11
350.0777801662840716
 21
29.7048786337415684
 31
0.0
  0
LINE
  5
6334
  8
0
 10
350.1802578654841227
 20
29.5952858815415709
 30
0.0
 11
350.2148756096839861
 21
29.6287160257415714
 31
0.0
  0
ARC
  5
6335
  8
0
 10
350.0891316125246817
 20
29.6947088855395904
 30
0.0
 40
0.0152407057004381
 50
138.1428733912572113
 51
210.4094296206083072
  0
ARC
  5
6336
  8
0
 10
350.358655300675025
 20
29.8604495279829791
 30
0.0
 40
0.3316439756232987
 50
211.5347795354319942
 51
232.7684271247011054
  0
ARC
  5
6337
  8
0
 10
350.1697389354621919
 20
29.6080945280029297
 30
0.0
 40
0.0165743570909252
 50
224.8973114638633888
 51
309.39409439372929
  0
ARC
  5
6338
  8
0
 10
349.7263509902193732
 20
29.2736520420046098
 30
0.0
 40
0.6039261017460623
 50
36.0099834203262716
 51
50.4404098022205716
  0
ARC
  5
6339
  8
0
 10
350.1036870058709951
 20
29.7308551254995486
 30
0.0
 40
0.0111250224220698
 50
49.0408599185589367
 51
98.9579462333280162
  0
ARC
  5
633A
  8
0
 10
350.1184656595073079
 20
29.7427084826157504
 30
0.0
 40
0.0165335172428841
 50
182.9955940475556133
 51
215.5910453712538981
  0
ARC
  5
633B
  8
0
 10
350.2055369183066205
 20
29.6219433746540091
 30
0.0
 40
0.0115360287533446
 50
345.0708905057906009
 51
35.9505554854800167
  0
ARC
  5
633C
  8
0
 10
350.1742377440364749
 20
29.5665069954893198
 30
0.0
 40
0.0674845348431145
 50
51.0257624959507581
 51
58.1698090206111473
  0
LINE
  5
633D
  8
0
 10
350.3134493666117919
 20
29.5764151428666189
 30
0.0
 11
350.2802498451118254
 21
29.5420372872666199
 31
0.0
  0
LINE
  5
633E
  8
0
 10
350.3827275443118197
 20
29.4324445350666188
 30
0.0
 11
350.4173452885117968
 21
29.4658746792666193
 31
0.0
  0
ARC
  5
633F
  8
0
 10
350.291601291352606
 20
29.5318675390646384
 30
0.0
 40
0.0152407057004381
 50
138.1428733912572113
 51
210.4094296206083072
  0
ARC
  5
6340
  8
0
 10
350.561124979502722
 20
29.6976081815080306
 30
0.0
 40
0.3316439756232987
 50
211.5347795354319942
 51
232.7684271247011054
  0
ARC
  5
6341
  8
0
 10
350.3722086142900025
 20
29.4452531815279883
 30
0.0
 40
0.0165743570909252
 50
224.8973114638633888
 51
309.39409439372929
  0
ARC
  5
6342
  8
0
 10
349.9288206690472975
 20
29.1108106955296684
 30
0.0
 40
0.6039261017460623
 50
36.0099834203262716
 51
50.4404098022205716
  0
ARC
  5
6343
  8
0
 10
350.3061566846988057
 20
29.5680137790246107
 30
0.0
 40
0.0111250224220698
 50
49.0408599185589367
 51
98.9579462333280162
  0
ARC
  5
6344
  8
0
 10
350.3209353383351186
 20
29.5798671361407983
 30
0.0
 40
0.0165335172428841
 50
182.9955940475556133
 51
215.5910453712538981
  0
ARC
  5
6345
  8
0
 10
350.4080065971343174
 20
29.4591020281790605
 30
0.0
 40
0.0115360287533446
 50
345.0708905057906009
 51
35.9505554854800167
  0
ARC
  5
6346
  8
0
 10
350.3767074228642855
 20
29.4036656490143784
 30
0.0
 40
0.0674845348431145
 50
51.0257624959507581
 51
58.1698090206111473
  0
LINE
  5
6347
  8
0
 10
350.4731094604957207
 20
29.3614436156903693
 30
0.0
 11
350.4399099389955836
 21
29.3270657600903704
 31
0.0
  0
LINE
  5
6348
  8
0
 10
350.5423876381955779
 20
29.2174730078903693
 30
0.0
 11
350.5770053823957255
 21
29.2509031520903697
 31
0.0
  0
ARC
  5
6349
  8
0
 10
350.4512613852364211
 20
29.3168960118883888
 30
0.0
 40
0.0152407057004381
 50
138.1428733912572113
 51
210.4094296206083072
  0
ARC
  5
634A
  8
0
 10
350.7207850733864802
 20
29.482636654331781
 30
0.0
 40
0.3316439756232987
 50
211.5347795354319942
 51
232.7684271247011054
  0
ARC
  5
634B
  8
0
 10
350.5318687081738176
 20
29.2302816543517316
 30
0.0
 40
0.0165743570909252
 50
224.8973114638633888
 51
309.39409439372929
  0
ARC
  5
634C
  8
0
 10
350.0884807629311126
 20
28.8958391683534188
 30
0.0
 40
0.6039261017460623
 50
36.0099834203262716
 51
50.4404098022205716
  0
ARC
  5
634D
  8
0
 10
350.4658167785826208
 20
29.3530422518483611
 30
0.0
 40
0.0111250224220698
 50
49.0408599185589367
 51
98.9579462333280162
  0
ARC
  5
634E
  8
0
 10
350.4805954322188768
 20
29.3648956089645488
 30
0.0
 40
0.0165335172428841
 50
182.9955940475556133
 51
215.5910453712538981
  0
ARC
  5
634F
  8
0
 10
350.5676666910180757
 20
29.244130501002811
 30
0.0
 40
0.0115360287533446
 50
345.0708905057906009
 51
35.9505554854800167
  0
ARC
  5
6350
  8
0
 10
350.5363675167481006
 20
29.1886941218381288
 30
0.0
 40
0.0674845348431145
 50
51.0257624959507581
 51
58.1698090206111473
  0
LINE
  5
6351
  8
0
 10
350.682503298745587
 20
29.2105656478403688
 30
0.0
 11
350.6493037772456773
 21
29.1761877922403698
 31
0.0
  0
LINE
  5
6352
  8
0
 10
350.7517814764456716
 20
29.0665950400403688
 30
0.0
 11
350.7863992206455919
 21
29.1000251842403692
 31
0.0
  0
ARC
  5
6353
  8
0
 10
350.6606552234864012
 20
29.1660180440383883
 30
0.0
 40
0.0152407057004381
 50
138.1428733912572113
 51
210.4094296206083072
  0
ARC
  5
6354
  8
0
 10
350.9301789116365171
 20
29.3317586864817805
 30
0.0
 40
0.3316439756232987
 50
211.5347795354319942
 51
232.7684271247011054
  0
ARC
  5
6355
  8
0
 10
350.7412625464236839
 20
29.0794036865017311
 30
0.0
 40
0.0165743570909252
 50
224.8973114638633888
 51
309.39409439372929
  0
ARC
  5
6356
  8
0
 10
350.297874601180979
 20
28.7449612005034183
 30
0.0
 40
0.6039261017460623
 50
36.0099834203262716
 51
50.4404098022205716
  0
ARC
  5
6357
  8
0
 10
350.6752106168324872
 20
29.2021642839983606
 30
0.0
 40
0.0111250224220698
 50
49.0408599185589367
 51
98.9579462333280162
  0
ARC
  5
6358
  8
0
 10
350.6899892704689137
 20
29.2140176411145482
 30
0.0
 40
0.0165335172428841
 50
182.9955940475556133
 51
215.5910453712538981
  0
ARC
  5
6359
  8
0
 10
350.7770605292682262
 20
29.0932525331528211
 30
0.0
 40
0.0115360287533446
 50
345.0708905057906009
 51
35.9505554854800167
  0
ARC
  5
635A
  8
0
 10
350.7457613549980806
 20
29.0378161539881283
 30
0.0
 40
0.0674845348431145
 50
51.0257624959507581
 51
58.1698090206111473
  0
LINE
  5
635B
  8
0
 10
350.9015596881956185
 20
29.0773734413403702
 30
0.0
 11
350.8683601666957088
 21
29.0429955857403712
 31
0.0
  0
LINE
  5
635C
  8
0
 10
350.9708378658955894
 20
28.9334028335403701
 30
0.0
 11
351.0054556100956233
 21
28.9668329777403706
 31
0.0
  0
ARC
  5
635D
  8
0
 10
350.8797116129363758
 20
29.0328258375383896
 30
0.0
 40
0.0152407057004381
 50
138.1428733912572113
 51
210.4094296206083072
  0
ARC
  5
635E
  8
0
 10
351.1492353010864917
 20
29.1985664799817783
 30
0.0
 40
0.3316439756232987
 50
211.5347795354319942
 51
232.7684271247011054
  0
ARC
  5
635F
  8
0
 10
350.9603189358737723
 20
28.9462114800017289
 30
0.0
 40
0.0165743570909252
 50
224.8973114638633888
 51
309.39409439372929
  0
ARC
  5
6360
  8
0
 10
350.5169309906311241
 20
28.611768994003409
 30
0.0
 40
0.6039261017460623
 50
36.0099834203262716
 51
50.4404098022205716
  0
ARC
  5
6361
  8
0
 10
350.8942670062825187
 20
29.0689720774983584
 30
0.0
 40
0.0111250224220698
 50
49.0408599185589367
 51
98.9579462333280162
  0
ARC
  5
6362
  8
0
 10
350.9090456599188883
 20
29.0808254346145496
 30
0.0
 40
0.0165335172428841
 50
182.9955940475556133
 51
215.5910453712538981
  0
ARC
  5
6363
  8
0
 10
350.9961169187182008
 20
28.9600603266528083
 30
0.0
 40
0.0115360287533446
 50
345.0708905057906009
 51
35.9505554854800167
  0
ARC
  5
6364
  8
0
 10
350.9648177444481121
 20
28.904623947488119
 30
0.0
 40
0.0674845348431145
 50
51.0257624959507581
 51
58.1698090206111473
  0
LINE
  5
6365
  8
0
 10
350.8373687466431079
 20
29.015755548793841
 30
0.0
 11
350.8041692251431982
 21
28.9813776931938385
 31
0.0
  0
LINE
  5
6366
  8
0
 10
350.9066469243431925
 20
28.871784940993841
 30
0.0
 11
350.9412646685432264
 21
28.9052150851938414
 31
0.0
  0
ARC
  5
6367
  8
0
 10
350.815520671383922
 20
28.9712079449918605
 30
0.0
 40
0.0152407057004381
 50
138.1428733912572113
 51
210.4094296206083072
  0
ARC
  5
6368
  8
0
 10
351.0850443595340948
 20
29.1369485874352492
 30
0.0
 40
0.3316439756232987
 50
211.5347795354319942
 51
232.7684271247011054
  0
ARC
  5
6369
  8
0
 10
350.8961279943213185
 20
28.8845935874552104
 30
0.0
 40
0.0165743570909252
 50
224.8973114638633888
 51
309.39409439372929
  0
ARC
  5
636A
  8
0
 10
350.4527400490786135
 20
28.5501511014568798
 30
0.0
 40
0.6039261017460623
 50
36.0099834203262716
 51
50.4404098022205716
  0
ARC
  5
636B
  8
0
 10
350.8300760647301217
 20
29.0073541849518293
 30
0.0
 40
0.0111250224220698
 50
49.0408599185589367
 51
98.9579462333280162
  0
ARC
  5
636C
  8
0
 10
350.8448547183664914
 20
29.0192075420680204
 30
0.0
 40
0.0165335172428841
 50
182.9955940475556133
 51
215.5910453712538981
  0
ARC
  5
636D
  8
0
 10
350.9319259771656903
 20
28.8984424341062791
 30
0.0
 40
0.0115360287533446
 50
345.0708905057906009
 51
35.9505554854800167
  0
ARC
  5
636E
  8
0
 10
350.9006268028957152
 20
28.8430060549415899
 30
0.0
 40
0.0674845348431145
 50
51.0257624959507581
 51
58.1698090206111473
  0
LINE
  5
636F
  8
0
 10
351.0605201273643274
 20
28.8636465737701791
 30
0.0
 11
351.0273206058641904
 21
28.8292687181701801
 31
0.0
  0
LINE
  5
6370
  8
0
 10
351.1297983050642983
 20
28.719675965970179
 30
0.0
 11
351.1644160492642754
 21
28.7531061101701901
 31
0.0
  0
ARC
  5
6371
  8
0
 10
351.0386720521050279
 20
28.8190989699681985
 30
0.0
 40
0.0152407057004381
 50
138.1428733912572113
 51
210.4094296206083072
  0
ARC
  5
6372
  8
0
 10
351.3081957402552007
 20
28.9848396124115908
 30
0.0
 40
0.3316439756232987
 50
211.5347795354319942
 51
232.7684271247011054
  0
ARC
  5
6373
  8
0
 10
351.1192793750424244
 20
28.7324846124315485
 30
0.0
 40
0.0165743570909252
 50
224.8973114638633888
 51
309.39409439372929
  0
ARC
  5
6374
  8
0
 10
350.6758914297997194
 20
28.3980421264332286
 30
0.0
 40
0.6039261017460623
 50
36.0099834203262716
 51
50.4404098022205716
  0
ARC
  5
6375
  8
0
 10
351.0532274454512276
 20
28.8552452099281709
 30
0.0
 40
0.0111250224220698
 50
49.0408599185589367
 51
98.9579462333280162
  0
ARC
  5
6376
  8
0
 10
351.0680060990874836
 20
28.8670985670443585
 30
0.0
 40
0.0165335172428841
 50
182.9955940475556133
 51
215.5910453712538981
  0
ARC
  5
6377
  8
0
 10
351.1550773578867961
 20
28.7463334590826314
 30
0.0
 40
0.0115360287533446
 50
345.0708905057906009
 51
35.9505554854800167
  0
ARC
  5
6378
  8
0
 10
351.123778183616821
 20
28.6908970799179386
 30
0.0
 40
0.0674845348431145
 50
51.0257624959507581
 51
58.1698090206111473
  0
LINE
  5
6379
  8
0
 10
351.2263889931955987
 20
28.668479913590371
 30
0.0
 11
351.1931894716955753
 21
28.6341020579903685
 31
0.0
  0
LINE
  5
637A
  8
0
 10
351.2956671708956264
 20
28.5245093057903709
 30
0.0
 11
351.3302849150957172
 21
28.5579394499903714
 31
0.0
  0
ARC
  5
637B
  8
0
 10
351.2045409179364128
 20
28.6239323097883904
 30
0.0
 40
0.0152407057004381
 50
138.1428733912572113
 51
210.4094296206083072
  0
ARC
  5
637C
  8
0
 10
351.4740646060864719
 20
28.7896729522317791
 30
0.0
 40
0.3316439756232987
 50
211.5347795354319942
 51
232.7684271247011054
  0
ARC
  5
637D
  8
0
 10
351.2851482408738093
 20
28.5373179522517404
 30
0.0
 40
0.0165743570909252
 50
224.8973114638633888
 51
309.39409439372929
  0
ARC
  5
637E
  8
0
 10
350.8417602956309906
 20
28.2028754662534098
 30
0.0
 40
0.6039261017460623
 50
36.0099834203262716
 51
50.4404098022205716
  0
ARC
  5
637F
  8
0
 10
351.2190963112824988
 20
28.6600785497483486
 30
0.0
 40
0.0111250224220698
 50
49.0408599185589367
 51
98.9579462333280162
  0
ARC
  5
6380
  8
0
 10
351.2338749649189253
 20
28.6719319068645504
 30
0.0
 40
0.0165335172428841
 50
182.9955940475556133
 51
215.5910453712538981
  0
ARC
  5
6381
  8
0
 10
351.3209462237181242
 20
28.5511667989028091
 30
0.0
 40
0.0115360287533446
 50
345.0708905057906009
 51
35.9505554854800167
  0
ARC
  5
6382
  8
0
 10
351.289647049448206
 20
28.4957304197381198
 30
0.0
 40
0.0674845348431145
 50
51.0257624959507581
 51
58.1698090206111473
  0
LINE
  5
6383
  8
0
 10
351.4476708628458823
 20
28.5337750209683385
 30
0.0
 11
351.4144713413459158
 21
28.4993971653683396
 31
0.0
  0
LINE
  5
6384
  8
0
 10
351.5169490405459101
 20
28.3898044131683385
 30
0.0
 11
351.5515667847458872
 21
28.4232345573683389
 31
0.0
  0
ARC
  5
6385
  8
0
 10
351.4258227875865828
 20
28.4892274171663615
 30
0.0
 40
0.0152407057004381
 50
138.1428733912572113
 51
210.4094296206083072
  0
ARC
  5
6386
  8
0
 10
351.6953464757368124
 20
28.6549680596097502
 30
0.0
 40
0.3316439756232987
 50
211.5347795354319942
 51
232.7684271247011054
  0
ARC
  5
6387
  8
0
 10
351.5064301105239792
 20
28.4026130596297008
 30
0.0
 40
0.0165743570909252
 50
224.8973114638633888
 51
309.39409439372929
  0
ARC
  5
6388
  8
0
 10
351.0630421652812743
 20
28.0681705736313916
 30
0.0
 40
0.6039261017460623
 50
36.0099834203262716
 51
50.4404098022205716
  0
ARC
  5
6389
  8
0
 10
351.4403781809327825
 20
28.5253736571263303
 30
0.0
 40
0.0111250224220698
 50
49.0408599185589367
 51
98.9579462333280162
  0
ARC
  5
638A
  8
0
 10
351.4551568345690953
 20
28.5372270142425215
 30
0.0
 40
0.0165335172428841
 50
182.9955940475556133
 51
215.5910453712538981
  0
ARC
  5
638B
  8
0
 10
351.5422280933684078
 20
28.4164619062807908
 30
0.0
 40
0.0115360287533446
 50
345.0708905057906009
 51
35.9505554854800167
  0
ARC
  5
638C
  8
0
 10
351.5109289190983759
 20
28.3610255271161016
 30
0.0
 40
0.0674845348431145
 50
51.0257624959507581
 51
58.1698090206111473
  0
LINE
  5
638D
  8
0
 10
351.6272680625456246
 20
28.3420119748903687
 30
0.0
 11
351.5940685410456013
 21
28.3076341192903698
 31
0.0
  0
LINE
  5
638E
  8
0
 10
351.6965462402457092
 20
28.1980413670903687
 30
0.0
 11
351.7311639844455726
 21
28.2314715112903691
 31
0.0
  0
ARC
  5
638F
  8
0
 10
351.6054199872863251
 20
28.2974643710883917
 30
0.0
 40
0.0152407057004381
 50
138.1428733912572113
 51
210.4094296206083072
  0
ARC
  5
6390
  8
0
 10
351.8749436754366116
 20
28.4632050135317805
 30
0.0
 40
0.3316439756232987
 50
211.5347795354319942
 51
232.7684271247011054
  0
ARC
  5
6391
  8
0
 10
351.6860273102237784
 20
28.2108500135517311
 30
0.0
 40
0.0165743570909252
 50
224.8973114638633888
 51
309.39409439372929
  0
ARC
  5
6392
  8
0
 10
351.2426393649810166
 20
27.8764075275534218
 30
0.0
 40
0.6039261017460623
 50
36.0099834203262716
 51
50.4404098022205716
  0
ARC
  5
6393
  8
0
 10
351.6199753806325248
 20
28.3336106110483605
 30
0.0
 40
0.0111250224220698
 50
49.0408599185589367
 51
98.9579462333280162
  0
ARC
  5
6394
  8
0
 10
351.6347540342688944
 20
28.3454639681645517
 30
0.0
 40
0.0165335172428841
 50
182.9955940475556133
 51
215.5910453712538981
  0
ARC
  5
6395
  8
0
 10
351.7218252930680933
 20
28.2246988602028104
 30
0.0
 40
0.0115360287533446
 50
345.0708905057906009
 51
35.9505554854800167
  0
ARC
  5
6396
  8
0
 10
351.6905261187981182
 20
28.1692624810381282
 30
0.0
 40
0.0674845348431145
 50
51.0257624959507581
 51
58.1698090206111473
  0
LINE
  5
6397
  8
0
 10
351.8167667402435086
 20
28.1704303219239698
 30
0.0
 11
351.7835672187434852
 21
28.1360524663239708
 31
0.0
  0
LINE
  5
6398
  8
0
 10
351.8860449179434795
 20
28.0264597141239697
 30
0.0
 11
351.9206626621435134
 21
28.0598898583239702
 31
0.0
  0
ARC
  5
6399
  8
0
 10
351.794918664984209
 20
28.1258827181219893
 30
0.0
 40
0.0152407057004381
 50
138.1428733912572113
 51
210.4094296206083072
  0
ARC
  5
639A
  8
0
 10
352.0644423531343818
 20
28.2916233605653815
 30
0.0
 40
0.3316439756232987
 50
211.5347795354319942
 51
232.7684271247011054
  0
ARC
  5
639B
  8
0
 10
351.8755259879216055
 20
28.0392683605853286
 30
0.0
 40
0.0165743570909252
 50
224.8973114638633888
 51
309.39409439372929
  0
ARC
  5
639C
  8
0
 10
351.4321380426789005
 20
27.7048258745870193
 30
0.0
 40
0.6039261017460623
 50
36.0099834203262716
 51
50.4404098022205716
  0
ARC
  5
639D
  8
0
 10
351.8094740583304088
 20
28.1620289580819616
 30
0.0
 40
0.0111250224220698
 50
49.0408599185589367
 51
98.9579462333280162
  0
ARC
  5
639E
  8
0
 10
351.8242527119667784
 20
28.1738823151981492
 30
0.0
 40
0.0165335172428841
 50
182.9955940475556133
 51
215.5910453712538981
  0
ARC
  5
639F
  8
0
 10
351.9113239707659773
 20
28.0531172072364186
 30
0.0
 40
0.0115360287533446
 50
345.0708905057906009
 51
35.9505554854800167
  0
ARC
  5
63A0
  8
0
 10
351.8800247964960022
 20
27.9976808280717293
 30
0.0
 40
0.0674845348431145
 50
51.0257624959507581
 51
58.1698090206111473
  0
ARC
  5
63A1
  8
0
 10
352.0782613873690821
 20
27.9472018530759314
 30
0.0
 40
0.0178194212083807
 50
135.165918216193603
 51
227.9642771818652136
  0
ARC
  5
63A2
  8
0
 10
351.5529088352465124
 20
27.45375120138387
 30
0.0
 40
0.7029992832932763
 50
16.948540853225829
 51
43.0860159085356216
  0
LINE
  5
63A3
  8
0
 10
352.2285602214440132
 20
27.5855111454846593
 30
0.0
 11
351.9317394962770891
 21
27.490072160298741
 31
0.0
  0
ARC
  5
63A4
  8
0
 10
351.9271255016324744
 20
27.512155849279111
 30
0.0
 40
0.022560546659207
 50
204.0230389688381933
 51
281.8011725108337941
  0
ARC
  5
63A5
  8
0
 10
349.5743246226917904
 20
30.2453312065577613
 30
0.0
 40
0.0119067103866749
 50
134.9100088999286982
 51
220.1497093332563111
  0
ARC
  5
63A6
  8
0
 10
349.6304596337129738
 20
30.1824808194098892
 30
0.0
 40
0.0142233661931639
 50
240.5292492410333978
 51
306.7597558709529721
  0
LINE
  5
63A7
  8
0
 10
349.565223582430292
 20
30.2376539141710801
 30
0.0
 11
349.6234620336302896
 21
30.1700978577710792
 31
0.0
  0
LINE
  5
63A8
  8
0
 10
349.412805470366493
 20
30.4653669604863993
 30
0.0
 11
349.399057038587614
 21
30.4511316553958196
 31
0.0
  0
LINE
  5
63A9
  8
0
 10
349.4721102614461188
 20
30.3684536620811798
 30
0.0
 11
349.4907529152329744
 21
30.3864585780537801
 31
0.0
  0
ARC
  5
63AA
  8
0
 10
349.4074631201419265
 20
30.4426991264077706
 30
0.0
 40
0.0119067103866749
 50
134.9100088999286982
 51
220.1497093332563111
  0
ARC
  5
63AB
  8
0
 10
349.4635981311629962
 20
30.3798487392598986
 30
0.0
 40
0.0142233661931639
 50
240.5292492410333978
 51
306.7597558709529721
  0
LINE
  5
63AC
  8
0
 10
349.3983620798804282
 20
30.4350218340210787
 30
0.0
 11
349.4566005310804258
 21
30.3674657776210886
 31
0.0
  0
LINE
  5
63AD
  8
0
 10
349.7462784399352245
 20
30.0571416285394584
 30
0.0
 11
349.7315791177138067
 21
30.0419217591165797
 31
0.0
  0
LINE
  5
63AE
  8
0
 10
349.8046323405723115
 20
29.9592437658019293
 30
0.0
 11
349.82220353858321
 21
29.9762138789274495
 31
0.0
  0
ARC
  5
63AF
  8
0
 10
349.7399851992681192
 20
30.0334892301285308
 30
0.0
 40
0.0119067103866749
 50
134.9100088999286982
 51
220.1497093332563111
  0
ARC
  5
63B0
  8
0
 10
349.7961202102893026
 20
29.9706388429806587
 30
0.0
 40
0.0142233661931639
 50
240.5292492410333978
 51
306.7597558709529721
  0
LINE
  5
63B1
  8
0
 10
349.7308841590066208
 20
30.0258119377418389
 30
0.0
 11
349.7891226102066184
 21
29.9582558813418487
 31
0.0
  0
LINE
  5
63B2
  8
0
 10
349.9248774278199221
 20
29.8851383476625116
 30
0.0
 11
349.899993764469798
 21
29.859373478966539
 31
0.0
  0
LINE
  5
63B3
  8
0
 10
349.9730469873283027
 20
29.7766954856518993
 30
0.0
 11
349.9986439551389026
 21
29.8014168187759907
 31
0.0
  0
ARC
  5
63B4
  8
0
 10
349.9083998460241105
 20
29.8509409499784901
 30
0.0
 40
0.0119067103866749
 50
134.9100088999286982
 51
220.1497093332563111
  0
ARC
  5
63B5
  8
0
 10
349.9645348570452938
 20
29.7880905628306216
 30
0.0
 40
0.0142233661931639
 50
240.5292492410333978
 51
306.7597558709529721
  0
LINE
  5
63B6
  8
0
 10
349.8992988057626121
 20
29.8432636575918018
 30
0.0
 11
349.9575372569626097
 21
29.7757076011918116
 31
0.0
  0
LINE
  5
63B7
  8
0
 10
350.0628117347670241
 20
29.7297426622348908
 30
0.0
 11
350.0310703758786985
 21
29.6954346505283517
 31
0.0
  0
LINE
  5
63B8
  8
0
 10
350.1058795639530103
 20
29.6143420532816002
 30
0.0
 11
350.1207775553161241
 21
29.6293610063506705
 31
0.0
  0
ARC
  5
63B9
  8
0
 10
350.0420180736634279
 20
29.68620313533199
 30
0.0
 40
0.0143203686965116
 50
139.8611394867828039
 51
211.9439771678133866
  0
ARC
  5
63BA
  8
0
 10
350.0971250603097928
 20
29.62555199582496
 30
0.0
 40
0.0142233661931639
 50
241.7578647120492121
 51
307.9883713419686728
  0
LINE
  5
63BB
  8
0
 10
350.1107348583802832
 20
29.5947456608210793
 30
0.0
 11
350.1712631416082218
 21
29.5291411268591908
 31
0.0
  0
LINE
  5
63BC
  8
0
 10
350.1247211164860005
 20
29.6253697031679408
 30
0.0
 11
350.111938936240108
 21
29.6115539370862884
 31
0.0
  0
LINE
  5
63BD
  8
0
 10
350.1867481243143061
 20
29.530461339839551
 30
0.0
 11
350.2173781689356815
 21
29.5613400798966097
 31
0.0
  0
ARC
  5
63BE
  8
0
 10
350.1228866340247237
 20
29.6023224218899301
 30
0.0
 40
0.0143203686965116
 50
139.8611394867828039
 51
211.9439771678133866
  0
ARC
  5
63BF
  8
0
 10
350.1779936206709749
 20
29.5416712823829108
 30
0.0
 40
0.0142233661931639
 50
241.7578647120492121
 51
307.9883713419686728
  0
LINE
  5
63C0
  8
0
 10
350.2069084254681002
 20
29.4934432375532012
 30
0.0
 11
350.2674367086959251
 21
29.4278387035912985
 31
0.0
  0
LINE
  5
63C1
  8
0
 10
350.2364892940486243
 20
29.5409228934424384
 30
0.0
 11
350.2081125033278113
 21
29.5102515138184103
 31
0.0
  0
LINE
  5
63C2
  8
0
 10
350.2829216914021231
 20
29.4291589165716694
 30
0.0
 11
350.3132760099992993
 21
29.4597596918939608
 31
0.0
  0
ARC
  5
63C3
  8
0
 10
350.219060201112427
 20
29.5010199986220485
 30
0.0
 40
0.0143203686965116
 50
139.8611394867828039
 51
211.9439771678133866
  0
ARC
  5
63C4
  8
0
 10
350.2741671877587919
 20
29.4403688591150186
 30
0.0
 40
0.0142233661931639
 50
241.7578647120492121
 51
307.9883713419686728
  0
LINE
  5
63C5
  8
0
 10
350.2801286714185949
 20
29.4274551122366397
 30
0.0
 11
350.3379535385664099
 21
29.3647807184105005
 31
0.0
  0
LINE
  5
63C6
  8
0
 10
350.3534385212724942
 20
29.3661009313908714
 30
0.0
 11
350.3787585379573102
 21
29.3916265296429984
 31
0.0
  0
ARC
  5
63C7
  8
0
 10
350.3446840176292767
 20
29.3773108739342206
 30
0.0
 40
0.0142233661931639
 50
241.7578647120492121
 51
307.9883713419686728
  0
LINE
  5
63C8
  8
0
 10
350.3894274622583112
 20
29.3134792788965903
 30
0.0
 11
350.4499557454860792
 21
29.2478747449346912
 31
0.0
  0
LINE
  5
63C9
  8
0
 10
350.4139129552186773
 20
29.3554515396223508
 30
0.0
 11
350.3906315401180223
 21
29.3302875551617888
 31
0.0
  0
LINE
  5
63CA
  8
0
 10
350.4654407281922204
 20
29.2491949579150585
 30
0.0
 11
350.4755428033886915
 21
29.2593790551922588
 31
0.0
  0
ARC
  5
63CB
  8
0
 10
350.4015792379025811
 20
29.3210560399654412
 30
0.0
 40
0.0143203686965116
 50
139.8611394867828039
 51
211.9439771678133866
  0
ARC
  5
63CC
  8
0
 10
350.4566862245490029
 20
29.2604049004584112
 30
0.0
 40
0.0142233661931639
 50
241.7578647120492121
 51
307.9883713419686728
  0
LINE
  5
63CD
  8
0
 10
350.4588505082688812
 20
29.2463471615988198
 30
0.0
 11
350.5182595714663876
 21
29.1819557119105006
 31
0.0
  0
LINE
  5
63CE
  8
0
 10
350.5337445541724719
 20
29.1832759248908715
 30
0.0
 11
350.5591549509917968
 21
29.2088926371035811
 31
0.0
  0
ARC
  5
63CF
  8
0
 10
350.5249900505293112
 20
29.1944858674342207
 30
0.0
 40
0.0142233661931639
 50
241.7578647120492121
 51
307.9883713419686728
  0
ARC
  5
63D0
  8
0
 10
359.7976184741497718
 20
38.509591749721892
 30
0.0
 40
13.1092414827167101
 50
217.2090482008078141
 51
217.6156496138673049
  0
ARC
  5
63D1
  8
0
 10
359.7976184741497718
 20
38.509591749721892
 30
0.0
 40
13.1092414827167101
 50
218.2768078796771931
 51
219.9515080458288878
  0
ARC
  5
63D2
  8
0
 10
359.7976184741497718
 20
38.509591749721892
 30
0.0
 40
13.1092414827167101
 50
220.6100098825031921
 51
222.1702214595918008
  0
ARC
  5
63D3
  8
0
 10
359.7976184741497718
 20
38.509591749721892
 30
0.0
 40
13.1092414827167101
 50
222.8269909232074895
 51
224.4584918797025068
  0
ARC
  5
63D4
  8
0
 10
359.7976184741497718
 20
38.509591749721892
 30
0.0
 40
13.1092414827167101
 50
225.1144404347020043
 51
226.6621293458181015
  0
ARC
  5
63D5
  8
0
 10
359.7976184741497718
 20
38.509591749721892
 30
0.0
 40
13.1092414827167101
 50
227.3089724506409084
 51
228.9546097256512098
  0
ARC
  5
63D6
  8
0
 10
359.7976184741497718
 20
38.509591749721892
 30
0.0
 40
13.1092414827167101
 50
229.5889234476649108
 51
231.2782235196982867
  0
ARC
  5
63D7
  8
0
 10
359.7976184741497718
 20
38.509591749721892
 30
0.0
 40
13.1092414827167101
 50
231.8480997003260029
 51
232.3120660463299032
  0
ARC
  5
63D8
  8
0
 10
363.9950466251978014
 20
42.605763525670092
 30
0.0
 40
18.929753499915499
 50
230.2957690279571921
 51
230.7758603556551975
  0
LINE
  5
63D9
  8
0
 10
350.5730458256874726
 20
29.1375052862475208
 30
0.0
 11
350.6335741089152975
 21
29.0719007522856288
 31
0.0
  0
LINE
  5
63DA
  8
0
 10
350.5933948561424245
 20
29.1750066040447997
 30
0.0
 11
350.5742499035472974
 21
29.1543135625127299
 31
0.0
  0
LINE
  5
63DB
  8
0
 10
350.6490590916213819
 20
29.073220965265989
 30
0.0
 11
350.6729093931348871
 21
29.0972649152444589
 31
0.0
  0
ARC
  5
63DC
  8
0
 10
350.5851976013317994
 20
29.1450820473163716
 30
0.0
 40
0.0143203686965116
 50
139.8611394867828039
 51
211.9439771678133866
  0
ARC
  5
63DD
  8
0
 10
350.6403045879782212
 20
29.0844309078093488
 30
0.0
 40
0.0142233661931639
 50
241.7578647120492121
 51
307.9883713419686728
  0
LINE
  5
63DE
  8
0
 10
350.6367161890021862
 20
29.07066764007768
 30
0.0
 11
350.6951010927803054
 21
29.0073862417210897
 31
0.0
  0
LINE
  5
63DF
  8
0
 10
350.7105860754865034
 20
29.0087064547014499
 30
0.0
 11
350.7371111888522819
 21
29.0354469342120716
 31
0.0
  0
ARC
  5
63E0
  8
0
 10
350.7018315718432859
 20
29.0199163972447991
 30
0.0
 40
0.0142233661931639
 50
241.7578647120492121
 51
307.9883713419686728
  0
LINE
  5
63E1
  8
0
 10
350.7018871699257829
 20
29.005693139716449
 30
0.0
 11
350.7605557536371066
 21
28.9421042703923703
 31
0.0
  0
LINE
  5
63E2
  8
0
 10
350.7760407363431909
 20
28.9434244833727305
 30
0.0
 11
350.8005860070579729
 21
28.9681690452367597
 31
0.0
  0
ARC
  5
63E3
  8
0
 10
350.7672862326999734
 20
28.9546344259160904
 30
0.0
 40
0.0142233661931639
 50
241.7578647120492121
 51
307.9883713419686728
  0
LINE
  5
63E4
  8
0
 10
350.7901210646526238
 20
28.9221450947829801
 30
0.0
 11
350.8506493478802781
 21
28.856540560821081
 31
0.0
  0
LINE
  5
63E5
  8
0
 10
350.8071067095536932
 20
28.9560110587392714
 30
0.0
 11
350.791325142512278
 21
28.9389533710481892
 31
0.0
  0
LINE
  5
63E6
  8
0
 10
350.8661343305864762
 20
28.8578607738014483
 30
0.0
 11
350.8824888862520766
 21
28.8743481174990286
 31
0.0
  0
ARC
  5
63E7
  8
0
 10
350.8022728402968937
 20
28.929721855851831
 30
0.0
 40
0.0143203686965116
 50
139.8611394867828039
 51
211.9439771678133866
  0
ARC
  5
63E8
  8
0
 10
350.8573798269432018
 20
28.869070716344801
 30
0.0
 40
0.0142233661931639
 50
241.7578647120492121
 51
307.9883713419686728
  0
LINE
  5
63E9
  8
0
 10
350.8603378492832121
 20
28.8551583387729913
 30
0.0
 11
350.8911754695558898
 21
28.8217344979072685
 31
0.0
  0
LINE
  5
63EA
  8
0
 10
350.9066604522619741
 20
28.8230547108876287
 30
0.0
 11
350.9341969846008737
 21
28.8508148214155398
 31
0.0
  0
ARC
  5
63EB
  8
0
 10
350.8979059486188135
 20
28.8342646534309885
 30
0.0
 40
0.0142233661931639
 50
241.7578647120492121
 51
307.9883713419686728
  0
LINE
  5
63EC
  8
0
 10
350.984873184714786
 20
28.7465298520734684
 30
0.0
 11
351.0454014679426109
 21
28.6809253181115693
 31
0.0
  0
LINE
  5
63ED
  8
0
 10
351.0062725132657988
 20
28.7851663966108404
 30
0.0
 11
350.9860772625744971
 21
28.7633381283386811
 31
0.0
  0
LINE
  5
63EE
  8
0
 10
351.0608864506488089
 20
28.6822455310919402
 30
0.0
 11
351.0892235660746223
 21
28.7108127249050291
 31
0.0
  0
ARC
  5
63EF
  8
0
 10
350.9970249603591128
 20
28.7541066131423193
 30
0.0
 40
0.0143203686965116
 50
139.8611394867828039
 51
211.9439771678133866
  0
ARC
  5
63F0
  8
0
 10
351.0521319470054777
 20
28.6934554736352894
 30
0.0
 40
0.0142233661931639
 50
241.7578647120492121
 51
307.9883713419686728
  0
LINE
  5
63F1
  8
0
 10
351.1794993453526104
 20
28.58199535603298
 30
0.0
 11
351.2400276285803216
 21
28.5163908220710915
 31
0.0
  0
LINE
  5
63F2
  8
0
 10
351.1935754738963169
 20
28.6127165358733713
 30
0.0
 11
351.1807034232123215
 21
28.5988036322981891
 31
0.0
  0
LINE
  5
63F3
  8
0
 10
351.2555126112865196
 20
28.5177110350514518
 30
0.0
 11
351.2677320736036108
 21
28.5300297112136789
 31
0.0
  0
ARC
  5
63F4
  8
0
 10
351.1916511209968803
 20
28.5895721171018309
 30
0.0
 40
0.0143203686965116
 50
139.8611394867828039
 51
211.9439771678133866
  0
ARC
  5
63F5
  8
0
 10
351.2467581076431884
 20
28.5289209775948116
 30
0.0
 40
0.0142233661931639
 50
241.7578647120492121
 51
307.9883713419686728
  0
LINE
  5
63F6
  8
0
 10
351.3783707220006818
 20
28.420004684941059
 30
0.0
 11
351.4425274507602239
 21
28.3579438913451582
 31
0.0
  0
LINE
  5
63F7
  8
0
 10
351.390439262119628
 20
28.4511848207401705
 30
0.0
 11
351.3786181930462931
 21
28.4368542164651501
 31
0.0
  0
LINE
  5
63F8
  8
0
 10
351.457912452206017
 20
28.3601414768917515
 30
0.0
 11
351.4758498531551822
 21
28.3804072183388101
 31
0.0
  0
ARC
  5
63F9
  8
0
 10
351.3900725426165081
 20
28.4282594020095409
 30
0.0
 40
0.0143203686965116
 50
143.1171318264325976
 51
215.1999695074624128
  0
ARC
  5
63FA
  8
0
 10
351.4485353872386213
 20
28.3708360922874405
 30
0.0
 40
0.0142233661931639
 50
245.0138570516990058
 51
311.2443636816176991
  0
LINE
  5
63FB
  8
0
 10
351.5736568160527895
 20
28.2486106236119703
 30
0.0
 11
351.6419793511619218
 21
28.191167964001469
 31
0.0
  0
LINE
  5
63FC
  8
0
 10
351.589123483321373
 20
28.2883969938372104
 30
0.0
 11
351.572730386506521
 21
28.2654364871201302
 31
0.0
  0
LINE
  5
63FD
  8
0
 10
351.6571739805663128
 20
28.1944315339773688
 30
0.0
 11
351.6658735148604933
 21
28.2057610496796016
 31
0.0
  0
ARC
  5
63FE
  8
0
 10
351.5847554229944762
 20
28.2576601475529401
 30
0.0
 40
0.0143203686965116
 50
147.110096144985306
 51
219.1929338260152917
  0
ARC
  5
63FF
  8
0
 10
351.6470749688087949
 20
28.2044472270330715
 30
0.0
 40
0.0142233661931639
 50
249.0068213702510036
 51
315.2373280001731928
  0
LINE
  5
6400
  8
0
 10
350.0751039294826228
 20
29.7161326362151108
 30
0.0
 11
350.0435398850315778
 21
29.6820162768510905
 31
0.0
  0
ARC
  5
6401
  8
0
 10
350.0553360974964221
 20
29.6727014836668204
 30
0.0
 40
0.015030502339566
 50
141.7038712538762013
 51
210.6918297479363957
  0
LINE
  5
6402
  8
0
 10
350.1098589648648272
 20
29.6411595148618012
 30
0.0
 11
350.0949679020873759
 21
29.6276738417721113
 31
0.0
  0
ARC
  5
6403
  8
0
 10
350.0856152680674995
 20
29.6400084573519393
 30
0.0
 40
0.0154794865746067
 50
239.8983547969714039
 51
307.1709630577813073
  0
LINE
  5
6404
  8
0
 10
350.138018812870996
 20
29.6128464851567905
 30
0.0
 11
350.1244084453928735
 21
29.5981355634090306
 31
0.0
  0
ARC
  5
6405
  8
0
 10
350.1362046578577178
 20
29.5888207702247605
 30
0.0
 40
0.015030502339566
 50
141.7038712538758034
 51
210.6918297479363957
  0
LINE
  5
6406
  8
0
 10
350.2072267377820936
 20
29.5722208502240598
 30
0.0
 11
350.1758364624486717
 21
29.5437931283300514
 31
0.0
  0
ARC
  5
6407
  8
0
 10
350.1664838284287953
 20
29.5561277439098902
 30
0.0
 40
0.0154794865746067
 50
239.8983547969714039
 51
307.1709630577813073
  0
LINE
  5
6408
  8
0
 10
350.2490257988076792
 20
29.5275769327343909
 30
0.0
 11
350.2205820124805769
 21
29.496833140141149
 31
0.0
  0
ARC
  5
6409
  8
0
 10
350.2323782249454212
 20
29.4875183469568789
 30
0.0
 40
0.015030502339566
 50
141.7038712538758034
 51
210.6918297479363957
  0
LINE
  5
640A
  8
0
 10
350.3029925560209108
 20
29.4705491606544605
 30
0.0
 11
350.2720100295364887
 21
29.4424907050621698
 31
0.0
  0
ARC
  5
640B
  8
0
 10
350.2626573955164986
 20
29.4548253206420014
 30
0.0
 40
0.0154794865746067
 50
239.8983547969714039
 51
307.1709630577813073
  0
LINE
  5
640C
  8
0
 10
350.3155968581023103
 20
29.4573280369819415
 30
0.0
 11
350.292450550391095
 21
29.432310084892471
 31
0.0
  0
ARC
  5
640D
  8
0
 10
350.3042467628558825
 20
29.4229952917082009
 30
0.0
 40
0.015030502339566
 50
141.7038712538758034
 51
210.6918297479363957
  0
LINE
  5
640E
  8
0
 10
350.3695151216605268
 20
29.4011846756523312
 30
0.0
 11
350.3438785674468932
 21
29.3779676498134883
 31
0.0
  0
ARC
  5
640F
  8
0
 10
350.3345259334270168
 20
29.3903022653933199
 30
0.0
 40
0.0154794865746067
 50
239.8983547969714039
 51
307.1709630577813073
  0
LINE
  5
6410
  8
0
 10
350.4266932173532041
 20
29.3423690468684804
 30
0.0
 11
350.4031010492707878
 21
29.3168691814845417
 31
0.0
  0
ARC
  5
6411
  8
0
 10
350.4148972617355753
 20
29.3075543883002716
 30
0.0
 40
0.015030502339566
 50
141.7038712538758034
 51
210.6918297479363957
  0
LINE
  5
6412
  8
0
 10
350.4647784984367718
 20
29.2718088569478994
 30
0.0
 11
350.4545290663266996
 21
29.262526746405559
 31
0.0
  0
ARC
  5
6413
  8
0
 10
350.4451764323067096
 20
29.2748613619853906
 30
0.0
 40
0.0154794865746067
 50
239.8983547969714039
 51
307.1709630577813073
  0
LINE
  5
6414
  8
0
 10
350.4779268100833178
 20
29.2567880534670905
 30
0.0
 11
350.4719644852661986
 21
29.2503436063235611
 31
0.0
  0
ARC
  5
6415
  8
0
 10
350.4837606977309861
 20
29.241028813139291
 30
0.0
 40
0.015030502339566
 50
141.7038712538758034
 51
210.6918297479363957
  0
LINE
  5
6416
  8
0
 10
350.5488941563563117
 20
29.2190960285219106
 30
0.0
 11
350.5233925023221104
 21
29.1960011712445784
 31
0.0
  0
ARC
  5
6417
  8
0
 10
350.5140398683021772
 20
29.20833578682441
 30
0.0
 40
0.0154794865746067
 50
239.8983547969714039
 51
307.1709630577813073
  0
LINE
  5
6418
  8
0
 10
350.606416349887013
 20
29.1621848492426494
 30
0.0
 11
350.5867194127000062
 21
29.1408951888354686
 31
0.0
  0
ARC
  5
6419
  8
0
 10
350.5985156251647936
 20
29.1315803956511985
 30
0.0
 40
0.015030502339566
 50
141.7038712538758034
 51
210.6918297479363957
  0
LINE
  5
641A
  8
0
 10
350.6618396966654245
 20
29.1080089903644783
 30
0.0
 11
350.638147429755918
 21
29.0865527537564894
 31
0.0
  0
ARC
  5
641B
  8
0
 10
350.6287947957359279
 20
29.0988873693363317
 30
0.0
 40
0.0154794865746067
 50
239.8983547969714039
 51
307.1709630577813073
  0
LINE
  5
641C
  8
0
 10
350.7272544192368855
 20
29.0448831877256808
 30
0.0
 11
350.7007461033456934
 21
29.0208766753892995
 31
0.0
  0
ARC
  5
641D
  8
0
 10
350.691393469325817
 20
29.0332112909691418
 30
0.0
 40
0.0154794865746067
 50
239.8983547969714039
 51
307.1709630577813073
  0
LINE
  5
641E
  8
0
 10
350.7869294744583044
 20
28.9880532184224897
 30
0.0
 11
350.7593215361130774
 21
28.9630508638713486
 31
0.0
  0
ARC
  5
641F
  8
0
 10
350.749968902093201
 20
28.9753854794511803
 30
0.0
 40
0.0154794865746067
 50
239.8983547969714039
 51
307.1709630577813073
  0
LINE
  5
6420
  8
0
 10
350.8177541035033755
 20
28.9406232309519815
 30
0.0
 11
350.8037946516651004
 21
28.9255349973709315
 31
0.0
  0
ARC
  5
6421
  8
0
 10
350.8155908641298879
 20
28.9162202041866614
 30
0.0
 40
0.015030502339566
 50
141.7038712538758034
 51
210.6918297479363957
  0
LINE
  5
6422
  8
0
 10
350.8699421367084028
 20
28.8845228353759609
 30
0.0
 11
350.8552226687208986
 21
28.8711925622919487
 31
0.0
  0
ARC
  5
6423
  8
0
 10
350.8458700347010222
 20
28.8835271778717804
 30
0.0
 40
0.0154794865746067
 50
239.8983547969714039
 51
307.1709630577813073
  0
LINE
  5
6424
  8
0
 10
350.9216588775245782
 20
28.8623354821991711
 30
0.0
 11
350.8945001073432763
 21
28.837739904189899
 31
0.0
  0
ARC
  5
6425
  8
0
 10
350.8851474733233999
 20
28.8500745197697306
 30
0.0
 40
0.0154794865746067
 50
239.8983547969714039
 51
307.1709630577813073
  0
LINE
  5
6426
  8
0
 10
350.5066077085857046
 20
29.410840007832789
 30
0.0
 11
350.2383894556197106
 21
29.6543977819174209
 31
0.0
  0
LINE
  5
6427
  8
0
 10
349.8726922601684919
 20
30.0028225823054591
 30
0.0
 11
349.9432427805930956
 21
29.9288382029810407
 31
0.0
  0
LINE
  5
6428
  8
0
 10
350.0470456572402895
 20
29.8199829974543817
 30
0.0
 11
350.2962710964906137
 21
29.5586271729500289
 31
0.0
  0
LINE
  5
6429
  8
0
 10
350.8046028731408796
 20
28.9818267324442402
 30
0.0
 11
350.7319762120187079
 21
29.065675128445811
 31
0.0
  0
LINE
  5
642A
  8
0
 10
350.6454201093292795
 20
29.1656052403704216
 30
0.0
 11
350.5790459377644765
 21
29.2422350583413788
 31
0.0
  0
LINE
  5
642B
  8
0
 10
350.4830961846903961
 20
29.3530102580778482
 30
0.0
 11
350.3999157681043926
 21
29.4490430978327709
 31
0.0
  0
LINE
  5
642C
  8
0
 10
350.3008715447018062
 20
29.5633909025809807
 30
0.0
 11
350.2022462700928145
 21
29.6772550256646213
 31
0.0
  0
LINE
  5
642D
  8
0
 10
350.1496765096640047
 20
29.7379474769219989
 30
0.0
 11
350.0642388375247265
 21
29.8365863466743697
 31
0.0
  0
LINE
  5
642E
  8
0
 10
349.9596802489708125
 20
29.9573005555194207
 30
0.0
 11
349.7229868523880896
 21
30.230566066296749
 31
0.0
  0
LINE
  5
642F
  8
0
 10
349.6237466136523722
 20
30.3451401732186312
 30
0.0
 11
349.163155081972377
 21
30.8588932760385113
 31
0.0
  0
LINE
  5
6430
  8
0
 10
350.4211238000220874
 20
29.4884643688133217
 30
0.0
 11
350.2661815900572719
 21
29.6770737626648504
 31
0.0
  0
LINE
  5
6431
  8
0
 10
350.1698170516813775
 20
29.7943772216511
 30
0.0
 11
349.7560171765524046
 21
30.2980911136990692
 31
0.0
  0
LINE
  5
6432
  8
0
 10
350.049388638463995
 20
29.7446486624664708
 30
0.0
 11
350.0866644964152101
 21
29.7140782909821084
 31
0.0
  0
LINE
  5
6433
  8
0
 10
350.2037964741692804
 20
29.6180169722235185
 30
0.0
 11
350.2874062049590975
 21
29.5494476442337017
 31
0.0
  0
LINE
  5
6434
  8
0
 10
350.4044706446151167
 20
29.4534417142673313
 30
0.0
 11
350.4966599435009016
 21
29.3778361811225111
 31
0.0
  0
LINE
  5
6435
  8
0
 10
350.6007604448348047
 20
29.2924621301306303
 30
0.0
 11
350.884530020790919
 21
29.0597393484225393
 31
0.0
  0
LINE
  5
6436
  8
0
 10
351.0075860378378252
 20
28.958819655053059
 30
0.0
 11
351.4951255440868749
 21
28.5589827461645491
 31
0.0
  0
LINE
  5
6437
  8
0
 10
350.2820040960413053
 20
29.5438538009515703
 30
0.0
 11
350.2167419453217008
 21
29.619199776835579
 31
0.0
  0
LINE
  5
6438
  8
0
 10
350.1174455299840247
 20
29.7338387403527484
 30
0.0
 11
350.0447502599034806
 21
29.8177663462617097
 31
0.0
  0
LINE
  5
6439
  8
0
 10
349.9460372069630125
 20
29.9317318105358616
 30
0.0
 11
349.8762901077960237
 21
30.0122557159522003
 31
0.0
  0
LINE
  5
643A
  8
0
 10
349.8145531434058739
 20
30.0835318197703216
 30
0.0
 11
349.7034982747669005
 21
30.2117460658840891
 31
0.0
  0
LINE
  5
643B
  8
0
 10
349.6048791649918144
 20
30.3256030715892209
 30
0.0
 11
349.5302400271626198
 21
30.4117748973239408
 31
0.0
  0
LINE
  5
643C
  8
0
 10
349.4309998300964253
 20
30.5263489561378307
 30
0.0
 11
349.3709816459510193
 21
30.595640706491821
 31
0.0
  0
LINE
  5
643D
  8
0
 10
350.7851826075868189
 20
29.1016930931946405
 30
0.0
 11
350.8644780949189226
 21
29.0332938536254517
 31
0.0
  0
LINE
  5
643E
  8
0
 10
350.9752936845001727
 20
28.9377057903598285
 30
0.0
 11
351.4404146171980869
 21
28.5364986198808808
 31
0.0
  0
LINE
  5
643F
  8
0
 10
351.4997637228894973
 20
28.4853048655452383
 30
0.0
 11
352.0021877609577245
 21
28.0519205292937102
 31
0.0
  0
LINE
  5
6440
  8
0
 10
350.7780364176583134
 20
29.0919492764582195
 30
0.0
 11
351.0279266641534832
 21
28.8298962869847699
 31
0.0
  0
LINE
  5
6441
  8
0
 10
351.1314813897632803
 20
28.7213013105871902
 30
0.0
 11
351.203979258318725
 21
28.6452748011421292
 31
0.0
  0
LINE
  5
6442
  8
0
 10
351.3078868542528994
 20
28.5363097793957685
 30
0.0
 11
351.3836293986200872
 21
28.4568806681754296
 31
0.0
  0
LINE
  5
6443
  8
0
 10
351.4914960507679211
 20
28.3675730877408192
 30
0.0
 11
351.3237081905708123
 21
28.5515883472737606
 31
0.0
  0
LINE
  5
6444
  8
0
 10
351.2179156475502282
 20
28.6676124877431597
 30
0.0
 11
351.1514118912364211
 21
28.7405480741653285
 31
0.0
  0
LINE
  5
6445
  8
0
 10
351.0495379587163143
 20
28.8522746204739384
 30
0.0
 11
350.9733510759651836
 21
28.9358298251590291
 31
0.0
  0
LINE
  5
6446
  8
0
 10
351.1366827934915023
 20
28.6688394721935111
 30
0.0
 11
350.9361883121870846
 21
28.9003128788567096
 31
0.0
  0
LINE
  5
6447
  8
0
 10
350.8347138731335235
 20
29.0174663982162109
 30
0.0
 11
350.7737688893546988
 21
29.0878281504327596
 31
0.0
  0
LINE
  5
6448
  8
0
 10
350.6745717089017944
 20
29.2023525460241906
 30
0.0
 11
350.5984523917927049
 21
29.2902332574008106
 31
0.0
  0
LINE
  5
6449
  8
0
 10
351.5917292887078247
 20
28.3041609286128484
 30
0.0
 11
351.5149321211108031
 21
28.38838544110234
 31
0.0
  0
LINE
  5
644A
  8
0
 10
351.4141011431916013
 20
28.4989681647210702
 30
0.0
 11
350.9959048199444851
 21
28.9576098380079614
 31
0.0
  0
LINE
  5
644B
  8
0
 10
350.8939178400735841
 20
29.069460364904689
 30
0.0
 11
349.9557880419175149
 21
30.0983202483339305
 31
0.0
  0
LINE
  5
644C
  8
0
 10
350.1453214848293101
 20
29.7690122458311599
 30
0.0
 11
349.5020547586073008
 21
30.5520535316441304
 31
0.0
  0
LINE
  5
644D
  8
0
 10
351.531765852170679
 20
28.404112917683829
 30
0.0
 11
351.6165846300672797
 21
28.3309493606579785
 31
0.0
  0
LINE
  5
644E
  8
0
 10
351.7298982154777036
 20
28.2332065591984716
 30
0.0
 11
351.8103626851607828
 21
28.1637989709001708
 31
0.0
  0
LINE
  5
644F
  8
0
 10
351.9006207556951722
 20
28.0859435519192218
 30
0.0
 11
352.065624718634183
 21
27.959765546016051
 31
0.0
  0
LINE
  5
6450
  8
0
 10
352.065624718634183
 20
27.959765546016051
 30
0.0
 11
352.0796944769803076
 21
27.9744138132710809
 31
0.0
  0
LINE
  5
6451
  8
0
 10
352.3760876822755108
 20
30.4711679633115189
 30
0.0
 11
352.7174933884480765
 21
30.8125736692388905
 31
0.0
  0
LINE
  5
6452
  8
0
 10
352.0431376179827794
 20
30.4207822231057392
 30
0.0
 11
352.1043232544851094
 21
30.4818649975963396
 31
0.0
  0
LINE
  5
6453
  8
0
 10
352.1876894870559909
 20
30.4965925598560297
 30
0.0
 11
352.2902774292110735
 21
30.4540992428178505
 31
0.0
  0
ARC
  5
6454
  8
0
 10
352.0738825945855979
 20
30.3914923425236907
 30
0.0
 40
0.0426452650281364
 50
149.361082463402596
 51
182.7197815208490113
  0
ARC
  5
6455
  8
0
 10
352.320409982963497
 20
30.5268456625956297
 30
0.0
 40
0.0787401574124296
 50
247.4999999214095965
 51
314.9999999950945835
  0
ARC
  5
6456
  8
0
 10
352.1575569334085003
 20
30.4238461399400215
 30
0.0
 40
0.0787401575000053
 50
67.5000000305578425
 51
132.5371198891334075
  0
ARC
  5
6457
  8
0
 10
352.0708700972643896
 20
30.3928365925699389
 30
0.0
 40
0.0393700805107987
 50
135.0000005046867102
 51
148.8100062426672991
  0
LINE
  5
6458
  8
0
 10
349.1794648521802742
 20
30.8746434380710788
 30
0.0
 11
349.163155081972377
 21
30.8588932760385113
 31
0.0
  0
ARC
  5
6459
  8
0
 10
349.1768398518807999
 20
30.8447222819818414
 30
0.0
 40
0.0197
 50
134.0000000418407922
 51
216.993317748512311
  0
LINE
  5
645A
  8
0
 10
349.2613680715577971
 20
30.699782944269181
 30
0.0
 11
349.1611053497351236
 21
30.8328683610174608
 31
0.0
  0
LINE
  5
645B
  8
0
 10
352.0247078318802778
 20
27.9412956675710795
 30
0.0
 11
352.0464945856804206
 21
27.9328353842710797
 31
0.0
  0
LINE
  5
645C
  8
0
 10
352.0464945856804206
 20
27.9328353842710797
 30
0.0
 11
352.0663296131804145
 21
27.9339668790710789
 31
0.0
  0
LINE
  5
645D
  8
0
 10
352.1072523658303908
 20
30.8660377065210803
 30
0.0
 11
352.38564085868029
 21
31.1444261992710807
 31
0.0
  0
LINE
  5
645E
  8
0
 10
352.0710887416802848
 20
30.9022013231710808
 30
0.0
 11
352.3494772382302926
 21
31.1805898197210816
 31
0.0
  0
ARC
  5
645F
  8
0
 10
352.0891705537302983
 20
30.8841195148210801
 30
0.0
 40
0.0255715412170969
 50
135.0000058620890968
 51
315.0000060205247792
  0
LINE
  5
6460
  8
0
 10
352.0636580317881794
 20
30.9096320405789093
 30
0.0
 11
352.3420465246381923
 21
31.1880205333289098
 31
0.0
  0
LINE
  5
6461
  8
0
 10
352.0274944076381871
 20
30.9457956572289099
 30
0.0
 11
352.305882904188195
 21
31.2241841537789107
 31
0.0
  0
ARC
  5
6462
  8
0
 10
352.0455762196882006
 20
30.9277138488789092
 30
0.0
 40
0.0255715412170969
 50
135.0000058620890968
 51
315.0000060205247792
  0
LINE
  5
6463
  8
0
 10
352.0204596927304124
 20
30.95283037962108
 30
0.0
 11
352.2988481855804253
 21
31.2312188723710804
 31
0.0
  0
LINE
  5
6464
  8
0
 10
351.9842960685803064
 20
30.9889939962710805
 30
0.0
 11
352.2626845651304279
 21
31.2673824928210813
 31
0.0
  0
ARC
  5
6465
  8
0
 10
352.0023778806303767
 20
30.9709121879210798
 30
0.0
 40
0.0255715412170969
 50
135.0000058620890968
 51
315.0000060205247792
  0
LINE
  5
6466
  8
0
 10
351.9783267176356958
 20
30.9949610795352015
 30
0.0
 11
352.2567152104857087
 21
31.2733495722851984
 31
0.0
  0
LINE
  5
6467
  8
0
 10
351.944664086580417
 20
31.02862597827108
 30
0.0
 11
352.2230514455400794
 21
31.3070133372308312
 31
0.0
  0
ARC
  5
6468
  8
0
 10
351.9605276487581023
 20
31.0108258407413793
 30
0.0
 40
0.0238431856311526
 50
131.7075681532826934
 51
318.2885722510131927
  0
LINE
  5
6469
  8
0
 10
351.9379164722304267
 20
31.0353736001210798
 30
0.0
 11
352.2163049650803259
 21
31.3137620928710803
 31
0.0
  0
LINE
  5
646A
  8
0
 10
351.9061567969811222
 20
31.0671332678718706
 30
0.0
 11
352.1845452934804257
 21
31.34552176447108
 31
0.0
  0
ARC
  5
646B
  8
0
 10
351.9201920243916106
 20
31.0494088233468304
 30
0.0
 40
0.0226084838541838
 50
128.3741924123235947
 51
321.6258211151334763
  0
LINE
  5
646C
  8
0
 10
351.8998527927802797
 20
31.0734372795710811
 30
0.0
 11
352.1782412856304063
 21
31.3518257723210816
 31
0.0
  0
LINE
  5
646D
  8
0
 10
351.870490171180279
 20
31.1027998936710794
 30
0.0
 11
352.1488786677302869
 21
31.3811883902210802
 31
0.0
  0
ARC
  5
646E
  8
0
 10
351.8822980065805837
 20
31.0852451108544194
 30
0.0
 40
0.0211564505088239
 50
123.9258675504049023
 51
326.0741397670341826
  0
LINE
  5
646F
  8
0
 10
351.838217811980428
 20
31.1350722528710797
 30
0.0
 11
352.1166063084804136
 21
31.4134607494710814
 31
0.0
  0
LINE
  5
6470
  8
0
 10
351.8647276253303744
 20
31.1085624470210789
 30
0.0
 11
352.1431161181304219
 21
31.3869509398210802
 31
0.0
  0
LINE
  5
6471
  8
0
 10
351.8330861682803743
 20
31.1402039039710807
 30
0.0
 11
352.1114746611302735
 21
31.4185923968210901
 31
0.0
  0
LINE
  5
6472
  8
0
 10
351.8098406374804199
 20
31.1634494273710807
 30
0.0
 11
352.0882291339804055
 21
31.4418379239710895
 31
0.0
  0
ARC
  5
6473
  8
0
 10
351.8328051534185192
 20
31.1392005772578102
 30
0.0
 40
0.0333969981115809
 50
133.4572555872530017
 51
166.9420490208958086
  0
ARC
  5
6474
  8
0
 10
351.8142704946789081
 20
31.1434993908191302
 30
0.0
 40
0.0143703490995726
 50
166.9420490208958086
 51
216.4964992471689982
  0
ARC
  5
6475
  8
0
 10
351.8130021665232903
 20
31.1452526990854288
 30
0.0
 40
0.0145553108249003
 50
225.0459710266873117
 51
282.9262098441586772
  0
ARC
  5
6476
  8
0
 10
351.8101297247703769
 20
31.1624165670771305
 30
0.0
 40
0.0319437113589363
 50
281.0607778042868858
 51
315.9433705085207862
  0
ARC
  5
6477
  8
0
 10
351.8568577312946104
 20
31.1145833347562615
 30
0.0
 40
0.0276991400147184
 50
132.2945508431321002
 51
183.6795025602422129
  0
ARC
  5
6478
  8
0
 10
351.8427209349068221
 20
31.1136742275822087
 30
0.0
 40
0.0135331424161854
 50
183.6795025602440035
 51
261.9457754700991927
  0
ARC
  5
6479
  8
0
 10
351.8447299547946159
 20
31.12787164067052
 30
0.0
 40
0.0278719952053638
 50
261.9457754700991927
 51
294.1008860643573257
  0
ARC
  5
647A
  8
0
 10
351.8451320339603967
 20
31.1269728187294099
 30
0.0
 40
0.026887338647278
 50
294.1008860643569278
 51
316.786184210815577
  0
ARC
  5
647C
  8
0
 10
349.0541516569261944
 20
30.4355242776878292
 30
0.0
 40
0.2861941777076602
 50
35.3825734766463569
 51
41.5685650369181303
  0
ARC
  5
647D
  8
0
 10
349.4852767792694976
 20
30.7781566430360307
 30
0.0
 40
0.2653681574634108
 50
215.1395713752845893
 51
221.8115671382797984
  0
ARC
  5
647E
  8
0
 10
349.3623523100462762
 20
30.353328979304429
 30
0.0
 40
0.1149984946513039
 50
30.7585269361915401
 51
46.1926115773720483
  0
ARC
  5
647F
  8
0
 10
349.5655852076898213
 20
30.5148462855974891
 30
0.0
 40
0.1464580067978764
 50
212.4232194334402948
 51
224.5279190801223024
  0
ARC
  5
6480
  8
0
 10
349.5705936991499811
 20
30.1911631020224007
 30
0.0
 40
0.0931164565375619
 50
30.79761232273583
 51
50.0026731135653293
  0
ARC
  5
6481
  8
0
 10
349.7116570844610237
 20
30.3112180589814493
 30
0.0
 40
0.0947058930294523
 50
210.9602575193246992
 51
229.8400279169740088
  0
ARC
  5
6482
  8
0
 10
349.6583849001789872
 20
29.9191859068596884
 30
0.0
 40
0.1583575807308901
 50
35.3093168421647334
 51
47.5797987276149712
  0
ARC
  5
6483
  8
0
 10
349.8948452271911265
 20
30.1279807714047614
 30
0.0
 40
0.1589034302714434
 50
215.3304725247780027
 51
227.5586430449997124
  0
ARC
  5
6484
  8
0
 10
349.8949127922639946
 20
29.7851100307651606
 30
0.0
 40
0.1072148236454686
 50
34.2565976059990405
 51
50.9363199055051794
  0
ARC
  5
6485
  8
0
 10
350.0545258279090035
 20
29.9318635351925799
 30
0.0
 40
0.1118300949521062
 50
214.6030870069753007
 51
230.5898305045299992
  0
ARC
  5
6486
  8
0
 10
349.6622981229372158
 20
29.5663484875666214
 30
0.0
 40
0.3616817763292435
 50
40.0463044595628688
 51
45.4346245258441783
  0
ARC
  5
6487
  8
0
 10
350.3084989494283832
 20
30.1634909787162506
 30
0.0
 40
0.5188571888656486
 50
220.8627920791838051
 51
224.6181372340498115
  0
ARC
  5
6488
  8
0
 10
350.1357578520876928
 20
29.660139673776289
 30
0.0
 40
0.0693404933658611
 50
29.6480063254289199
 51
55.2605644912962219
  0
ARC
  5
6489
  8
0
 10
350.2310466319462989
 20
29.7473159894307813
 30
0.0
 40
0.0634245554154554
 50
208.4301672639678031
 51
236.4784035527596018
  0
ARC
  5
648A
  8
0
 10
349.9482050964264204
 20
29.4760429709706209
 30
0.0
 40
0.2341450679333697
 50
39.6346140979791599
 51
47.9646805540185071
  0
ARC
  5
648B
  8
0
 10
350.2841634146996057
 20
29.7982114454020603
 30
0.0
 40
0.2325639702637125
 50
219.6062474175766113
 51
227.9930472344231873
  0
ARC
  5
648C
  8
0
 10
350.2321803770259976
 20
29.3936510549293288
 30
0.0
 40
0.1243962971855994
 50
35.9423067570534016
 51
51.656987894946873
  0
ARC
  5
648D
  8
0
 10
350.3884227611206938
 20
29.5434802682200015
 30
0.0
 40
0.0947824726108833
 50
213.4636833801729949
 51
234.1356112718256099
  0
ARC
  5
648E
  8
0
 10
350.4958825618002152
 20
29.2908654772107688
 30
0.0
 40
0.064949299497741
 50
31.17234042102179
 51
59.0795916510677515
  0
ARC
  5
648F
  8
0
 10
350.5841683541761995
 20
29.3795403220810591
 30
0.0
 40
0.0640422091657224
 50
210.9706110825435132
 51
239.2813209895471971
  0
ARC
  5
6490
  8
0
 10
350.354497301518677
 20
29.1481814729813991
 30
0.0
 40
0.1680091331082
 50
39.4990581932764684
 51
51.0046594502625865
  0
ARC
  5
6491
  8
0
 10
350.5908831264234777
 20
29.3866546803726791
 30
0.0
 40
0.1694552116155314
 50
219.5483143317356109
 51
230.9554033118022005
  0
ARC
  5
6492
  8
0
 10
350.6252825624910088
 20
29.055582284724359
 30
0.0
 40
0.0860352557610898
 50
34.8426913916791818
 51
57.3640636949762595
  0
ARC
  5
6493
  8
0
 10
350.7270524774103251
 20
29.1613493519495712
 30
0.0
 40
0.0646211529827042
 50
211.0343404349619902
 51
241.1724146516943961
  0
ARC
  5
6494
  8
0
 10
350.8667823418506941
 20
28.93501475787928
 30
0.0
 40
0.064949299497741
 50
31.17234042102179
 51
59.0795916510677515
  0
ARC
  5
6495
  8
0
 10
350.9550681342267922
 20
29.0236896027495703
 30
0.0
 40
0.0640422091657224
 50
210.9706110825435132
 51
239.2813209895471971
  0
ARC
  5
6496
  8
0
 10
350.9627881857176135
 20
28.6637468839695586
 30
0.0
 40
0.1449883269497675
 50
40.2630729771648603
 51
52.5730816315853176
  0
ARC
  5
6497
  8
0
 10
351.1215129220067865
 20
28.8305296138846785
 30
0.0
 40
0.0874788473773516
 50
216.1819557460939905
 51
236.6541988626532884
  0
ARC
  5
6498
  8
0
 10
350.9039449437349276
 20
28.6026701928585609
 30
0.0
 40
0.165558508617605
 50
40.7023020105158508
 51
52.7672380915961625
  0
ARC
  5
6499
  8
0
 10
351.2259618924845768
 20
28.94480201935502
 30
0.0
 40
0.3056932540920803
 50
223.4719526811578021
 51
229.9975874209571884
  0
ARC
  5
649A
  8
0
 10
351.0158217581770828
 20
28.3433977290235788
 30
0.0
 40
0.312640626053049
 50
43.8904928282677318
 51
50.0257349746994535
  0
ARC
  5
649B
  8
0
 10
351.2996099331484743
 20
28.6472775963265605
 30
0.0
 40
0.104936556344339
 50
217.7838720477749916
 51
236.1323557551982901
  0
ARC
  5
649C
  8
0
 10
351.3969500652609099
 20
28.3662513055107084
 30
0.0
 40
0.092098814064187
 50
39.9539412839605319
 51
59.3686698140260418
  0
ARC
  5
649D
  8
0
 10
351.5169889846366118
 20
28.5076027091763606
 30
0.0
 40
0.0959294148931359
 50
220.3450971173251958
 51
238.9775139806608024
  0
ARC
  5
649E
  8
0
 10
351.5432187543689793
 20
28.1397624036476586
 30
0.0
 40
0.1381653232265468
 50
44.6690359791579397
 51
57.510367132486202
  0
ARC
  5
649F
  8
0
 10
351.6936781732434838
 20
28.3261602403696813
 30
0.0
 40
0.1034078916136474
 50
222.4966901196563072
 51
239.6827129919932133
  0
ARC
  5
64A0
  8
0
 10
351.7429346724277934
 20
27.9994339944314383
 30
0.0
 40
0.1083132014846604
 50
35.9812134108115984
 51
50.7741458880019891
  0
ARC
  5
64A1
  8
0
 10
351.8658310607614226
 20
28.1155606755406104
 30
0.0
 40
0.0632273400124284
 50
210.6374099319955917
 51
236.1179493668232112
  0
ARC
  5
64A2
  8
0
 10
350.6839503004317748
 20
28.7593587833337914
 30
0.0
 40
0.2241791058454099
 50
39.984473454603318
 51
47.8227778936880128
  0
ARC
  5
64A3
  8
0
 10
350.9132514628681179
 20
28.9800481623872592
 30
0.0
 40
0.0958276844131809
 50
214.7028191769296939
 51
233.104427573647996
  0
ENDSEC
  0
EOF
