  0
SECTION
  2
HEADER
  9
$ACADVER
  1
AC1009
  9
$INSBASE
 10
4217.5161257047448089
 20
215.616549298972302
 30
0.0
  9
$EXTMIN
 10
4209.3922240339934433
 20
210.3972968656611044
 30
0.0
  9
$EXTMAX
 10
4217.5161257047448089
 20
216.876391818672289
 30
0.0
  9
$LIMMIN
 10
0.0
 20
0.0
  9
$LIMMAX
 10
11.6929133858000007
 20
8.2677165353999982
  9
$ORTHOMODE
 70
     0
  9
$REGENMODE
 70
     1
  9
$FILLMODE
 70
     1
  9
$QTEXTMODE
 70
     0
  9
$MIRRTEXT
 70
     0
  9
$DRAGMODE
 70
     2
  9
$LTSCALE
 40
0.6431102362
  9
$OSMODE
 70
  3839
  9
$ATTMODE
 70
     1
  9
$TEXTSIZE
 40
0.2
  9
$TRACEWID
 40
0.05
  9
$TEXTSTYLE
  7
STANDARD
  9
$CLAYER
  8
0
  9
$CELTYPE
  6
BYLAYER
  9
$CECOLOR
 62
   256
  9
$DIMSCALE
 40
1.0
  9
$DIMASZ
 40
0.1875
  9
$DIMEXO
 40
0.0625
  9
$DIMDLI
 40
0.4443307087
  9
$DIMRND
 40
0.0
  9
$DIMDLE
 40
0.0
  9
$DIMEXE
 40
0.125
  9
$DIMTP
 40
0.01
  9
$DIMTM
 40
0.01
  9
$DIMTXT
 40
2.0
  9
$DIMCEN
 40
0.1052362205
  9
$DIMTSZ
 40
0.0
  9
$DIMTOL
 70
     1
  9
$DIMLIM
 70
     0
  9
$DIMTIH
 70
     1
  9
$DIMTOH
 70
     1
  9
$DIMSE1
 70
     0
  9
$DIMSE2
 70
     0
  9
$DIMTAD
 70
     0
  9
$DIMZIN
 70
     0
  9
$DIMBLK
  1

  9
$DIMASO
 70
     1
  9
$DIMSHO
 70
     1
  9
$DIMPOST
  1
\X
  9
$DIMAPOST
  1

  9
$DIMALT
 70
     1
  9
$DIMALTD
 70
     2
  9
$DIMALTF
 40
25.3999999999999986
  9
$DIMLFAC
 40
1.0
  9
$DIMTOFL
 70
     0
  9
$DIMTVP
 40
0.0
  9
$DIMTIX
 70
     0
  9
$DIMSOXD
 70
     0
  9
$DIMSAH
 70
     0
  9
$DIMBLK1
  1

  9
$DIMBLK2
  1

  9
$DIMSTYLE
  2
STANDARD
  9
$DIMCLRD
 70
     0
  9
$DIMCLRE
 70
     0
  9
$DIMCLRT
 70
     0
  9
$DIMTFAC
 40
1.0
  9
$DIMGAP
 40
0.09
  9
$LUNITS
 70
     2
  9
$LUPREC
 70
     4
  9
$SKETCHINC
 40
0.1
  9
$FILLETRAD
 40
0.0
  9
$AUNITS
 70
     0
  9
$AUPREC
 70
     0
  9
$MENU
  1
.
  9
$ELEVATION
 40
0.0
  9
$PELEVATION
 40
0.0
  9
$THICKNESS
 40
0.0
  9
$LIMCHECK
 70
     0
  9
$BLIPMODE
 70
     0
  9
$CHAMFERA
 40
0.0
  9
$CHAMFERB
 40
0.0
  9
$SKPOLY
 70
     0
  9
$TDCREATE
 40
2458060.468368056230247
  9
$TDUPDATE
 40
2459117.5192824080586433
  9
$TDINDWG
 40
0.5883866898
  9
$TDUSRTIMER
 40
0.5883866898
  9
$USRTIMER
 70
     1
  9
$ANGBASE
 50
0.0
  9
$ANGDIR
 70
     0
  9
$PDMODE
 70
     0
  9
$PDSIZE
 40
0.3125
  9
$PLINEWID
 40
0.0
  9
$COORDS
 70
     1
  9
$SPLFRAME
 70
     0
  9
$SPLINETYPE
 70
     6
  9
$SPLINESEGS
 70
     8
  9
$ATTDIA
 70
     1
  9
$ATTREQ
 70
     1
  9
$HANDLING
 70
     1
  9
$HANDSEED
  5
B3E7
  9
$SURFTAB1
 70
     6
  9
$SURFTAB2
 70
     6
  9
$SURFTYPE
 70
     6
  9
$SURFU
 70
     6
  9
$SURFV
 70
     6
  9
$UCSNAME
  2

  9
$UCSORG
 10
0.0
 20
0.0
 30
0.0
  9
$UCSXDIR
 10
1.0
 20
0.0
 30
0.0
  9
$UCSYDIR
 10
0.0
 20
1.0
 30
0.0
  9
$PUCSNAME
  2

  9
$PUCSORG
 10
0.0
 20
0.0
 30
0.0
  9
$PUCSXDIR
 10
1.0
 20
0.0
 30
0.0
  9
$PUCSYDIR
 10
0.0
 20
1.0
 30
0.0
  9
$USERI1
 70
     0
  9
$USERI2
 70
     0
  9
$USERI3
 70
     0
  9
$USERI4
 70
     0
  9
$USERI5
 70
     0
  9
$USERR1
 40
0.0
  9
$USERR2
 40
0.0
  9
$USERR3
 40
0.0
  9
$USERR4
 40
0.0
  9
$USERR5
 40
0.0
  9
$WORLDVIEW
 70
     1
  9
$SHADEDGE
 70
     3
  9
$SHADEDIF
 70
    70
  9
$TILEMODE
 70
     1
  9
$MAXACTVP
 70
    64
  9
$PLIMCHECK
 70
     0
  9
$PEXTMIN
 10
1.0000000000000000E+20
 20
1.0000000000000000E+20
 30
1.0000000000000000E+20
  9
$PEXTMAX
 10
-1.0000000000000000E+20
 20
-1.0000000000000000E+20
 30
-1.0000000000000000E+20
  9
$PLIMMIN
 10
0.0
 20
0.0
  9
$PLIMMAX
 10
12.0
 20
9.0
  9
$UNITMODE
 70
     0
  9
$VISRETAIN
 70
     1
  9
$PLINEGEN
 70
     0
  9
$PSLTSCALE
 70
     1
  0
ENDSEC
  0
SECTION
  2
TABLES
  0
TABLE
  2
VPORT
 70
     1
  0
VPORT
  2
*ACTIVE
 70
     0
 10
0.0
 20
0.0
 11
1.0
 21
1.0
 12
0.0
 22
0.0
 13
0.0
 23
0.0
 14
1.0
 24
1.0
 15
0.0
 25
0.0
 16
0.0
 26
0.0
 36
43.1396443062073516
 17
4213.4541015625
 27
213.6368789672852131
 37
0.0
 40
10.39121966633334
 41
3.314341846758349
 42
50.0
 43
0.0
 44
0.0
 50
0.0
 51
0.0
 71
     0
 72
   100
 73
     1
 74
     1
 75
     0
 76
     0
 77
     0
 78
     0
  0
ENDTAB
  0
TABLE
  2
LTYPE
 70
     2
  0
LTYPE
  2
CONTINUOUS
 70
     0
  3
Solid line
 72
    65
 73
     0
 40
0.0
  0
LTYPE
  2
PHANTOM2
 70
     0
  3
___ _ _ ___ _ _ ___ _ _ ___ _ _
 72
    65
 73
     6
 40
1.25
 49
0.625
 49
-0.125
 49
0.125
 49
-0.125
 49
0.125
 49
-0.125
  0
ENDTAB
  0
TABLE
  2
LAYER
 70
     2
  0
LAYER
  2
0
 70
     0
 62
   255
  6
CONTINUOUS
  0
LAYER
  2
DEFPOINTS
 70
     0
 62
     7
  6
CONTINUOUS
  0
ENDTAB
  0
TABLE
  2
STYLE
 70
     1
  0
STYLE
  2
STANDARD
 70
     0
 40
0.0
 41
0.8
 50
0.0
 71
     0
 42
0.2
  3
txt
  4

  0
ENDTAB
  0
TABLE
  2
VIEW
 70
     0
  0
ENDTAB
  0
TABLE
  2
UCS
 70
     0
  0
ENDTAB
  0
TABLE
  2
APPID
 70
     9
  0
APPID
  2
ACAD
 70
     0
  0
APPID
  2
ACAD_MLEADERVER
 70
     0
  0
APPID
  2
ACAD_EXEMPT_FROM_CAD_STANDARDS
 70
     0
  0
APPID
  2
ACAD_NAV_VCDISPLAY
 70
     0
  0
APPID
  2
ACAECLAYERSTANDARD
 70
     0
  0
APPID
  2
ACCMTRANSPARENCY
 70
     0
  0
APPID
  2
ACAD_DSTYLE_DIMJAG
 70
     0
  0
APPID
  2
ACAD_DSTYLE_DIMTALN
 70
     0
  0
APPID
  2
ACDBATTR
 70
     0
  0
ENDTAB
  0
TABLE
  2
DIMSTYLE
 70
     1
  0
DIMSTYLE
  2
STANDARD
 70
     0
  3

  4

  5

  6

  7

 40
1.0
 41
0.1875
 42
0.0625
 43
0.38
 44
0.125
 45
0.0
 46
0.0
 47
0.01
 48
0.01
140
0.15625
141
0.09
142
0.0
143
25.3999999999999986
144
1.0
145
0.0
146
1.0
147
0.09
 71
     1
 72
     0
 73
     1
 74
     1
 75
     0
 76
     0
 77
     0
 78
     4
170
     0
171
     2
172
     0
173
     0
174
     0
175
     0
176
     0
177
     0
178
     0
  0
ENDTAB
  0
ENDSEC
  0
SECTION
  2
BLOCKS
  0
BLOCK
  8
0
  2
$MODEL_SPACE
 70
     0
 10
0.0
 20
0.0
 30
0.0
  3
$MODEL_SPACE
  1

  0
ENDBLK
  5
21
  8
0
  0
BLOCK
 67
     1
  8
0
  2
$PAPER_SPACE
 70
     0
 10
0.0
 20
0.0
 30
0.0
  3
$PAPER_SPACE
  1

  0
ENDBLK
  5
1D
 67
     1
  8
0
  0
BLOCK
  8
0
  2
_FILLED
 70
     0
 10
0.0
 20
0.0
 30
0.0
  3
_FILLED
  1

  0
SOLID
  5
6F59
  8
0
  6
BYBLOCK
 62
     0
 10
0.0
 20
0.0
 30
0.0
 11
-1.0
 21
0.1666666667
 31
0.0
 12
-1.0
 22
-0.1666666667
 32
0.0
 13
-1.0
 23
-0.1666666667
 33
0.0
  0
ENDBLK
  5
6F5A
  8
0
  6
BYBLOCK
 62
     0
  0
ENDSEC
  0
SECTION
  2
ENTITIES
  0
ATTDEF
  5
3930
  8
DEFPOINTS
 10
4217.5049728108915588
 20
215.6154095297472963
 30
0.0
 40
0.001
  1
K-72419IN
  3

  2
MODELNUMBER
 70
     0
1001
ACDBATTR
1070
     0
1070
     1
  0
ATTDEF
  5
3931
  8
DEFPOINTS
 10
4217.5049728108915588
 20
215.6137428630806028
 30
0.0
 40
0.001
  1
AWAKEN
  3

  2
TRADENAME
 70
     0
1001
ACDBATTR
1070
     0
1070
     1
  0
ATTDEF
  5
3932
  8
DEFPOINTS
 10
4217.5049728108915588
 20
215.6120761964139092
 30
0.0
 40
0.001
  1
SHOWERHEAD
  3

  2
PRODUCT
 70
     0
1001
ACDBATTR
1070
     0
1070
     1
  0
LINE
  5
AD27
  8
0
 10
4210.0535213627335906
 20
214.4878582140505898
 30
0.0
 11
4209.3981717248452696
 21
213.8437295207722002
 31
0.0
  0
ARC
  5
AD28
  8
0
 10
4209.4117672058118842
 20
213.8296903447964894
 30
0.0
 40
0.0195431718196744
 50
134.080152601103805
 51
225.1734536001793003
  0
ARC
  5
AD29
  8
0
 10
4209.4770689352390036
 20
213.7562170087774973
 30
0.0
 40
0.0208584418319824
 50
177.8508825267435896
 51
207.9655257552128091
  0
ARC
  5
AD2A
  8
0
 10
4203.8853229803989962
 20
209.4389295824169892
 30
0.0
 40
7.0439008712592761
 50
36.1087143956726067
 51
37.6996937775978225
  0
LINE
  5
AD2B
  8
0
 10
4212.5340678400061734
 20
210.567361851220511
 30
0.0
 11
4212.5539917492824316
 21
210.5065217525499008
 31
0.0
  0
ARC
  5
AD2C
  8
0
 10
4212.5427955024752009
 20
210.5027649813713992
 30
0.0
 40
0.011809710930331
 50
288.2805198154288746
 51
18.5485824345238299
  0
ARC
  5
AD2D
  8
0
 10
4202.2907344011809982
 20
242.1247091279336985
 30
0.0
 40
33.2541335825496773
 50
287.4348365648139065
 51
287.9631788102598762
  0
ARC
  5
AD2E
  8
0
 10
4212.2477924287777569
 20
210.4188246812522891
 30
0.0
 40
0.021527815591188
 50
198.4444400163202999
 51
287.7870268372677742
  0
LINE
  5
AD2F
  8
0
 10
4212.2273704776744125
 20
210.4120136051784016
 30
0.0
 11
4211.9906569613503962
 21
211.1177816123172875
 31
0.0
  0
ARC
  5
AD30
  8
0
 10
4211.8079576708369132
 20
210.3235164153784922
 30
0.0
 40
0.7659611861553928
 50
18.5630493921913597
 51
40.8968966839004224
  0
ARC
  5
AD31
  8
0
 10
4212.4026669997310819
 20
210.8364885138585123
 30
0.0
 40
0.0194821042248662
 50
145.1208538237181926
 51
216.1678102617642878
  0
ARC
  5
AD32
  8
0
 10
4211.9825958926130625
 20
210.3953920454229944
 30
0.0
 40
0.6064703362071215
 50
39.2136275542544013
 51
48.2181710725953465
  0
ARC
  5
AD33
  8
0
 10
4381.5795278437599336
 20
384.1974621496522104
 30
0.0
 40
242.2320844411891869
 50
224.6989576544102931
 51
225.6952893413748029
  0
ARC
  5
AD34
  8
0
 10
4211.1702418431068509
 20
212.5589347969630865
 30
0.0
 40
0.4760028772711133
 50
221.0175131494505081
 51
225.4786381612335049
  0
ARC
  5
AD35
  8
0
 10
4210.9272017513630999
 20
212.347532809093309
 30
0.0
 40
0.1538859937173968
 50
210.924237106635502
 51
221.0175131494517018
  0
ARC
  5
AD36
  8
0
 10
4210.8087228247768508
 20
212.2765565465738007
 30
0.0
 40
0.0157741336685405
 50
183.3731128429400883
 51
210.9242371066341093
  0
ARC
  5
AD37
  8
0
 10
4210.8077299640372075
 20
212.2764980273277047
 30
0.0
 40
0.0147795498609997
 50
139.5604245960483922
 51
183.3731128429336081
  0
LINE
  5
AD38
  8
0
 10
4210.7964813896969645
 20
212.286084719635312
 30
0.0
 11
4210.8357378093669467
 21
212.3273896443753017
 31
0.0
  0
ARC
  5
AD39
  8
0
 10
4210.7058785194803932
 20
212.0898259378020896
 30
0.0
 40
0.2655356843020727
 50
45.0943543095020587
 51
55.3442117798860309
  0
ARC
  5
AD3A
  8
0
 10
4210.6344578941279906
 20
212.0838595410916128
 30
0.0
 40
0.3159438486253768
 50
45.2533116382366671
 51
50.425949058683841
  0
ARC
  5
AD3B
  8
0
 10
4210.8018211588350823
 20
212.2876003226595003
 30
0.0
 40
0.0522831646512264
 50
49.5555322742617221
 51
66.5210987781367464
  0
ARC
  5
AD3C
  8
0
 10
4210.8198727287654037
 20
212.3288022783519864
 30
0.0
 40
0.0073018735138627
 50
67.6330269532228527
 51
95.8892967685162176
  0
ARC
  5
AD3D
  8
0
 10
4210.8195906148112044
 20
212.3341411623466968
 30
0.0
 40
0.0019803277503879
 50
103.643132602812301
 51
157.9042401664162867
  0
ARC
  5
AD3E
  8
0
 10
4210.8596870275177935
 20
212.3427560655603941
 30
0.0
 40
0.0426634566966164
 50
190.6300477080652058
 51
217.2473769851972918
  0
ARC
  5
AD3F
  8
0
 10
4210.7448504607027644
 20
212.1281329854051023
 30
0.0
 40
0.1399908709702603
 50
44.9944702090716433
 51
52.4986726656170291
  0
ARC
  5
AD40
  8
0
 10
4210.8164400130299327
 20
212.2214254261585893
 30
0.0
 40
0.0223960432619965
 50
52.49930373719166
 51
62.6209181245935014
  0
ARC
  5
AD41
  8
0
 10
4210.8241700377684538
 20
212.2363514906587056
 30
0.0
 40
0.0055870967181137
 50
62.6209181245994913
 51
75.3120869197115752
  0
ARC
  5
AD42
  8
0
 10
4210.825404740601698
 20
212.241061946158311
 30
0.0
 40
0.0007175092511611
 50
75.3120869195500404
 51
129.6146242574845076
  0
ARC
  5
AD43
  8
0
 10
4210.8254403021055623
 20
212.2412842178229937
 30
0.0
 40
0.0005935600035988
 50
146.1689636019962109
 51
190.3846143482666946
  0
ARC
  5
AD44
  8
0
 10
4210.8338332466373686
 20
212.2438345390818029
 30
0.0
 40
0.0093618336440673
 50
196.4898450413342061
 51
217.2766400875848944
  0
ARC
  5
AD45
  8
0
 10
4210.9250047551468015
 20
212.3119995091632859
 30
0.0
 40
0.1231978308978852
 50
216.8213116423486042
 51
226.2619503715995108
  0
ARC
  5
AD46
  8
0
 10
4210.5704192840712494
 20
211.9525752778588128
 30
0.0
 40
0.392543304724899
 50
45.1239129914053692
 51
51.8636917704912719
  0
ARC
  5
AD47
  8
0
 10
4210.7627781612209219
 20
212.1975797411708982
 30
0.0
 40
0.0810483213602212
 50
51.8636917704882592
 51
61.3243973372806224
  0
ARC
  5
AD48
  8
0
 10
4210.7978436961666375
 20
212.2616930476015114
 30
0.0
 40
0.0079722801257748
 50
61.3243973373380484
 51
97.2798554219533855
  0
ARC
  5
AD49
  8
0
 10
4210.7995877343892062
 20
212.2683007901842984
 30
0.0
 40
0.0030457541273204
 50
154.7281604667452939
 51
203.6936471005417957
  0
ARC
  5
AD4A
  8
0
 10
4210.8108865088606763
 20
212.27058876115359
 30
0.0
 40
0.0145189301584878
 50
193.9977579326466923
 51
206.600807171342808
  0
ARC
  5
AD4B
  8
0
 10
4211.1670815874886102
 20
212.5620140060414087
 30
0.0
 40
0.4760028772711133
 50
226.009747060055588
 51
230.4708720718847133
  0
ARC
  5
AD4C
  8
0
 10
4210.9620637208636253
 20
212.3135648944812885
 30
0.0
 40
0.1538859937173968
 50
230.4708720718423933
 51
240.564148114659389
  0
ARC
  5
AD4D
  8
0
 10
4210.8941888122735691
 20
212.1932823825767969
 30
0.0
 40
0.0157741336685405
 50
240.564148114659389
 51
268.1152723783582132
  0
ARC
  5
AD4E
  8
0
 10
4210.8941561016363266
 20
212.1922883368210933
 30
0.0
 40
0.0147795498609997
 50
268.1152723783582132
 51
311.9279606252583221
  0
LINE
  5
AD4F
  8
0
 10
4210.9040317333538042
 20
212.1812925652594117
 30
0.0
 11
4210.9443030641987207
 21
212.2216086067953995
 31
0.0
  0
ARC
  5
AD50
  8
0
 10
4210.7101925133229088
 20
212.0856225787671008
 30
0.0
 40
0.2655356843020727
 50
36.144173441425572
 51
46.3940309118137506
  0
ARC
  5
AD51
  8
0
 10
4210.7060832304368887
 20
212.0140710769688894
 30
0.0
 40
0.3159438486253768
 50
41.0624361626214025
 51
46.2350735830421016
  0
ARC
  5
AD52
  8
0
 10
4210.9054081282602056
 20
212.1866698995470983
 30
0.0
 40
0.0522831646512264
 50
24.9672864431749488
 51
41.9328529470345401
  0
ARC
  5
AD53
  8
0
 10
4210.9461273059487212
 20
212.2057855710781098
 30
0.0
 40
0.0073018735138627
 50
355.5990884528142146
 51
23.8553582680833891
  0
ARC
  5
AD54
  8
0
 10
4210.9514717163756359
 20
212.2056422260864963
 30
0.0
 40
0.0019803277503879
 50
293.584145054881219
 51
347.845252618482391
  0
ARC
  5
AD55
  8
0
 10
4210.9590422367182327
 20
212.2459488767929088
 30
0.0
 40
0.0426634566966164
 50
234.241008236129403
 51
260.8583375132632227
  0
ARC
  5
AD56
  8
0
 10
4210.7474743674911224
 20
212.1255763699689965
 30
0.0
 40
0.1399908711282217
 50
38.9897125578171213
 51
46.4939150271466204
  0
ARC
  5
AD57
  8
0
 10
4210.8388758439250523
 20
212.1995649748137112
 30
0.0
 40
0.0223960432619965
 50
28.8674670967149183
 51
38.9890814841421474
  0
ARC
  5
AD58
  8
0
 10
4210.85359609054467
 20
212.207680085619586
 30
0.0
 40
0.0055870967181137
 50
16.1762983015756809
 51
28.8674670966906817
  0
ARC
  5
AD59
  8
0
 10
4210.8582728862447766
 20
212.2090367226664966
 30
0.0
 40
0.0007175092511611
 50
321.8737609637975083
 51
16.176298301735649
  0
ARC
  5
AD5A
  8
0
 10
4210.8584941592307587
 20
212.2090780455245067
 30
0.0
 40
0.0005935600035988
 50
261.1037708730667077
 51
305.3194216193181205
  0
ARC
  5
AD5B
  8
0
 10
4210.8608256191719192
 20
212.2175344011805862
 30
0.0
 40
0.0093618336440673
 50
234.211745133708007
 51
254.9985401799858948
  0
ARC
  5
AD5C
  8
0
 10
4210.9265994749221136
 20
212.3104456868769887
 30
0.0
 40
0.1231978308978852
 50
225.2264348497106994
 51
234.6670735789593039
  0
ARC
  5
AD5D
  8
0
 10
4210.5765066192197992
 20
211.9466440558558133
 30
0.0
 40
0.392543304724899
 50
39.6246934508023116
 51
46.3644722299354513
  0
ARC
  5
AD5E
  8
0
 10
4210.8164320333080468
 20
212.1453018529250869
 30
0.0
 40
0.0810483213602212
 50
30.163987884018141
 51
39.624693450807321
  0
ARC
  5
AD5F
  8
0
 10
4210.8796129058473525
 20
212.1820208554688918
 30
0.0
 40
0.0079722801257748
 50
354.208529799373423
 51
30.1639878839553397
  0
ARC
  5
AD60
  8
0
 10
4210.8861731188753765
 20
212.1839359367664883
 30
0.0
 40
0.0030457541273204
 50
247.7947381207731894
 51
296.7602247545638079
  0
ARC
  5
AD61
  8
0
 10
4210.8881668401372735
 20
212.1952903276020095
 30
0.0
 40
0.0145189301584878
 50
244.8875780499720918
 51
257.4906272886580041
  0
ARC
  5
AD62
  8
0
 10
4210.8126518064864285
 20
212.9273725145083915
 30
0.0
 40
0.4760028772711133
 50
221.0175131494505081
 51
225.4786381612335049
  0
ARC
  5
AD63
  8
0
 10
4210.5696117147408586
 20
212.7159705266385004
 30
0.0
 40
0.1538859937173968
 50
210.924237106635502
 51
221.0175131494517018
  0
ARC
  5
AD64
  8
0
 10
4210.4511327881573379
 20
212.6449942641189921
 30
0.0
 40
0.0157741336685405
 50
183.3731128429400883
 51
210.9242371066341093
  0
ARC
  5
AD65
  8
0
 10
4210.4501399274167852
 20
212.6449357448728961
 30
0.0
 40
0.0147795498609997
 50
139.5604245960483922
 51
183.3731128429336081
  0
LINE
  5
AD66
  8
0
 10
4210.4388913530774516
 20
212.6545224371805034
 30
0.0
 11
4210.4781477727474339
 21
212.6958273619204931
 31
0.0
  0
ARC
  5
AD67
  8
0
 10
4210.3482884828599708
 20
212.4582636553473094
 30
0.0
 40
0.2655356843020727
 50
45.0943543095020587
 51
55.3442117798860309
  0
ARC
  5
AD68
  8
0
 10
4210.2768678575066588
 20
212.4522972586368041
 30
0.0
 40
0.3159438486253768
 50
45.2533116382366671
 51
50.425949058683841
  0
ARC
  5
AD69
  8
0
 10
4210.44423112221466
 20
212.6560380402046917
 30
0.0
 40
0.0522831646512264
 50
49.5555322742617221
 51
66.5210987781367464
  0
ARC
  5
AD6A
  8
0
 10
4210.4622826921440719
 20
212.6972399958972062
 30
0.0
 40
0.0073018735138627
 50
67.6330269532228527
 51
95.8892967685162176
  0
ARC
  5
AD6B
  8
0
 10
4210.4620005781907821
 20
212.7025788798920019
 30
0.0
 40
0.0019803277503879
 50
103.643132602812301
 51
157.9042401664162867
  0
ARC
  5
AD6C
  8
0
 10
4210.5020969908982806
 20
212.7111937831056139
 30
0.0
 40
0.0426634566966164
 50
190.6300477080652058
 51
217.2473769851972918
  0
ARC
  5
AD6D
  8
0
 10
4210.3872604240832516
 20
212.4965707029502937
 30
0.0
 40
0.1399908709702603
 50
44.9944702090716433
 51
52.4986726656170291
  0
ARC
  5
AD6E
  8
0
 10
4210.4588499764113294
 20
212.5898631437038091
 30
0.0
 40
0.0223960432619965
 50
52.49930373719166
 51
62.6209181245935014
  0
ARC
  5
AD6F
  8
0
 10
4210.4665800011480314
 20
212.6047892082040107
 30
0.0
 40
0.0055870967181137
 50
62.6209181245994913
 51
75.3120869197115752
  0
ARC
  5
AD70
  8
0
 10
4210.4678147039812757
 20
212.6094996637035024
 30
0.0
 40
0.0007175092511611
 50
75.3120869195500404
 51
129.6146242574845076
  0
ARC
  5
AD71
  8
0
 10
4210.4678502654860495
 20
212.6097219353682135
 30
0.0
 40
0.0005935600035988
 50
146.1689636019962109
 51
190.3846143482666946
  0
ARC
  5
AD72
  8
0
 10
4210.4762432100178557
 20
212.6122722566271079
 30
0.0
 40
0.0093618336440673
 50
196.4898450413342061
 51
217.2766400875848944
  0
ARC
  5
AD73
  8
0
 10
4210.5674147185281981
 20
212.6804372267085057
 30
0.0
 40
0.1231978308978852
 50
216.8213116423486042
 51
226.2619503715995108
  0
ARC
  5
AD74
  8
0
 10
4210.2128292474508271
 20
212.3210129954040895
 30
0.0
 40
0.392543304724899
 50
45.1239129914053692
 51
51.8636917704912719
  0
ARC
  5
AD75
  8
0
 10
4210.4051881246014091
 20
212.5660174587160895
 30
0.0
 40
0.0810483213602212
 50
51.8636917704882592
 51
61.3243973372806224
  0
ARC
  5
AD76
  8
0
 10
4210.4402536595471247
 20
212.6301307651467027
 30
0.0
 40
0.0079722801257748
 50
61.3243973373380484
 51
97.2798554219533855
  0
ARC
  5
AD77
  8
0
 10
4210.4419976977687838
 20
212.6367385077294898
 30
0.0
 40
0.0030457541273204
 50
154.7281604667452939
 51
203.6936471005417957
  0
ARC
  5
AD78
  8
0
 10
4210.4532964722402539
 20
212.6390264786988098
 30
0.0
 40
0.0145189301584878
 50
193.9977579326466923
 51
206.600807171342808
  0
ARC
  5
AD79
  8
0
 10
4210.8094915508672784
 20
212.9304517235866001
 30
0.0
 40
0.4760028772711133
 50
226.009747060055588
 51
230.4708720718847133
  0
ARC
  5
AD7A
  8
0
 10
4210.6044736842441125
 20
212.6820026120265084
 30
0.0
 40
0.1538859937173968
 50
230.4708720718423933
 51
240.564148114659389
  0
ARC
  5
AD7B
  8
0
 10
4210.5365987756540562
 20
212.5617201001221019
 30
0.0
 40
0.0157741336685405
 50
240.564148114659389
 51
268.1152723783582132
  0
ARC
  5
AD7C
  8
0
 10
4210.5365660650149948
 20
212.5607260543663983
 30
0.0
 40
0.0147795498609997
 50
268.1152723783582132
 51
311.9279606252583221
  0
LINE
  5
AD7D
  8
0
 10
4210.5464416967342913
 20
212.5497302828046031
 30
0.0
 11
4210.5867130275792078
 21
212.5900463243405909
 31
0.0
  0
ARC
  5
AD7E
  8
0
 10
4210.352602476701577
 20
212.4540602963124059
 30
0.0
 40
0.2655356843020727
 50
36.144173441425572
 51
46.3940309118137506
  0
ARC
  5
AD7F
  8
0
 10
4210.3484931938173759
 20
212.3825087945141092
 30
0.0
 40
0.3159438486253768
 50
41.0624361626214025
 51
46.2350735830421016
  0
ARC
  5
AD80
  8
0
 10
4210.5478180916388737
 20
212.5551076170922897
 30
0.0
 40
0.0522831646512264
 50
24.9672864431749488
 51
41.9328529470345401
  0
ARC
  5
AD81
  8
0
 10
4210.5885372693292084
 20
212.5742232886233012
 30
0.0
 40
0.0073018735138627
 50
355.5990884528142146
 51
23.8553582680833891
  0
ARC
  5
AD82
  8
0
 10
4210.593881679756123
 20
212.5740799436316877
 30
0.0
 40
0.0019803277503879
 50
293.584145054881219
 51
347.845252618482391
  0
ARC
  5
AD83
  8
0
 10
4210.6014522000987199
 20
212.6143865943382139
 30
0.0
 40
0.0426634566966164
 50
234.241008236129403
 51
260.8583375132632227
  0
ARC
  5
AD84
  8
0
 10
4210.3898843308697906
 20
212.4940140875141878
 30
0.0
 40
0.1399908711282217
 50
38.9897125578171213
 51
46.4939150271466204
  0
ARC
  5
AD85
  8
0
 10
4210.4812858073037205
 20
212.5680026923589878
 30
0.0
 40
0.0223960432619965
 50
28.8674670967149183
 51
38.9890814841421474
  0
ARC
  5
AD86
  8
0
 10
4210.4960060539242477
 20
212.576117803164891
 30
0.0
 40
0.0055870967181137
 50
16.1762983015756809
 51
28.8674670966906817
  0
ARC
  5
AD87
  8
0
 10
4210.5006828496243543
 20
212.577474440211688
 30
0.0
 40
0.0007175092511611
 50
321.8737609637975083
 51
16.176298301735649
  0
ARC
  5
AD88
  8
0
 10
4210.5009041226112458
 20
212.5775157630696981
 30
0.0
 40
0.0005935600035988
 50
261.1037708730667077
 51
305.3194216193181205
  0
ARC
  5
AD89
  8
0
 10
4210.5032355825505874
 20
212.585972118725806
 30
0.0
 40
0.0093618336440673
 50
234.211745133708007
 51
254.9985401799858948
  0
ARC
  5
AD8A
  8
0
 10
4210.5690094383026008
 20
212.6788834044222085
 30
0.0
 40
0.1231978308978852
 50
225.2264348497106994
 51
234.6670735789593039
  0
ARC
  5
AD8B
  8
0
 10
4210.2189165826002863
 20
212.3150817734010047
 30
0.0
 40
0.392543304724899
 50
39.6246934508023116
 51
46.3644722299354513
  0
ARC
  5
AD8C
  8
0
 10
4210.4588419966876245
 20
212.5137395704703067
 30
0.0
 40
0.0810483213602212
 50
30.163987884018141
 51
39.624693450807321
  0
ARC
  5
AD8D
  8
0
 10
4210.5220228692260207
 20
212.5504585730141116
 30
0.0
 40
0.0079722801257748
 50
354.208529799373423
 51
30.1639878839553397
  0
ARC
  5
AD8E
  8
0
 10
4210.5285830822549542
 20
212.5523736543117934
 30
0.0
 40
0.0030457541273204
 50
247.7947381207731894
 51
296.7602247545638079
  0
ARC
  5
AD8F
  8
0
 10
4210.5305768035168512
 20
212.5637280451472009
 30
0.0
 40
0.0145189301584878
 50
244.8875780499720918
 51
257.4906272886580041
  0
ARC
  5
AD90
  8
0
 10
4210.9511344266638844
 20
212.7017603731864028
 30
0.0
 40
0.4760028772711133
 50
221.0175131494505081
 51
225.4786381612335049
  0
ARC
  5
AD91
  8
0
 10
4210.7080943349201334
 20
212.4903583853165969
 30
0.0
 40
0.1538859937173968
 50
210.924237106635502
 51
221.0175131494517018
  0
ARC
  5
AD92
  8
0
 10
4210.5896154083329748
 20
212.4193821227970886
 30
0.0
 40
0.0157741336685405
 50
183.3731128429400883
 51
210.9242371066341093
  0
ARC
  5
AD93
  8
0
 10
4210.588622547594241
 20
212.4193236035509926
 30
0.0
 40
0.0147795498609997
 50
139.5604245960483922
 51
183.3731128429336081
  0
LINE
  5
AD94
  8
0
 10
4210.5773739732530885
 20
212.4289102958586
 30
0.0
 11
4210.6166303929248897
 21
212.4702152205985897
 31
0.0
  0
ARC
  5
AD95
  8
0
 10
4210.4867711030374267
 20
212.232651514025406
 30
0.0
 40
0.2655356843020727
 50
45.0943543095020587
 51
55.3442117798860309
  0
ARC
  5
AD96
  8
0
 10
4210.4153504776850241
 20
212.2266851173149007
 30
0.0
 40
0.3159438486253768
 50
45.2533116382366671
 51
50.425949058683841
  0
ARC
  5
AD97
  8
0
 10
4210.5827137423921158
 20
212.4304258988827883
 30
0.0
 40
0.0522831646512264
 50
49.5555322742617221
 51
66.5210987781367464
  0
ARC
  5
AD98
  8
0
 10
4210.6007653123233467
 20
212.4716278545751891
 30
0.0
 40
0.0073018735138627
 50
67.6330269532228527
 51
95.8892967685162176
  0
ARC
  5
AD99
  8
0
 10
4210.6004831983682379
 20
212.4769667385700131
 30
0.0
 40
0.0019803277503879
 50
103.643132602812301
 51
157.9042401664162867
  0
ARC
  5
AD9A
  8
0
 10
4210.6405796110757365
 20
212.4855816417837104
 30
0.0
 40
0.0426634566966164
 50
190.6300477080652058
 51
217.2473769851972918
  0
ARC
  5
AD9B
  8
0
 10
4210.5257430442597979
 20
212.2709585616283903
 30
0.0
 40
0.1399908709702603
 50
44.9944702090716433
 51
52.4986726656170291
  0
ARC
  5
AD9C
  8
0
 10
4210.5973325965869662
 20
212.364251002381792
 30
0.0
 40
0.0223960432619965
 50
52.49930373719166
 51
62.6209181245935014
  0
ARC
  5
AD9D
  8
0
 10
4210.6050626213263968
 20
212.3791770668819936
 30
0.0
 40
0.0055870967181137
 50
62.6209181245994913
 51
75.3120869197115752
  0
ARC
  5
AD9E
  8
0
 10
4210.606297324157822
 20
212.383887522381599
 30
0.0
 40
0.0007175092511611
 50
75.3120869195500404
 51
129.6146242574845076
  0
ARC
  5
AD9F
  8
0
 10
4210.6063328856625958
 20
212.3841097940463101
 30
0.0
 40
0.0005935600035988
 50
146.1689636019962109
 51
190.3846143482666946
  0
ARC
  5
ADA0
  8
0
 10
4210.6147258301953116
 20
212.3866601153050908
 30
0.0
 40
0.0093618336440673
 50
196.4898450413342061
 51
217.2766400875848944
  0
ARC
  5
ADA1
  8
0
 10
4210.705897338703835
 20
212.4548250853866023
 30
0.0
 40
0.1231978308978852
 50
216.8213116423486042
 51
226.2619503715995108
  0
ARC
  5
ADA2
  8
0
 10
4210.3513118676282829
 20
212.0954008540821008
 30
0.0
 40
0.392543304724899
 50
45.1239129914053692
 51
51.8636917704912719
  0
ARC
  5
ADA3
  8
0
 10
4210.5436707447788649
 20
212.3404053173941861
 30
0.0
 40
0.0810483213602212
 50
51.8636917704882592
 51
61.3243973372806224
  0
ARC
  5
ADA4
  8
0
 10
4210.578736279723671
 20
212.404518623824714
 30
0.0
 40
0.0079722801257748
 50
61.3243973373380484
 51
97.2798554219533855
  0
ARC
  5
ADA5
  8
0
 10
4210.5804803179462397
 20
212.4111263664075864
 30
0.0
 40
0.0030457541273204
 50
154.7281604667452939
 51
203.6936471005417957
  0
ARC
  5
ADA6
  8
0
 10
4210.5917790924177098
 20
212.4134143373769064
 30
0.0
 40
0.0145189301584878
 50
193.9977579326466923
 51
206.600807171342808
  0
ARC
  5
ADA7
  8
0
 10
4210.9479741710456437
 20
212.7048395822646967
 30
0.0
 40
0.4760028772711133
 50
226.009747060055588
 51
230.4708720718847133
  0
ARC
  5
ADA8
  8
0
 10
4210.7429563044206589
 20
212.4563904707046049
 30
0.0
 40
0.1538859937173968
 50
230.4708720718423933
 51
240.564148114659389
  0
ARC
  5
ADA9
  8
0
 10
4210.6750813958306026
 20
212.3361079588001132
 30
0.0
 40
0.0157741336685405
 50
240.564148114659389
 51
268.1152723783582132
  0
ARC
  5
ADAA
  8
0
 10
4210.6750486851933601
 20
212.3351139130444096
 30
0.0
 40
0.0147795498609997
 50
268.1152723783582132
 51
311.9279606252583221
  0
LINE
  5
ADAB
  8
0
 10
4210.6849243169126566
 20
212.3241181414826997
 30
0.0
 11
4210.7251956477566637
 21
212.3644341830186022
 31
0.0
  0
ARC
  5
ADAC
  8
0
 10
4210.4910850968790328
 20
212.2284481549903887
 30
0.0
 40
0.2655356843020727
 50
36.144173441425572
 51
46.3940309118137506
  0
ARC
  5
ADAD
  8
0
 10
4210.4869758139948317
 20
212.1568966531920921
 30
0.0
 40
0.3159438486253768
 50
41.0624361626214025
 51
46.2350735830421016
  0
ARC
  5
ADAE
  8
0
 10
4210.6863007118172391
 20
212.3294954757703863
 30
0.0
 40
0.0522831646512264
 50
24.9672864431749488
 51
41.9328529470345401
  0
ARC
  5
ADAF
  8
0
 10
4210.7270198895075737
 20
212.3486111473013978
 30
0.0
 40
0.0073018735138627
 50
355.5990884528142146
 51
23.8553582680833891
  0
ARC
  5
ADB0
  8
0
 10
4210.7323642999335789
 20
212.3484678023098127
 30
0.0
 40
0.0019803277503879
 50
293.584145054881219
 51
347.845252618482391
  0
ARC
  5
ADB1
  8
0
 10
4210.7399348202761757
 20
212.3887744530161967
 30
0.0
 40
0.0426634566966164
 50
234.241008236129403
 51
260.8583375132632227
  0
ARC
  5
ADB2
  8
0
 10
4210.5283669510481559
 20
212.2684019461923128
 30
0.0
 40
0.1399908711282217
 50
38.9897125578171213
 51
46.4939150271466204
  0
ARC
  5
ADB3
  8
0
 10
4210.6197684274829953
 20
212.3423905510369991
 30
0.0
 40
0.0223960432619965
 50
28.8674670967149183
 51
38.9890814841421474
  0
ARC
  5
ADB4
  8
0
 10
4210.634488674100794
 20
212.3505056618429023
 30
0.0
 40
0.0055870967181137
 50
16.1762983015756809
 51
28.8674670966906817
  0
ARC
  5
ADB5
  8
0
 10
4210.6391654698018101
 20
212.351862298889813
 30
0.0
 40
0.0007175092511611
 50
321.8737609637975083
 51
16.176298301735649
  0
ARC
  5
ADB6
  8
0
 10
4210.6393867427896112
 20
212.3519036217477947
 30
0.0
 40
0.0005935600035988
 50
261.1037708730667077
 51
305.3194216193181205
  0
ARC
  5
ADB7
  8
0
 10
4210.6417182027289527
 20
212.3603599774039026
 30
0.0
 40
0.0093618336440673
 50
234.211745133708007
 51
254.9985401799858948
  0
ARC
  5
ADB8
  8
0
 10
4210.7074920584800566
 20
212.4532712631003051
 30
0.0
 40
0.1231978308978852
 50
225.2264348497106994
 51
234.6670735789593039
  0
ARC
  5
ADB9
  8
0
 10
4210.3573992027786517
 20
212.0894696320791013
 30
0.0
 40
0.392543304724899
 50
39.6246934508023116
 51
46.3644722299354513
  0
ARC
  5
ADBA
  8
0
 10
4210.5973246168650803
 20
212.2881274291484033
 30
0.0
 40
0.0810483213602212
 50
30.163987884018141
 51
39.624693450807321
  0
ARC
  5
ADBB
  8
0
 10
4210.660505489402567
 20
212.3248464316922082
 30
0.0
 40
0.0079722801257748
 50
354.208529799373423
 51
30.1639878839553397
  0
ARC
  5
ADBC
  8
0
 10
4210.66706570243241
 20
212.3267615129898047
 30
0.0
 40
0.0030457541273204
 50
247.7947381207731894
 51
296.7602247545638079
  0
ARC
  5
ADBD
  8
0
 10
4210.6690594236952165
 20
212.3381159038252974
 30
0.0
 40
0.0145189301584878
 50
244.8875780499720918
 51
257.4906272886580041
  0
ARC
  5
ADBE
  8
0
 10
4209.8980802913847583
 20
212.3966940238840095
 30
0.0
 40
0.5754752159633983
 50
43.1672589660206825
 51
47.1578431569821674
  0
ARC
  5
ADBF
  8
0
 10
4210.1406504266742559
 20
212.6855565241968122
 30
0.0
 40
0.1995944934806548
 50
41.8218901383715931
 51
51.0880138243502202
  0
ARC
  5
ADC0
  8
0
 10
4210.2574262296720917
 20
212.8320400491460873
 30
0.0
 40
0.0123174160695262
 50
45.75206080578387
 51
77.6411285605061039
  0
ARC
  5
ADC1
  8
0
 10
4210.2597633074492478
 20
212.8427061896832981
 30
0.0
 40
0.0013982363158355
 50
77.6411285601870844
 51
161.8245384084584941
  0
ARC
  5
ADC2
  8
0
 10
4210.2700339938155594
 20
212.8448849385318908
 30
0.0
 40
0.011729328046824
 50
188.5439339974043094
 51
207.9677252140999997
  0
ARC
  5
ADC3
  8
0
 10
4210.4946155613788505
 20
212.9676531610955976
 30
0.0
 40
0.2676755994166819
 50
208.6328796345563035
 51
213.0463872112015054
  0
ARC
  5
ADC4
  8
0
 10
4209.8668324600366759
 20
212.3771160698236997
 30
0.0
 40
0.6117011841006881
 50
37.2428111898567806
 51
42.5023799364582828
  0
ARC
  5
ADC5
  8
0
 10
4210.2980755385260636
 20
212.7025036676691059
 30
0.0
 40
0.0715020705897464
 50
23.4700582297739402
 51
38.8070805547353288
  0
ARC
  5
ADC6
  8
0
 10
4210.3567525390153605
 20
212.7277537478672116
 30
0.0
 40
0.0076260146396362
 50
358.6515245206908844
 51
25.0343275945611694
  0
ARC
  5
ADC7
  8
0
 10
4210.3595556649997889
 20
212.7276877631686887
 30
0.0
 40
0.0048221121313219
 50
339.8002142543047057
 51
358.6515245206859959
  0
ARC
  5
ADC8
  8
0
 10
4210.3620973103606957
 20
212.7272007311092921
 30
0.0
 40
0.0023072718272709
 50
304.157133724588391
 51
329.2983722761189824
  0
ARC
  5
ADC9
  8
0
 10
4210.3631270265132116
 20
212.7263857903299993
 30
0.0
 40
0.0011261306639196
 50
251.208467572259309
 51
283.6489054569735231
  0
ARC
  5
ADCA
  8
0
 10
4210.4368335376502728
 20
212.8465562408399876
 30
0.0
 40
0.1420723707693409
 50
229.5465030513996965
 51
238.5772268672091911
  0
LINE
  5
ADCB
  8
0
 10
4210.3537460852667209
 20
212.7473774399666979
 30
0.0
 11
4210.316394090797985
 21
212.7107039249578975
 31
0.0
  0
LINE
  5
ADCC
  8
0
 10
4210.2782643638165609
 20
212.8301256655427096
 30
0.0
 11
4210.2405491160197926
 21
212.790440282063912
 31
0.0
  0
ARC
  5
ADCD
  8
0
 10
4210.2515406992415592
 20
212.7808210440288121
 30
0.0
 40
0.0146063219902665
 50
138.8093434383972919
 51
160.8370290531202045
  0
ARC
  5
ADCE
  8
0
 10
4210.2505919302420807
 20
212.7820299405910873
 30
0.0
 40
0.0133391744862587
 50
164.4064597122016949
 51
204.482935345605199
  0
ARC
  5
ADCF
  8
0
 10
4210.308961029087186
 20
212.8154411076347969
 30
0.0
 40
0.080546660450082
 50
208.910104350856102
 51
221.3943683119470052
  0
ARC
  5
ADD0
  8
0
 10
4210.6235716745641184
 20
213.0745312957843112
 30
0.0
 40
0.4880718031401406
 50
219.7894907911527014
 51
223.2819639106978968
  0
ARC
  5
ADD1
  8
0
 10
4210.61950440180226
 20
213.0670495054739888
 30
0.0
 40
0.4799888006447148
 50
222.9646580503089126
 51
226.4255185649192015
  0
ARC
  5
ADD2
  8
0
 10
4210.3567970473732203
 20
212.7890380699197976
 30
0.0
 40
0.0975007498520388
 50
225.6577450754292045
 51
234.161858790941892
  0
ARC
  5
ADD3
  8
0
 10
4210.3080536216893961
 20
212.7214514050708942
 30
0.0
 40
0.0141709434811737
 50
233.9322810640940133
 51
269.9921612526975991
  0
ARC
  5
ADD4
  8
0
 10
4210.3077988207651288
 20
212.7197729031921938
 30
0.0
 40
0.012495000326272
 50
271.1595777368629001
 51
313.4638476201366188
  0
ARC
  5
ADD5
  8
0
 10
4210.0551425603398457
 20
212.5414243731694057
 30
0.0
 40
0.2960478481578903
 50
43.0077236639573499
 51
45.2010855610321087
  0
ARC
  5
ADD6
  8
0
 10
4210.1482360962663734
 20
212.6351736563022996
 30
0.0
 40
0.1639292101115726
 50
45.2010855610321087
 51
47.5067678131903506
  0
ARC
  5
ADD7
  8
0
 10
4210.2264442868054175
 20
212.7205431621351863
 30
0.0
 40
0.0481515197156614
 50
47.5067678131870608
 51
52.480598655730951
  0
ARC
  5
ADD8
  8
0
 10
4210.2514452142168011
 20
212.7531021712183019
 30
0.0
 40
0.0071011184508354
 50
52.4805986557871691
 51
64.5525159798199155
  0
ARC
  5
ADD9
  8
0
 10
4210.2543565984360612
 20
212.7592204408049099
 30
0.0
 40
0.0003254722975166
 50
64.5525159793054684
 51
120.6362052266987064
  0
ARC
  5
ADDA
  8
0
 10
4210.2543299551516611
 20
212.7593739067876868
 30
0.0
 40
0.0001881538474914
 50
137.7217922572442035
 51
167.9279650293686927
  0
ARC
  5
ADDB
  8
0
 10
4210.2547854663789622
 20
212.7593663301659888
 30
0.0
 40
0.0006412236066324
 50
175.8031088324900963
 51
206.5800100769884864
  0
ARC
  5
ADDC
  8
0
 10
4210.2686983537014385
 20
212.766250044835914
 30
0.0
 40
0.0161639093224561
 50
206.3350601861158964
 51
217.9818755876594878
  0
ARC
  5
ADDD
  8
0
 10
4210.4150999559897173
 20
212.880055432706996
 30
0.0
 40
0.2015960611527888
 50
217.8695271930143917
 51
223.8061971234700138
  0
ARC
  5
ADDE
  8
0
 10
4210.4411310450022938
 20
212.8999960130823865
 30
0.0
 40
0.2342137179315194
 50
222.918533263964008
 51
227.0523147119598946
  0
ARC
  5
ADDF
  8
0
 10
4210.3129092648314327
 20
212.7624604002382114
 30
0.0
 40
0.0461797888915376
 50
227.2360623730671989
 51
233.4185641967349909
  0
ARC
  5
ADE0
  8
0
 10
4210.2863604425301673
 20
212.7263643376579978
 30
0.0
 40
0.0013856122598902
 50
225.412133989492105
 51
273.2444470685517786
  0
ARC
  5
ADE1
  8
0
 10
4210.2862686766948173
 20
212.7251411050291949
 30
0.0
 40
0.0002336965613697
 50
316.7386190346455237
 51
19.3157915231321802
  0
ARC
  5
ADE2
  8
0
 10
4210.2723474524900666
 20
212.7187619534404917
 30
0.0
 40
0.0155459101473967
 50
24.5391663620298708
 51
39.3019493830476492
  0
ARC
  5
ADE3
  8
0
 10
4210.1150459179252721
 20
212.5951529141701997
 30
0.0
 40
0.2156004583445092
 50
38.2428910998582126
 51
43.4250262064067272
  0
ARC
  5
ADE4
  8
0
 10
4210.0080078828050318
 20
212.502298854449009
 30
0.0
 40
0.3702908410270351
 50
42.4593471040105896
 51
51.0948894684244266
  0
ARC
  5
ADE5
  8
0
 10
4210.014938034343686
 20
212.4910964292027131
 30
0.0
 40
0.3729652054684831
 50
36.0730292243357482
 51
44.4486487743654379
  0
ARC
  5
ADE6
  8
0
 10
4209.6998452750704018
 20
212.5610468522868075
 30
0.0
 40
0.5754752159633983
 50
43.1672589660206825
 51
47.1578431569821674
  0
ARC
  5
ADE7
  8
0
 10
4209.9424154103608089
 20
212.8499093525996955
 30
0.0
 40
0.1995944934806548
 50
41.8218901383715931
 51
51.0880138243502202
  0
ARC
  5
ADE8
  8
0
 10
4210.0591912133595542
 20
212.996392877548999
 30
0.0
 40
0.0123174160695262
 50
45.75206080578387
 51
77.6411285605061039
  0
ARC
  5
ADE9
  8
0
 10
4210.0615282911348913
 20
213.0070590180862098
 30
0.0
 40
0.0013982363158355
 50
77.6411285601870844
 51
161.8245384084584941
  0
ARC
  5
ADEA
  8
0
 10
4210.0717989775021124
 20
213.0092377669348025
 30
0.0
 40
0.011729328046824
 50
188.5439339974043094
 51
207.9677252140999997
  0
ARC
  5
ADEB
  8
0
 10
4210.2963805450663131
 20
213.1320059894985093
 30
0.0
 40
0.2676755994166819
 50
208.6328796345563035
 51
213.0463872112015054
  0
ARC
  5
ADEC
  8
0
 10
4209.6685974437250479
 20
212.5414688982266114
 30
0.0
 40
0.6117011841006881
 50
37.2428111898567806
 51
42.5023799364582828
  0
ARC
  5
ADED
  8
0
 10
4210.0998405222144356
 20
212.8668564960719038
 30
0.0
 40
0.0715020705897464
 50
23.4700582297739402
 51
38.8070805547353288
  0
ARC
  5
ADEE
  8
0
 10
4210.1585175227000946
 20
212.8921065762700096
 30
0.0
 40
0.0076260146396362
 50
358.6515245206908844
 51
25.0343275945611694
  0
ARC
  5
ADEF
  8
0
 10
4210.1613206486872514
 20
212.8920405915716003
 30
0.0
 40
0.0048221121313219
 50
339.8002142543047057
 51
358.6515245206859959
  0
ARC
  5
ADF0
  8
0
 10
4210.1638622940481582
 20
212.89155355951209
 30
0.0
 40
0.0023072718272709
 50
304.157133724588391
 51
329.2983722761189824
  0
ARC
  5
ADF1
  8
0
 10
4210.1648920102006741
 20
212.8907386187329109
 30
0.0
 40
0.0011261306639196
 50
251.208467572259309
 51
283.6489054569735231
  0
ARC
  5
ADF2
  8
0
 10
4210.2385985213377353
 20
213.010909069242814
 30
0.0
 40
0.1420723707693409
 50
229.5465030513996965
 51
238.5772268672091911
  0
LINE
  5
ADF3
  8
0
 10
4210.1555110689541834
 20
212.9117302683696096
 30
0.0
 11
4210.1181590744854475
 21
212.8750567533606954
 31
0.0
  0
LINE
  5
ADF4
  8
0
 10
4210.080029347504933
 20
212.9944784939455928
 30
0.0
 11
4210.0423140997072551
 21
212.9547931104667953
 31
0.0
  0
ARC
  5
ADF5
  8
0
 10
4210.0533056829290217
 20
212.9451738724316954
 30
0.0
 40
0.0146063219902665
 50
138.8093434383972919
 51
160.8370290531202045
  0
ARC
  5
ADF6
  8
0
 10
4210.0523569139277242
 20
212.946382768993999
 30
0.0
 40
0.0133391744862587
 50
164.4064597122016949
 51
204.482935345605199
  0
ARC
  5
ADF7
  8
0
 10
4210.1107260127737391
 20
212.9797939360377086
 30
0.0
 40
0.080546660450082
 50
208.910104350856102
 51
221.3943683119470052
  0
ARC
  5
ADF8
  8
0
 10
4210.425336658251581
 20
213.2388841241871091
 30
0.0
 40
0.4880718031401406
 50
219.7894907911527014
 51
223.2819639106978968
  0
ARC
  5
ADF9
  8
0
 10
4210.421269385488813
 20
213.2314023338767868
 30
0.0
 40
0.4799888006447148
 50
222.9646580503089126
 51
226.4255185649192015
  0
ARC
  5
ADFA
  8
0
 10
4210.1585620310597733
 20
212.9533908983225956
 30
0.0
 40
0.0975007498520388
 50
225.6577450754292045
 51
234.161858790941892
  0
ARC
  5
ADFB
  8
0
 10
4210.1098186053759491
 20
212.8858042334738059
 30
0.0
 40
0.0141709434811737
 50
233.9322810640940133
 51
269.9921612526975991
  0
ARC
  5
ADFC
  8
0
 10
4210.1095638044525913
 20
212.8841257315949917
 30
0.0
 40
0.012495000326272
 50
271.1595777368629001
 51
313.4638476201366188
  0
ARC
  5
ADFD
  8
0
 10
4209.8569075440263987
 20
212.705777201572289
 30
0.0
 40
0.2960478481578903
 50
43.0077236639573499
 51
45.2010855610321087
  0
ARC
  5
ADFE
  8
0
 10
4209.9500010799529264
 20
212.7995264847052113
 30
0.0
 40
0.1639292101115726
 50
45.2010855610321087
 51
47.5067678131903506
  0
ARC
  5
ADFF
  8
0
 10
4210.028209270491061
 20
212.884895990538098
 30
0.0
 40
0.0481515197156614
 50
47.5067678131870608
 51
52.480598655730951
  0
ARC
  5
AE00
  8
0
 10
4210.0532101979051731
 20
212.9174549996210999
 30
0.0
 40
0.0071011184508354
 50
52.4805986557871691
 51
64.5525159798199155
  0
ARC
  5
AE01
  8
0
 10
4210.0561215821207952
 20
212.9235732692077931
 30
0.0
 40
0.0003254722975166
 50
64.5525159793054684
 51
120.6362052266987064
  0
ARC
  5
AE02
  8
0
 10
4210.0560949388400331
 20
212.9237267351905132
 30
0.0
 40
0.0001881538474914
 50
137.7217922572442035
 51
167.9279650293686927
  0
ARC
  5
AE03
  8
0
 10
4210.0565504500664247
 20
212.9237191585687867
 30
0.0
 40
0.0006412236066324
 50
175.8031088324900963
 51
206.5800100769884864
  0
ARC
  5
AE04
  8
0
 10
4210.070463337387082
 20
212.9306028732387972
 30
0.0
 40
0.0161639093224561
 50
206.3350601861158964
 51
217.9818755876594878
  0
ARC
  5
AE05
  8
0
 10
4210.2168649396780893
 20
213.044408261109794
 30
0.0
 40
0.2015960611527888
 50
217.8695271930143917
 51
223.8061971234700138
  0
ARC
  5
AE06
  8
0
 10
4210.2428960286879374
 20
213.0643488414852129
 30
0.0
 40
0.2342137179315194
 50
222.918533263964008
 51
227.0523147119598946
  0
ARC
  5
AE07
  8
0
 10
4210.1146742485179857
 20
212.9268132286410946
 30
0.0
 40
0.0461797888915376
 50
227.2360623730671989
 51
233.4185641967349909
  0
ARC
  5
AE08
  8
0
 10
4210.0881254262149014
 20
212.8907171660609094
 30
0.0
 40
0.0013856122598902
 50
225.412133989492105
 51
273.2444470685517786
  0
ARC
  5
AE09
  8
0
 10
4210.0880336603822798
 20
212.8894939334319929
 30
0.0
 40
0.0002336965613697
 50
316.7386190346455237
 51
19.3157915231321802
  0
ARC
  5
AE0A
  8
0
 10
4210.0741124361784387
 20
212.8831147818432896
 30
0.0
 40
0.0155459101473967
 50
24.5391663620298708
 51
39.3019493830476492
  0
ARC
  5
AE0B
  8
0
 10
4209.9168109016118251
 20
212.7595057425729976
 30
0.0
 40
0.2156004583445092
 50
38.2428910998582126
 51
43.4250262064067272
  0
ARC
  5
AE0C
  8
0
 10
4209.8097728664934039
 20
212.6666516828518922
 30
0.0
 40
0.3702908410270351
 50
42.4593471040105896
 51
51.0948894684244266
  0
ARC
  5
AE0D
  8
0
 10
4209.8167030180311485
 20
212.6554492576055111
 30
0.0
 40
0.3729652054684831
 50
36.0730292243357482
 51
44.4486487743654379
  0
ARC
  5
AE0E
  8
0
 10
4209.5605487049997464
 20
212.7943099346099132
 30
0.0
 40
0.5754752159633983
 50
43.1672589660206825
 51
47.1578431569821674
  0
ARC
  5
AE0F
  8
0
 10
4209.803118840289244
 20
213.0831724349228011
 30
0.0
 40
0.1995944934806548
 50
41.8218901383715931
 51
51.0880138243502202
  0
ARC
  5
AE10
  8
0
 10
4209.9198946432870798
 20
213.2296559598721046
 30
0.0
 40
0.0123174160695262
 50
45.75206080578387
 51
77.6411285605061039
  0
ARC
  5
AE11
  8
0
 10
4209.9222317210651454
 20
213.240322100409287
 30
0.0
 40
0.0013982363158355
 50
77.6411285601870844
 51
161.8245384084584941
  0
ARC
  5
AE12
  8
0
 10
4209.932502407429638
 20
213.2425008492577945
 30
0.0
 40
0.011729328046824
 50
188.5439339974043094
 51
207.9677252140999997
  0
ARC
  5
AE13
  8
0
 10
4210.1570839749929291
 20
213.3652690718215865
 30
0.0
 40
0.2676755994166819
 50
208.6328796345563035
 51
213.0464814852419124
  0
ARC
  5
AE14
  8
0
 10
4209.3775251333781853
 20
212.6268619340100088
 30
0.0
 40
0.8235272715007491
 50
38.4199740799061615
 51
42.9528204167337719
  0
ARC
  5
AE15
  8
0
 10
4209.9670209607920697
 20
213.0938086763165984
 30
0.0
 40
0.0715020705897464
 50
23.4700582297739402
 51
38.8070805547353288
  0
ARC
  5
AE16
  8
0
 10
4210.0256979612795476
 20
213.1190587565147041
 30
0.0
 40
0.0076260146396362
 50
358.6515245206908844
 51
25.0343275945611694
  0
ARC
  5
AE17
  8
0
 10
4210.0285010872667044
 20
213.1189927718162949
 30
0.0
 40
0.0048221121313219
 50
339.8002142543047057
 51
358.6515245206859959
  0
ARC
  5
AE18
  8
0
 10
4210.0310427326267018
 20
213.118505739756813
 30
0.0
 40
0.0023072718272709
 50
304.157133724588391
 51
329.2983722761189824
  0
ARC
  5
AE19
  8
0
 10
4210.0320724487810367
 20
213.1176907989774918
 30
0.0
 40
0.0011261306639196
 50
251.208467572259309
 51
283.6489054569735231
  0
ARC
  5
AE1A
  8
0
 10
4210.1057789599171883
 20
213.2378612494875085
 30
0.0
 40
0.1420723707693409
 50
229.5463733023161979
 51
238.5772268672091911
  0
LINE
  5
AE1B
  8
0
 10
4210.0226915075336365
 20
213.1386824486141904
 30
0.0
 11
4209.9853395130649005
 21
213.10200893360539
 31
0.0
  0
LINE
  5
AE1C
  8
0
 10
4209.940732777431549
 20
213.2277415762686985
 30
0.0
 11
4209.9030175296347807
 21
213.1880561927899009
 31
0.0
  0
ARC
  5
AE1D
  8
0
 10
4209.9140091128556378
 20
213.178436954754801
 30
0.0
 40
0.0146063219902665
 50
138.8093434383972919
 51
160.8370290531202045
  0
ARC
  5
AE1E
  8
0
 10
4209.9130603438561593
 20
213.1796458513171046
 30
0.0
 40
0.0133391744862587
 50
164.4064597122016949
 51
204.482935345605199
  0
ARC
  5
AE1F
  8
0
 10
4209.9714294427021741
 20
213.2130570183607858
 30
0.0
 40
0.080546660450082
 50
208.910104350856102
 51
221.3943683119470052
  0
ARC
  5
AE20
  8
0
 10
4210.2860400881791065
 20
213.4721472065101864
 30
0.0
 40
0.4880718031401406
 50
219.7894907911527014
 51
223.2819639106978968
  0
ARC
  5
AE21
  8
0
 10
4210.5286726552485561
 20
213.7074515520874058
 30
0.0
 40
0.8260425190477562
 50
223.6254878168371079
 51
226.2635895046767018
  0
ARC
  5
AE22
  8
0
 10
4210.0257424696401358
 20
213.1803430785672901
 30
0.0
 40
0.0975007498520388
 50
225.6577450754292045
 51
234.161858790941892
  0
ARC
  5
AE23
  8
0
 10
4209.9769990439554022
 20
213.1127564137183867
 30
0.0
 40
0.0141709434811737
 50
233.9322810640940133
 51
269.9921612526975991
  0
ARC
  5
AE24
  8
0
 10
4209.9767442430311348
 20
213.1110779118396863
 30
0.0
 40
0.012495000326272
 50
271.1595777368629001
 51
313.4638476201366188
  0
ARC
  5
AE25
  8
0
 10
4209.7176109739548338
 20
212.9390402838953946
 30
0.0
 40
0.2960478481578903
 50
43.0077236639573499
 51
45.2010855610321087
  0
ARC
  5
AE26
  8
0
 10
4209.8107045098813614
 20
213.0327895670282885
 30
0.0
 40
0.1639292101115726
 50
45.2010855610321087
 51
47.5067678131903506
  0
ARC
  5
AE27
  8
0
 10
4209.8889127004204056
 20
213.1181590728612036
 30
0.0
 40
0.0481515197156614
 50
47.5067678131870608
 51
52.480598655730951
  0
ARC
  5
AE28
  8
0
 10
4209.9139136278317892
 20
213.1507180819442908
 30
0.0
 40
0.0071011184508354
 50
52.4805986557871691
 51
64.5525159798199155
  0
ARC
  5
AE29
  8
0
 10
4209.9168250120492303
 20
213.1568363515308988
 30
0.0
 40
0.0003254722975166
 50
64.5525159793054684
 51
120.6362052266987064
  0
ARC
  5
AE2A
  8
0
 10
4209.9167983687675587
 20
213.1569898175135904
 30
0.0
 40
0.0001881538474914
 50
137.7217922572442035
 51
167.9279650293686927
  0
ARC
  5
AE2B
  8
0
 10
4209.9172538799948597
 20
213.1569822408918924
 30
0.0
 40
0.0006412236066324
 50
175.8031088324900963
 51
206.5800100769884864
  0
ARC
  5
AE2C
  8
0
 10
4209.9311667673146076
 20
213.1638659555619029
 30
0.0
 40
0.0161639093224561
 50
206.3350601861158964
 51
217.9818755876594878
  0
ARC
  5
AE2D
  8
0
 10
4210.0775683696047054
 20
213.2776713434328997
 30
0.0
 40
0.2015960611527888
 50
217.8695271930143917
 51
223.8061971234700138
  0
ARC
  5
AE2E
  8
0
 10
4210.3297519054631266
 20
213.5208590440915088
 30
0.0
 40
0.5519337154265748
 50
223.9035914389125139
 51
226.5963453004133896
  0
ARC
  5
AE2F
  8
0
 10
4209.9818546870974387
 20
213.1537654088857039
 30
0.0
 40
0.0461797888915376
 50
227.2360623730671989
 51
233.4185641967349909
  0
ARC
  5
AE30
  8
0
 10
4209.9553058647961734
 20
213.1176693463054903
 30
0.0
 40
0.0013856122598902
 50
225.412133989492105
 51
273.2444470685517786
  0
ARC
  5
AE31
  8
0
 10
4209.9552140989626423
 20
213.1164461136766874
 30
0.0
 40
0.0002336965613697
 50
316.7386190346455237
 51
19.3157915231321802
  0
ARC
  5
AE32
  8
0
 10
4209.9412928747578917
 20
213.1100669620880126
 30
0.0
 40
0.0155459101473967
 50
24.5391663620298708
 51
39.3019493830476492
  0
ARC
  5
AE33
  8
0
 10
4209.6032569527324085
 20
212.8196805846631889
 30
0.0
 40
0.461178887418722
 50
40.6179915236603009
 51
44.1610568056296771
  0
ARC
  5
AE34
  8
0
 10
4209.5840110834087682
 20
212.8031436879718967
 30
0.0
 40
0.4999422060251446
 50
42.9172397763502786
 51
50.3487065613192826
  0
ARC
  5
AE35
  8
0
 10
4209.6838834566106016
 20
212.8824014378502909
 30
0.0
 40
0.3729652054684831
 50
36.0730292243357482
 51
44.4486487743654379
  0
ARC
  5
AE36
  8
0
 10
4209.3665999670865858
 20
212.9671603271463027
 30
0.0
 40
0.5754752159633983
 50
43.1672589660206825
 51
47.1578431569821674
  0
ARC
  5
AE37
  8
0
 10
4209.6091701023769929
 20
213.2560228274591907
 30
0.0
 40
0.1995944934806548
 50
41.8218901383715931
 51
51.0880138243502202
  0
ARC
  5
AE38
  8
0
 10
4209.7259459053748287
 20
213.4025063524084942
 30
0.0
 40
0.0123174160695262
 50
45.75206080578387
 51
77.6411285605061039
  0
ARC
  5
AE39
  8
0
 10
4209.7282829831519848
 20
213.413172492945705
 30
0.0
 40
0.0013982363158355
 50
77.6411285601870844
 51
161.8245384084584941
  0
ARC
  5
AE3A
  8
0
 10
4209.7385536695182964
 20
213.4153512417942977
 30
0.0
 40
0.011729328046824
 50
188.5439339974043094
 51
207.9677252140999997
  0
ARC
  5
AE3B
  8
0
 10
4209.9631352370815875
 20
213.5381194643580898
 30
0.0
 40
0.2676755994166819
 50
208.6328796345563035
 51
213.0463872112015054
  0
ARC
  5
AE3C
  8
0
 10
4208.8346805504934309
 20
212.4566600705261976
 30
0.0
 40
1.3127116629978619
 50
39.9453006939033415
 51
43.5354686398277195
  0
ARC
  5
AE3D
  8
0
 10
4209.7853623825149043
 20
213.2546840973575115
 30
0.0
 40
0.0715020705897464
 50
23.4700582297739402
 51
38.8070805547353288
  0
ARC
  5
AE3E
  8
0
 10
4209.8440393830032917
 20
213.2799341775555888
 30
0.0
 40
0.0076260146396362
 50
358.6515245206908844
 51
25.0343275945611694
  0
ARC
  5
AE3F
  8
0
 10
4209.8468425089904486
 20
213.279868192857208
 30
0.0
 40
0.0048221121313219
 50
339.8002142543047057
 51
358.6515245206859959
  0
ARC
  5
AE40
  8
0
 10
4209.8493841543486269
 20
213.2793811607976977
 30
0.0
 40
0.0023072718272709
 50
304.157133724588391
 51
329.2983722761189824
  0
ARC
  5
AE41
  8
0
 10
4209.8504138705029618
 20
213.2785662200184902
 30
0.0
 40
0.0011261306639196
 50
251.208467572259309
 51
283.6489054569735231
  0
ARC
  5
AE42
  8
0
 10
4209.924120381638204
 20
213.3987366705283932
 30
0.0
 40
0.1420723707693409
 50
229.5463733023684085
 51
238.5772268672091911
  0
LINE
  5
AE43
  8
0
 10
4209.8410329292555616
 20
213.2995578696551888
 30
0.0
 11
4209.8036809347859162
 21
213.2628843546463884
 31
0.0
  0
LINE
  5
AE44
  8
0
 10
4209.7467840395202074
 20
213.4005919688050881
 30
0.0
 11
4209.7090687917234391
 21
213.3609065853264042
 31
0.0
  0
ARC
  5
AE45
  8
0
 10
4209.7200603749442962
 20
213.3512873472911906
 30
0.0
 40
0.0146063219902665
 50
138.8093434383972919
 51
160.8370290531202045
  0
ARC
  5
AE46
  8
0
 10
4209.7191116059439082
 20
213.3524962438534942
 30
0.0
 40
0.0133391744862587
 50
164.4064597122016949
 51
204.482935345605199
  0
ARC
  5
AE47
  8
0
 10
4209.7774807047890135
 20
213.3859074108972038
 30
0.0
 40
0.080546660450082
 50
208.910104350856102
 51
221.3943683119470052
  0
ARC
  5
AE48
  8
0
 10
4210.0920913502668554
 20
213.6449975990466896
 30
0.0
 40
0.4880718031401406
 50
219.7894907911527014
 51
223.2819639106978968
  0
ARC
  5
AE49
  8
0
 10
4210.982022041314849
 20
214.5248901778194863
 30
0.0
 40
1.7394421837757781
 50
224.2841853813644093
 51
226.1021385760884925
  0
ARC
  5
AE4A
  8
0
 10
4209.844083891362061
 20
213.3412184996082033
 30
0.0
 40
0.0975007498520388
 50
225.6577450754292045
 51
234.161858790941892
  0
ARC
  5
AE4B
  8
0
 10
4209.7953404656782368
 20
213.2736318347594136
 30
0.0
 40
0.0141709434811737
 50
233.9322810640940133
 51
269.9921612526975991
  0
ARC
  5
AE4C
  8
0
 10
4209.7950856647539695
 20
213.2719533328805994
 30
0.0
 40
0.012495000326272
 50
271.1595777368629001
 51
313.4638476201366188
  0
ARC
  5
AE4D
  8
0
 10
4209.5236622360416732
 20
213.1118906764318126
 30
0.0
 40
0.2960478481578903
 50
43.0077236639573499
 51
45.2010855610321087
  0
ARC
  5
AE4E
  8
0
 10
4209.6167557719691104
 20
213.2056399595647065
 30
0.0
 40
0.1639292101115726
 50
45.2010855610321087
 51
47.5067678131903506
  0
ARC
  5
AE4F
  8
0
 10
4209.694963962507245
 20
213.2910094653975932
 30
0.0
 40
0.0481515197156614
 50
47.5067678131870608
 51
52.480598655730951
  0
ARC
  5
AE50
  8
0
 10
4209.7199648899204476
 20
213.3235684744807088
 30
0.0
 40
0.0071011184508354
 50
52.4805986557871691
 51
64.5525159798199155
  0
ARC
  5
AE51
  8
0
 10
4209.7228762741369792
 20
213.3296867440674021
 30
0.0
 40
0.0003254722975166
 50
64.5525159793054684
 51
120.6362052266987064
  0
ARC
  5
AE52
  8
0
 10
4209.7228496308553076
 20
213.3298402100500084
 30
0.0
 40
0.0001881538474914
 50
137.7217922572442035
 51
167.9279650293686927
  0
ARC
  5
AE53
  8
0
 10
4209.7233051420826087
 20
213.3298326334283104
 30
0.0
 40
0.0006412236066324
 50
175.8031088324900963
 51
206.5800100769884864
  0
ARC
  5
AE54
  8
0
 10
4209.737218029403266
 20
213.3367163480982924
 30
0.0
 40
0.0161639093224561
 50
206.3350601861158964
 51
217.9818755876594878
  0
ARC
  5
AE55
  8
0
 10
4209.8836196316933638
 20
213.4505217359692892
 30
0.0
 40
0.2015960611527888
 50
217.8695271930143917
 51
223.8061971234700138
  0
ARC
  5
AE56
  8
0
 10
4210.8223263755016887
 20
214.3814950515426005
 30
0.0
 40
1.5236464283916309
 50
224.6364207764694925
 51
226.257079785556499
  0
ARC
  5
AE57
  8
0
 10
4209.8001961088202734
 20
213.3146408299267023
 30
0.0
 40
0.0461797888915376
 50
227.2360623730671989
 51
233.4185641967349909
  0
ARC
  5
AE58
  8
0
 10
4209.7736472865171891
 20
213.2785447673464887
 30
0.0
 40
0.0013856122598902
 50
225.412133989492105
 51
273.2444470685517786
  0
ARC
  5
AE59
  8
0
 10
4209.773555520683658
 20
213.2773215347176858
 30
0.0
 40
0.0002336965613697
 50
316.7386190346455237
 51
19.3157915231321802
  0
ARC
  5
AE5A
  8
0
 10
4209.7596342964807263
 20
213.270942383129011
 30
0.0
 40
0.0155459101473967
 50
24.5391663620298708
 51
39.3019493830476492
  0
ARC
  5
AE5B
  8
0
 10
4208.9007006055653619
 20
212.4814867933866935
 30
0.0
 40
1.182142847318191
 50
42.5432941017546824
 51
44.7562274460622689
  0
ARC
  5
AE5C
  8
0
 10
4209.4765275585086783
 20
213.0727651577113875
 30
0.0
 40
0.3702908410270351
 50
42.4593471040105896
 51
51.0948894684244266
  0
ARC
  5
AE5D
  8
0
 10
4209.1715368966342794
 20
212.7471375933633908
 30
0.0
 40
0.8158434335522613
 50
39.2099848146697596
 51
44.8723150865288574
  0
ARC
  5
AE5E
  8
0
 10
4209.2054243974516794
 20
213.1666174948533978
 30
0.0
 40
0.5754752159633983
 50
43.1672589660206825
 51
47.1578431569821674
  0
ARC
  5
AE5F
  8
0
 10
4209.447994532741177
 20
213.4554799951662858
 30
0.0
 40
0.1995944934806548
 50
41.8218901383715931
 51
51.0880138243502202
  0
ARC
  5
AE60
  8
0
 10
4209.5647703357390128
 20
213.6019635201155893
 30
0.0
 40
0.0123174160695262
 50
45.75206080578387
 51
77.6411285605061039
  0
ARC
  5
AE61
  8
0
 10
4209.5671074135161689
 20
213.6126296606526864
 30
0.0
 40
0.0013982363158355
 50
77.6411285601870844
 51
161.8245384084584941
  0
ARC
  5
AE62
  8
0
 10
4209.577378099881571
 20
213.6148084095013076
 30
0.0
 40
0.011729328046824
 50
188.5439339974043094
 51
207.9677252140999997
  0
ARC
  5
AE63
  8
0
 10
4209.8019596674466811
 20
213.7375766320650996
 30
0.0
 40
0.2676755994166819
 50
208.6328796345563035
 51
213.0463872112015054
  0
ARC
  5
AE64
  8
0
 10
4209.174176566103597
 20
213.1470395407932017
 30
0.0
 40
0.6117011841006881
 50
37.2428111898567806
 51
42.5023799364582828
  0
ARC
  5
AE65
  8
0
 10
4209.6054196445929847
 20
213.4724271386384942
 30
0.0
 40
0.0715020705897464
 50
23.4700582297739402
 51
38.8070805547353288
  0
ARC
  5
AE66
  8
0
 10
4209.6640966450813721
 20
213.4976772188365999
 30
0.0
 40
0.0076260146396362
 50
358.6515245206908844
 51
25.0343275945611694
  0
ARC
  5
AE67
  8
0
 10
4209.6668997710667099
 20
213.4976112341381054
 30
0.0
 40
0.0048221121313219
 50
339.8002142543047057
 51
358.6515245206859959
  0
ARC
  5
AE68
  8
0
 10
4209.6694414164267073
 20
213.4971242020787088
 30
0.0
 40
0.0023072718272709
 50
304.157133724588391
 51
329.2983722761189824
  0
ARC
  5
AE69
  8
0
 10
4209.6704711325810422
 20
213.4963092612993876
 30
0.0
 40
0.0011261306639196
 50
251.208467572259309
 51
283.6489054569735231
  0
ARC
  5
AE6A
  8
0
 10
4209.7441776437171939
 20
213.6164797118094043
 30
0.0
 40
0.1420723707693409
 50
229.5465030513996965
 51
238.5772268672091911
  0
LINE
  5
AE6B
  8
0
 10
4209.661090191333642
 20
213.5173009109361999
 30
0.0
 11
4209.6237381968649061
 21
213.4806273959273142
 31
0.0
  0
LINE
  5
AE6C
  8
0
 10
4209.5856084698843915
 20
213.6000491365120979
 30
0.0
 11
4209.5478932220867136
 21
213.560363753033414
 31
0.0
  0
ARC
  5
AE6D
  8
0
 10
4209.5588848053075708
 20
213.5507445149982004
 30
0.0
 40
0.0146063219902665
 50
138.8093434383972919
 51
160.8370290531202045
  0
ARC
  5
AE6E
  8
0
 10
4209.5579360363090018
 20
213.551953411560504
 30
0.0
 40
0.0133391744862587
 50
164.4064597122016949
 51
204.482935345605199
  0
ARC
  5
AE6F
  8
0
 10
4209.6163051351541071
 20
213.5853645786042989
 30
0.0
 40
0.080546660450082
 50
208.910104350856102
 51
221.3943683119470052
  0
ARC
  5
AE70
  8
0
 10
4209.93091578063013
 20
213.8444547667536995
 30
0.0
 40
0.4880718031401406
 50
219.7894907911527014
 51
223.2819639106978968
  0
ARC
  5
AE71
  8
0
 10
4209.926848507869181
 20
213.8369729764434055
 30
0.0
 40
0.4799888006447148
 50
222.9646580503089126
 51
226.4255185649192015
  0
ARC
  5
AE72
  8
0
 10
4209.6641411534401414
 20
213.5589615408891859
 30
0.0
 40
0.0975007498520388
 50
225.6577450754292045
 51
234.161858790941892
  0
ARC
  5
AE73
  8
0
 10
4209.6153977277563172
 20
213.4913748760403109
 30
0.0
 40
0.0141709434811737
 50
233.9322810640940133
 51
269.9921612526975991
  0
ARC
  5
AE74
  8
0
 10
4209.6151429268320499
 20
213.4896963741616105
 30
0.0
 40
0.012495000326272
 50
271.1595777368629001
 51
313.4638476201366188
  0
ARC
  5
AE75
  8
0
 10
4209.3624866664058572
 20
213.311347844138794
 30
0.0
 40
0.2960478481578903
 50
43.0077236639573499
 51
45.2010855610321087
  0
ARC
  5
AE76
  8
0
 10
4209.4555802023332944
 20
213.4050971272716879
 30
0.0
 40
0.1639292101115726
 50
45.2010855610321087
 51
47.5067678131903506
  0
ARC
  5
AE77
  8
0
 10
4209.5337883928714291
 20
213.490466633104603
 30
0.0
 40
0.0481515197156614
 50
47.5067678131870608
 51
52.480598655730951
  0
ARC
  5
AE78
  8
0
 10
4209.5587893202846317
 20
213.5230256421876902
 30
0.0
 40
0.0071011184508354
 50
52.4805986557871691
 51
64.5525159798199155
  0
ARC
  5
AE79
  8
0
 10
4209.5617007045020728
 20
213.5291439117744119
 30
0.0
 40
0.0003254722975166
 50
64.5525159793054684
 51
120.6362052266987064
  0
ARC
  5
AE7A
  8
0
 10
4209.5616740612185822
 20
213.5292973777571035
 30
0.0
 40
0.0001881538474914
 50
137.7217922572442035
 51
167.9279650293686927
  0
ARC
  5
AE7B
  8
0
 10
4209.5621295724467927
 20
213.5292898011354055
 30
0.0
 40
0.0006412236066324
 50
175.8031088324900963
 51
206.5800100769884864
  0
ARC
  5
AE7C
  8
0
 10
4209.5760424597683595
 20
213.5361735158053023
 30
0.0
 40
0.0161639093224561
 50
206.3350601861158964
 51
217.9818755876594878
  0
ARC
  5
AE7D
  8
0
 10
4209.7224440620575479
 20
213.6499789036764128
 30
0.0
 40
0.2015960611527888
 50
217.8695271930143917
 51
223.8061971234700138
  0
ARC
  5
AE7E
  8
0
 10
4209.7484751510683054
 20
213.6699194840518032
 30
0.0
 40
0.2342137179315194
 50
222.918533263964008
 51
227.0523147119598946
  0
ARC
  5
AE7F
  8
0
 10
4209.6202533708983538
 20
213.5323838712075997
 30
0.0
 40
0.0461797888915376
 50
227.2360623730671989
 51
233.4185641967349909
  0
ARC
  5
AE80
  8
0
 10
4209.5937045485961789
 20
213.4962878086273861
 30
0.0
 40
0.0013856122598902
 50
225.412133989492105
 51
273.2444470685517786
  0
ARC
  5
AE81
  8
0
 10
4209.5936127827626478
 20
213.4950645759986116
 30
0.0
 40
0.0002336965613697
 50
316.7386190346455237
 51
19.3157915231321802
  0
ARC
  5
AE82
  8
0
 10
4209.5796915585578972
 20
213.4886854244099084
 30
0.0
 40
0.0155459101473967
 50
24.5391663620298708
 51
39.3019493830476492
  0
ARC
  5
AE83
  8
0
 10
4209.4223900239921932
 20
213.365076385139588
 30
0.0
 40
0.2156004583445092
 50
38.2428910998582126
 51
43.4250262064067272
  0
ARC
  5
AE84
  8
0
 10
4209.3153519888719529
 20
213.2722223254183973
 30
0.0
 40
0.3702908410270351
 50
42.4593471040105896
 51
51.0948894684244266
  0
ARC
  5
AE85
  8
0
 10
4209.3222821404106071
 20
213.2610199001721014
 30
0.0
 40
0.3729652054684831
 50
36.0730292243357482
 51
44.4486487743654379
  0
ARC
  5
AE86
  8
0
 10
4210.045529384731708
 20
212.1742920742325964
 30
0.0
 40
0.5754752159633983
 50
43.1672589660206825
 51
47.1578431569821674
  0
ARC
  5
AE87
  8
0
 10
4210.288099520022115
 20
212.4631545745453991
 30
0.0
 40
0.1995944934806548
 50
41.8218901383715931
 51
51.0880138243502202
  0
ARC
  5
AE88
  8
0
 10
4210.4048753230199509
 20
212.6096380994947879
 30
0.0
 40
0.0123174160695262
 50
45.75206080578387
 51
77.6411285605061039
  0
ARC
  5
AE89
  8
0
 10
4210.407212400797107
 20
212.6203042400319134
 30
0.0
 40
0.0013982363158355
 50
77.6411285601870844
 51
161.8245384084584941
  0
ARC
  5
AE8A
  8
0
 10
4210.4174830871634185
 20
212.6224829888805061
 30
0.0
 40
0.011729328046824
 50
188.5439339974043094
 51
207.9677252140999997
  0
ARC
  5
AE8B
  8
0
 10
4210.6420646547267097
 20
212.7452512114442982
 30
0.0
 40
0.2676755994166819
 50
208.6328796345563035
 51
213.0463872112015054
  0
ARC
  5
AE8C
  8
0
 10
4210.0142815533863541
 20
212.1547141201724003
 30
0.0
 40
0.6117011841006881
 50
37.2428111898567806
 51
42.5023799364582828
  0
ARC
  5
AE8D
  8
0
 10
4210.4455246318739228
 20
212.4801017180176927
 30
0.0
 40
0.0715020705897464
 50
23.4700582297739402
 51
38.8070805547353288
  0
ARC
  5
AE8E
  8
0
 10
4210.5042016323614007
 20
212.5053517982157985
 30
0.0
 40
0.0076260146396362
 50
358.6515245206908844
 51
25.0343275945611694
  0
ARC
  5
AE8F
  8
0
 10
4210.5070047583485575
 20
212.5052858135173892
 30
0.0
 40
0.0048221121313219
 50
339.8002142543047057
 51
358.6515245206859959
  0
ARC
  5
AE90
  8
0
 10
4210.5095464037085549
 20
212.5047987814579074
 30
0.0
 40
0.0023072718272709
 50
304.157133724588391
 51
329.2983722761189824
  0
ARC
  5
AE91
  8
0
 10
4210.5105761198619803
 20
212.5039838406785861
 30
0.0
 40
0.0011261306639196
 50
251.208467572259309
 51
283.6489054569735231
  0
ARC
  5
AE92
  8
0
 10
4210.5842826309981319
 20
212.6241542911886029
 30
0.0
 40
0.1420723707693409
 50
229.5465030513996965
 51
238.5772268672091911
  0
LINE
  5
AE93
  8
0
 10
4210.5011951786136706
 20
212.5249754903153132
 30
0.0
 11
4210.4638431841458441
 21
212.4883019753065128
 31
0.0
  0
LINE
  5
AE94
  8
0
 10
4210.4257134571653296
 20
212.6077237158912965
 30
0.0
 11
4210.3879982093685612
 21
212.5680383324126126
 31
0.0
  0
ARC
  5
AE95
  8
0
 10
4210.3989897925894184
 20
212.558419094377399
 30
0.0
 40
0.0146063219902665
 50
138.8093434383972919
 51
160.8370290531202045
  0
ARC
  5
AE96
  8
0
 10
4210.3980410235899399
 20
212.5596279909397026
 30
0.0
 40
0.0133391744862587
 50
164.4064597122016949
 51
204.482935345605199
  0
ARC
  5
AE97
  8
0
 10
4210.4564101224341357
 20
212.5930391579834975
 30
0.0
 40
0.080546660450082
 50
208.910104350856102
 51
221.3943683119470052
  0
ARC
  5
AE98
  8
0
 10
4210.7710207679119776
 20
212.852129346132898
 30
0.0
 40
0.4880718031401406
 50
219.7894907911527014
 51
223.2819639106978968
  0
ARC
  5
AE99
  8
0
 10
4210.7669534951501191
 20
212.8446475558226041
 30
0.0
 40
0.4799888006447148
 50
222.9646580503089126
 51
226.4255185649192015
  0
ARC
  5
AE9A
  8
0
 10
4210.5042461407210794
 20
212.5666361202684129
 30
0.0
 40
0.0975007498520388
 50
225.6577450754292045
 51
234.161858790941892
  0
ARC
  5
AE9B
  8
0
 10
4210.4555027150381648
 20
212.4990494554195095
 30
0.0
 40
0.0141709434811737
 50
233.9322810640940133
 51
269.9921612526975991
  0
ARC
  5
AE9C
  8
0
 10
4210.4552479141129879
 20
212.4973709535408091
 30
0.0
 40
0.012495000326272
 50
271.1595777368629001
 51
313.4638476201366188
  0
ARC
  5
AE9D
  8
0
 10
4210.2025916536877048
 20
212.3190224235179926
 30
0.0
 40
0.2960478481578903
 50
43.0077236639573499
 51
45.2010855610321087
  0
ARC
  5
AE9E
  8
0
 10
4210.2956851896142325
 20
212.4127717066508865
 30
0.0
 40
0.1639292101115726
 50
45.2010855610321087
 51
47.5067678131903506
  0
ARC
  5
AE9F
  8
0
 10
4210.3738933801523672
 20
212.4981412124838016
 30
0.0
 40
0.0481515197156614
 50
47.5067678131870608
 51
52.480598655730951
  0
ARC
  5
AEA0
  8
0
 10
4210.3988943075646603
 20
212.5307002215668888
 30
0.0
 40
0.0071011184508354
 50
52.4805986557871691
 51
64.5525159798199155
  0
ARC
  5
AEA1
  8
0
 10
4210.4018056917821013
 20
212.5368184911536105
 30
0.0
 40
0.0003254722975166
 50
64.5525159793054684
 51
120.6362052266987064
  0
ARC
  5
AEA2
  8
0
 10
4210.4017790485004298
 20
212.5369719571363021
 30
0.0
 40
0.0001881538474914
 50
137.7217922572442035
 51
167.9279650293686927
  0
ARC
  5
AEA3
  8
0
 10
4210.4022345597277308
 20
212.536964380514604
 30
0.0
 40
0.0006412236066324
 50
175.8031088324900963
 51
206.5800100769884864
  0
ARC
  5
AEA4
  8
0
 10
4210.4161474470483881
 20
212.5438480951845008
 30
0.0
 40
0.0161639093224561
 50
206.3350601861158964
 51
217.9818755876594878
  0
ARC
  5
AEA5
  8
0
 10
4210.5625490493375764
 20
212.6576534830554976
 30
0.0
 40
0.2015960611527888
 50
217.8695271930143917
 51
223.8061971234700138
  0
ARC
  5
AEA6
  8
0
 10
4210.5885801383492435
 20
212.6775940634310018
 30
0.0
 40
0.2342137179315194
 50
222.918533263964008
 51
227.0523147119598946
  0
ARC
  5
AEA7
  8
0
 10
4210.4603583581792918
 20
212.5400584505867982
 30
0.0
 40
0.0461797888915376
 50
227.2360623730671989
 51
233.4185641967349909
  0
ARC
  5
AEA8
  8
0
 10
4210.433809535877117
 20
212.5039623880066131
 30
0.0
 40
0.0013856122598902
 50
225.412133989492105
 51
273.2444470685517786
  0
ARC
  5
AEA9
  8
0
 10
4210.4337177700426764
 20
212.5027391553778102
 30
0.0
 40
0.0002336965613697
 50
316.7386190346455237
 51
19.3157915231321802
  0
ARC
  5
AEAA
  8
0
 10
4210.4197965458379258
 20
212.4963600037891069
 30
0.0
 40
0.0155459101473967
 50
24.5391663620298708
 51
39.3019493830476492
  0
ARC
  5
AEAB
  8
0
 10
4210.2624950112722217
 20
212.3727509645187865
 30
0.0
 40
0.2156004583445092
 50
38.2428910998582126
 51
43.4250262064067272
  0
ARC
  5
AEAC
  8
0
 10
4210.1554569761538005
 20
212.2798969047975959
 30
0.0
 40
0.3702908410270351
 50
42.4593471040105896
 51
51.0948894684244266
  0
ARC
  5
AEAD
  8
0
 10
4210.1623871276906357
 20
212.2686944795513
 30
0.0
 40
0.3729652054684831
 50
36.0730292243357482
 51
44.4486487743654379
  0
ARC
  5
AEAE
  8
0
 10
4209.8459381258580834
 20
212.3450164647437077
 30
0.0
 40
0.5754752159633983
 50
43.1672589660206825
 51
47.1578431569821674
  0
ARC
  5
AEAF
  8
0
 10
4210.0885082611475809
 20
212.6338789650565957
 30
0.0
 40
0.1995944934806548
 50
41.8218901383715931
 51
51.0880138243502202
  0
ARC
  5
AEB0
  8
0
 10
4210.2052840641463263
 20
212.7803624900058992
 30
0.0
 40
0.0123174160695262
 50
45.75206080578387
 51
77.6411285605061039
  0
ARC
  5
AEB1
  8
0
 10
4210.2076211419216634
 20
212.79102863054311
 30
0.0
 40
0.0013982363158355
 50
77.6411285601870844
 51
161.8245384084584941
  0
ARC
  5
AEB2
  8
0
 10
4210.2178918282888844
 20
212.7932073793917027
 30
0.0
 40
0.011729328046824
 50
188.5439339974043094
 51
207.9677252140999997
  0
ARC
  5
AEB3
  8
0
 10
4210.4424733958530851
 20
212.9159756019554095
 30
0.0
 40
0.2676755994166819
 50
208.6328796345563035
 51
213.0463872112015054
  0
ARC
  5
AEB4
  8
0
 10
4209.8146902945109105
 20
212.3254385106835116
 30
0.0
 40
0.6117011841006881
 50
37.2428111898567806
 51
42.5023799364582828
  0
ARC
  5
AEB5
  8
0
 10
4210.2459333730002982
 20
212.6508261085288893
 30
0.0
 40
0.0715020705897464
 50
23.4700582297739402
 51
38.8070805547353288
  0
ARC
  5
AEB6
  8
0
 10
4210.3046103734868666
 20
212.6760761887269098
 30
0.0
 40
0.0076260146396362
 50
358.6515245206908844
 51
25.0343275945611694
  0
ARC
  5
AEB7
  8
0
 10
4210.3074134994740234
 20
212.6760102040285005
 30
0.0
 40
0.0048221121313219
 50
339.8002142543047057
 51
358.6515245206859959
  0
ARC
  5
AEB8
  8
0
 10
4210.3099551448349303
 20
212.6755231719689903
 30
0.0
 40
0.0023072718272709
 50
304.157133724588391
 51
329.2983722761189824
  0
ARC
  5
AEB9
  8
0
 10
4210.3109848609883556
 20
212.6747082311898112
 30
0.0
 40
0.0011261306639196
 50
251.208467572259309
 51
283.6489054569735231
  0
ARC
  5
AEBA
  8
0
 10
4210.3846913721254168
 20
212.7948786816997142
 30
0.0
 40
0.1420723707693409
 50
229.5465030513996965
 51
238.5772268672091911
  0
LINE
  5
AEBB
  8
0
 10
4210.3016039197409555
 20
212.6956998808265098
 30
0.0
 11
4210.264251925273129
 21
212.6590263658175957
 31
0.0
  0
LINE
  5
AEBC
  8
0
 10
4210.2261221982907955
 20
212.7784481064024931
 30
0.0
 11
4210.1884069504940271
 21
212.7387627229238092
 31
0.0
  0
ARC
  5
AEBD
  8
0
 10
4210.1993985337157937
 20
212.7291434848885956
 30
0.0
 40
0.0146063219902665
 50
138.8093434383972919
 51
160.8370290531202045
  0
ARC
  5
AEBE
  8
0
 10
4210.1984497647154058
 20
212.7303523814508992
 30
0.0
 40
0.0133391744862587
 50
164.4064597122016949
 51
204.482935345605199
  0
ARC
  5
AEBF
  8
0
 10
4210.2568188635614206
 20
212.7637635484946088
 30
0.0
 40
0.080546660450082
 50
208.910104350856102
 51
221.3943683119470052
  0
ARC
  5
AEC0
  8
0
 10
4210.571429509038353
 20
213.0228537366440094
 30
0.0
 40
0.4880718031401406
 50
219.7894907911527014
 51
223.2819639106978968
  0
ARC
  5
AEC1
  8
0
 10
4210.5673622362746755
 20
213.015371946333687
 30
0.0
 40
0.4799888006447148
 50
222.9646580503089126
 51
226.4255185649192015
  0
ARC
  5
AEC2
  8
0
 10
4210.3046548818483643
 20
212.7373605107794958
 30
0.0
 40
0.0975007498520388
 50
225.6577450754292045
 51
234.161858790941892
  0
ARC
  5
AEC3
  8
0
 10
4210.2559114561627212
 20
212.6697738459307061
 30
0.0
 40
0.0141709434811737
 50
233.9322810640940133
 51
269.9921612526975991
  0
ARC
  5
AEC4
  8
0
 10
4210.2556566552393633
 20
212.668095344051892
 30
0.0
 40
0.012495000326272
 50
271.1595777368629001
 51
313.4638476201366188
  0
ARC
  5
AEC5
  8
0
 10
4210.0030003948131707
 20
212.4897468140291892
 30
0.0
 40
0.2960478481578903
 50
43.0077236639573499
 51
45.2010855610321087
  0
ARC
  5
AEC6
  8
0
 10
4210.0960939307387889
 20
212.5834960971621115
 30
0.0
 40
0.1639292101115726
 50
45.2010855610321087
 51
47.5067678131903506
  0
ARC
  5
AEC7
  8
0
 10
4210.1743021212769236
 20
212.6688656029949982
 30
0.0
 40
0.0481515197156614
 50
47.5067678131870608
 51
52.480598655730951
  0
ARC
  5
AEC8
  8
0
 10
4210.1993030486919452
 20
212.7014246120780001
 30
0.0
 40
0.0071011184508354
 50
52.4805986557871691
 51
64.5525159798199155
  0
ARC
  5
AEC9
  8
0
 10
4210.2022144329075672
 20
212.7075428816648071
 30
0.0
 40
0.0003254722975166
 50
64.5525159793054684
 51
120.6362052266987064
  0
ARC
  5
AECA
  8
0
 10
4210.2021877896268052
 20
212.7076963476474134
 30
0.0
 40
0.0001881538474914
 50
137.7217922572442035
 51
167.9279650293686927
  0
ARC
  5
AECB
  8
0
 10
4210.2026433008531967
 20
212.7076887710256869
 30
0.0
 40
0.0006412236066324
 50
175.8031088324900963
 51
206.5800100769884864
  0
ARC
  5
AECC
  8
0
 10
4210.216556188173854
 20
212.7145724856956974
 30
0.0
 40
0.0161639093224561
 50
206.3350601861158964
 51
217.9818755876594878
  0
ARC
  5
AECD
  8
0
 10
4210.3629577904639518
 20
212.8283778735666942
 30
0.0
 40
0.2015960611527888
 50
217.8695271930143917
 51
223.8061971234700138
  0
ARC
  5
AECE
  8
0
 10
4210.3889888794747094
 20
212.8483184539421984
 30
0.0
 40
0.2342137179315194
 50
222.918533263964008
 51
227.0523147119598946
  0
ARC
  5
AECF
  8
0
 10
4210.2607670993038482
 20
212.7107828410979948
 30
0.0
 40
0.0461797888915376
 50
227.2360623730671989
 51
233.4185641967349909
  0
ARC
  5
AED0
  8
0
 10
4210.2342182770016734
 20
212.6746867785178097
 30
0.0
 40
0.0013856122598902
 50
225.412133989492105
 51
273.2444470685517786
  0
ARC
  5
AED1
  8
0
 10
4210.2341265111699613
 20
212.6734635458890068
 30
0.0
 40
0.0002336965613697
 50
316.7386190346455237
 51
19.3157915231321802
  0
ARC
  5
AED2
  8
0
 10
4210.2202052869643012
 20
212.6670843943003035
 30
0.0
 40
0.0155459101473967
 50
24.5391663620298708
 51
39.3019493830476492
  0
ARC
  5
AED3
  8
0
 10
4210.0629037523976876
 20
212.5434753550298979
 30
0.0
 40
0.2156004583445092
 50
38.2428910998582126
 51
43.4250262064067272
  0
ARC
  5
AED4
  8
0
 10
4209.9558657172792664
 20
212.4506212953087925
 30
0.0
 40
0.3702908410270351
 50
42.4593471040105896
 51
51.0948894684244266
  0
ARC
  5
AED5
  8
0
 10
4209.9627958688170111
 20
212.4394188700624966
 30
0.0
 40
0.3729652054684831
 50
36.0730292243357482
 51
44.4486487743654379
  0
ARC
  5
AED6
  8
0
 10
4210.4005996985470119
 20
211.8104711977460113
 30
0.0
 40
0.5754752159633983
 50
43.1672589660206825
 51
47.1578431569821674
  0
ARC
  5
AED7
  8
0
 10
4210.6431698338356
 20
212.0993336980588992
 30
0.0
 40
0.1995944934806548
 50
41.8218901383715931
 51
51.0880138243502202
  0
ARC
  5
AED8
  8
0
 10
4210.7599456368343454
 20
212.2458172230082027
 30
0.0
 40
0.0123174160695262
 50
45.75206080578387
 51
77.6411285605061039
  0
ARC
  5
AED9
  8
0
 10
4210.7622827146105919
 20
212.2564833635454136
 30
0.0
 40
0.0013982363158355
 50
77.6411285601870844
 51
161.8245384084584941
  0
ARC
  5
AEDA
  8
0
 10
4210.7725534009769035
 20
212.2586621123938926
 30
0.0
 40
0.011729328046824
 50
188.5439339974043094
 51
207.9677252140999997
  0
ARC
  5
AEDB
  8
0
 10
4210.9971349685420137
 20
212.3814303349577131
 30
0.0
 40
0.2676755994166819
 50
208.6328796345563035
 51
213.0463872112015054
  0
ARC
  5
AEDC
  8
0
 10
4210.3693518671989295
 20
211.7908932436857867
 30
0.0
 40
0.6117011841006881
 50
37.2428111898567806
 51
42.5023799364582828
  0
ARC
  5
AEDD
  8
0
 10
4210.8005949456883172
 20
212.1162808415311076
 30
0.0
 40
0.0715020705897464
 50
23.4700582297739402
 51
38.8070805547353288
  0
ARC
  5
AEDE
  8
0
 10
4210.8592719461748857
 20
212.1415309217292133
 30
0.0
 40
0.0076260146396362
 50
358.6515245206908844
 51
25.0343275945611694
  0
ARC
  5
AEDF
  8
0
 10
4210.862075072162952
 20
212.1414649370308041
 30
0.0
 40
0.0048221121313219
 50
339.8002142543047057
 51
358.6515245206859959
  0
ARC
  5
AEE0
  8
0
 10
4210.8646167175229493
 20
212.1409779049712938
 30
0.0
 40
0.0023072718272709
 50
304.157133724588391
 51
329.2983722761189824
  0
ARC
  5
AEE1
  8
0
 10
4210.8656464336772842
 20
212.140162964192001
 30
0.0
 40
0.0011261306639196
 50
251.208467572259309
 51
283.6489054569735231
  0
ARC
  5
AEE2
  8
0
 10
4210.9393529448116169
 20
212.2603334147019893
 30
0.0
 40
0.1420723707693409
 50
229.5465030513996965
 51
238.5772268672091911
  0
LINE
  5
AEE3
  8
0
 10
4210.8562654924289745
 20
212.1611546138288134
 30
0.0
 11
4210.8189134979602386
 21
212.1244810988198992
 31
0.0
  0
LINE
  5
AEE4
  8
0
 10
4210.7807837709797241
 20
212.2439028394047114
 30
0.0
 11
4210.7430685231829557
 21
212.204217455925999
 31
0.0
  0
ARC
  5
AEE5
  8
0
 10
4210.7540601064029033
 20
212.1945982178908992
 30
0.0
 40
0.0146063219902665
 50
138.8093434383972919
 51
160.8370290531202045
  0
ARC
  5
AEE6
  8
0
 10
4210.7531113374043343
 20
212.1958071144530891
 30
0.0
 40
0.0133391744862587
 50
164.4064597122016949
 51
204.482935345605199
  0
ARC
  5
AEE7
  8
0
 10
4210.8114804362476207
 20
212.2292182814969124
 30
0.0
 40
0.080546660450082
 50
208.910104350856102
 51
221.3943683119470052
  0
ARC
  5
AEE8
  8
0
 10
4211.1260910817263721
 20
212.4883084696463129
 30
0.0
 40
0.4880718031401406
 50
219.7894907911527014
 51
223.2819639106978968
  0
ARC
  5
AEE9
  8
0
 10
4211.1220238089636041
 20
212.4808266793359905
 30
0.0
 40
0.4799888006447148
 50
222.9646580503089126
 51
226.4255185649192015
  0
ARC
  5
AEEA
  8
0
 10
4210.8593164545345644
 20
212.2028152437817994
 30
0.0
 40
0.0975007498520388
 50
225.6577450754292045
 51
234.161858790941892
  0
ARC
  5
AEEB
  8
0
 10
4210.8105730288507402
 20
212.135228578932896
 30
0.0
 40
0.0141709434811737
 50
233.9322810640940133
 51
269.9921612526975991
  0
ARC
  5
AEEC
  8
0
 10
4210.8103182279273824
 20
212.1335500770541955
 30
0.0
 40
0.012495000326272
 50
271.1595777368629001
 51
313.4638476201366188
  0
ARC
  5
AEED
  8
0
 10
4210.5576619675011898
 20
211.9552015470314075
 30
0.0
 40
0.2960478481578903
 50
43.0077236639573499
 51
45.2010855610321087
  0
ARC
  5
AEEE
  8
0
 10
4210.6507555034277175
 20
212.0489508301643014
 30
0.0
 40
0.1639292101115726
 50
45.2010855610321087
 51
47.5067678131903506
  0
ARC
  5
AEEF
  8
0
 10
4210.7289636939658521
 20
212.1343203359971881
 30
0.0
 40
0.0481515197156614
 50
47.5067678131870608
 51
52.480598655730951
  0
ARC
  5
AEF0
  8
0
 10
4210.7539646213799642
 20
212.1668793450803037
 30
0.0
 40
0.0071011184508354
 50
52.4805986557871691
 51
64.5525159798199155
  0
ARC
  5
AEF1
  8
0
 10
4210.7568760055974053
 20
212.1729976146669969
 30
0.0
 40
0.0003254722975166
 50
64.5525159793054684
 51
120.6362052266987064
  0
ARC
  5
AEF2
  8
0
 10
4210.7568493623139148
 20
212.1731510806496885
 30
0.0
 40
0.0001881538474914
 50
137.7217922572442035
 51
167.9279650293686927
  0
ARC
  5
AEF3
  8
0
 10
4210.7573048735421253
 20
212.1731435040279905
 30
0.0
 40
0.0006412236066324
 50
175.8031088324900963
 51
206.5800100769884864
  0
ARC
  5
AEF4
  8
0
 10
4210.7712177608618731
 20
212.1800272186978873
 30
0.0
 40
0.0161639093224561
 50
206.3350601861158964
 51
217.9818755876594878
  0
ARC
  5
AEF5
  8
0
 10
4210.9176193631528804
 20
212.2938326065689125
 30
0.0
 40
0.2015960611527888
 50
217.8695271930143917
 51
223.8061971234700138
  0
ARC
  5
AEF6
  8
0
 10
4210.943650452163638
 20
212.3137731869443883
 30
0.0
 40
0.2342137179315194
 50
222.918533263964008
 51
227.0523147119598946
  0
ARC
  5
AEF7
  8
0
 10
4210.8154286719927768
 20
212.1762375741002131
 30
0.0
 40
0.0461797888915376
 50
227.2360623730671989
 51
233.4185641967349909
  0
ARC
  5
AEF8
  8
0
 10
4210.788879849690602
 20
212.1401415115199995
 30
0.0
 40
0.0013856122598902
 50
225.412133989492105
 51
273.2444470685517786
  0
ARC
  5
AEF9
  8
0
 10
4210.7887880838579804
 20
212.1389182788911967
 30
0.0
 40
0.0002336965613697
 50
316.7386190346455237
 51
19.3157915231321802
  0
ARC
  5
AEFA
  8
0
 10
4210.7748668596541393
 20
212.1325391273026071
 30
0.0
 40
0.0155459101473967
 50
24.5391663620298708
 51
39.3019493830476492
  0
ARC
  5
AEFB
  8
0
 10
4210.6175653250857067
 20
212.0089300880322014
 30
0.0
 40
0.2156004583445092
 50
38.2428910998582126
 51
43.4250262064067272
  0
ARC
  5
AEFC
  8
0
 10
4210.510527289968195
 20
211.916076028311096
 30
0.0
 40
0.3702908410270351
 50
42.4593471040105896
 51
51.0948894684244266
  0
ARC
  5
AEFD
  8
0
 10
4210.5174574415059396
 20
211.9048736030646864
 30
0.0
 40
0.3729652054684831
 50
36.0730292243357482
 51
44.4486487743654379
  0
LINE
  5
AEFE
  8
0
 10
4209.7300314218518906
 20
213.3829642427454871
 30
0.0
 11
4209.6408946009041756
 21
213.49747216285229
 31
0.0
  0
LINE
  5
AEFF
  8
0
 10
4209.8223569320207389
 20
213.2812211121508028
 30
0.0
 11
4209.9013822645765686
 21
213.1857791168775123
 31
0.0
  0
LINE
  5
AF00
  8
0
 10
4209.70707142140418
 20
213.3467883960458096
 30
0.0
 11
4209.6929556604491154
 21
213.3319367427023963
 31
0.0
  0
ARC
  5
AF01
  8
0
 10
4209.7015163909100011
 20
213.3238001923818103
 30
0.0
 40
0.0118105697207404
 50
136.4552372796266013
 51
220.6588961342156097
  0
LINE
  5
AF02
  8
0
 10
4209.6925568696287883
 20
213.3161049642787077
 30
0.0
 11
4209.749035268575426
 21
213.2503474051218006
 31
0.0
  0
ARC
  5
AF03
  8
0
 10
4209.7579903051446308
 20
213.2580387813601135
 30
0.0
 40
0.0118046579116614
 50
220.6588961341718971
 51
314.4641799237618898
  0
LINE
  5
AF04
  8
0
 10
4209.7662590338222799
 20
213.249613932726902
 30
0.0
 11
4209.7825451759390489
 21
213.2655918989584904
 31
0.0
  0
LINE
  5
AF05
  8
0
 10
4209.9009205647062117
 20
213.1741178011938871
 30
0.0
 11
4209.8606390738650589
 21
213.1369893606591859
 31
0.0
  0
ARC
  5
AF06
  8
0
 10
4209.86958737778059
 20
213.1285909395355134
 30
0.0
 40
0.0122721481555543
 50
136.815640504001891
 51
219.6938096605153987
  0
ARC
  5
AF07
  8
0
 10
4210.5886409636877943
 20
213.6963224637526082
 30
0.0
 40
0.9284328936067113
 50
218.311506856536397
 51
223.8031793012634125
  0
ARC
  5
AF08
  8
0
 10
4209.9264279838689617
 20
213.0625493898940022
 30
0.0
 40
0.0118486716704183
 50
228.6766269479807079
 51
316.9783965308404845
  0
LINE
  5
AF09
  8
0
 10
4209.9350905062692618
 20
213.0544653484527942
 30
0.0
 11
4209.9762812728286008
 21
213.0986036597900863
 31
0.0
  0
LINE
  5
AF0A
  8
0
 10
4210.0395087160441108
 20
212.9499684888791933
 30
0.0
 11
4210.0212510685469169
 21
212.9312807509712115
 31
0.0
  0
ARC
  5
AF0B
  8
0
 10
4210.032068473162326
 20
212.9226317913696107
 30
0.0
 40
0.0138499366354074
 50
141.3562276203620911
 51
205.8357842644211928
  0
LINE
  5
AF0C
  8
0
 10
4210.0196028824166206
 20
212.9165960816199004
 30
0.0
 11
4210.0793036757686423
 21
212.8524753650027037
 31
0.0
  0
ARC
  5
AF0D
  8
0
 10
4210.0879480727526243
 20
212.8605243631660073
 30
0.0
 40
0.0118113220729689
 50
222.9573511005255
 51
314.9531056044186244
  0
LINE
  5
AF0E
  8
0
 10
4210.0962931002077312
 20
212.8521656643499966
 30
0.0
 11
4210.1371519301210355
 21
212.8929576661770966
 31
0.0
  0
LINE
  5
AF0F
  8
0
 10
4210.3121506062279877
 20
212.6751087690583972
 30
0.0
 11
4210.3966505147482167
 21
212.5771426092522063
 31
0.0
  0
LINE
  5
AF10
  8
0
 10
4210.3621855491483075
 20
212.6171000528385093
 30
0.0
 11
4210.3296287303919598
 21
212.583109328485989
 31
0.0
  0
ARC
  5
AF11
  8
0
 10
4210.3392277820767049
 20
212.5748863923018916
 30
0.0
 40
0.0126395598315314
 50
139.4153028606233136
 51
228.996219335661408
  0
LINE
  5
AF12
  8
0
 10
4210.330934855301166
 20
212.5653477425956055
 30
0.0
 11
4210.5444286315605495
 21
212.3464991083237976
 31
0.0
  0
ARC
  5
AF13
  8
0
 10
4210.5553438035158251
 20
212.3564995040624979
 30
0.0
 40
0.0148178885612017
 50
222.0089297568401889
 51
264.4841109732547011
  0
LINE
  5
AF14
  8
0
 10
4210.48923809930875
 20
212.4894428403237896
 30
0.0
 11
4210.4554399530816227
 21
212.4551025319389055
 31
0.0
  0
ARC
  5
AF15
  8
0
 10
4210.4648324066502028
 20
212.4458583657086024
 30
0.0
 40
0.0131784973846382
 50
135.4558798431694129
 51
204.5795942238239036
  0
LINE
  5
AF16
  8
0
 10
4210.4303392305746456
 20
212.5024778820790061
 30
0.0
 11
4210.4190052078256485
 21
212.4909620482268053
 31
0.0
  0
ARC
  5
AF17
  8
0
 10
4210.4270801055954507
 20
212.4830146363260042
 30
0.0
 40
0.0113298424477255
 50
135.4558798431567084
 51
223.5536750066981142
  0
LINE
  5
AF18
  8
0
 10
4210.3851928257063264
 20
212.5632137108250106
 30
0.0
 11
4210.3665998115520779
 21
212.5441313178424139
 31
0.0
  0
ARC
  5
AF19
  8
0
 10
4210.3770861986349701
 20
212.5354938583508897
 30
0.0
 40
0.0135856549543153
 50
140.5222945193769135
 51
198.080078031879907
  0
LINE
  5
AF1A
  8
0
 10
4210.4776694344045609
 20
212.5018770789554026
 30
0.0
 11
4210.5409824129819754
 21
212.4322314010148887
 31
0.0
  0
ARC
  5
AF1B
  8
0
 10
4209.2679103879681861
 20
210.9620649874455864
 30
0.0
 40
1.948969719084072
 50
47.542381650438287
 51
49.4279475424620287
  0
ARC
  5
AF1C
  8
0
 10
4210.3352565176828648
 20
212.1921296901475955
 30
0.0
 40
0.3205993519425521
 50
51.3414905190809989
 51
52.4504981176198726
  0
ARC
  5
AF1D
  8
0
 10
4210.5276039992841106
 20
212.4423538862363898
 30
0.0
 40
0.0049893045948908
 50
52.4504981175627023
 51
77.4407320345826236
  0
ARC
  5
AF1E
  8
0
 10
4210.5285574699400968
 20
212.4466337583685061
 30
0.0
 40
0.0006045113547757
 50
77.4407320342636467
 51
187.1054982003589089
  0
LINE
  5
AF1F
  8
0
 10
4210.5439082613493156
 20
212.4352630029999034
 30
0.0
 11
4210.5120590389487916
 21
212.4022524134655896
 31
0.0
  0
ARC
  5
AF20
  8
0
 10
4210.5220095122440398
 20
212.3940644495615118
 30
0.0
 40
0.0128862202249832
 50
140.5499989367521891
 51
227.3959397909681002
  0
LINE
  5
AF21
  8
0
 10
4210.5132864672741562
 20
212.3845795585160943
 30
0.0
 11
4210.5539194815746669
 21
212.3417502285408034
 31
0.0
  0
LINE
  5
AF22
  8
0
 10
4210.5539194815746669
 20
212.3417502285408034
 30
0.0
 11
4210.6386836713345474
 21
212.2585438422624122
 31
0.0
  0
ARC
  5
AF23
  8
0
 10
4210.6484703073419951
 20
212.2685137052588118
 30
0.0
 40
0.0139705551965719
 50
225.5313609566553907
 51
305.9762571548022834
  0
LINE
  5
AF24
  8
0
 10
4210.6566773093309166
 20
212.2572078868070093
 30
0.0
 11
4210.6918320554732418
 21
212.2827270540146003
 31
0.0
  0
ARC
  5
AF25
  8
0
 10
4220.783368245020938
 20
221.589527011049114
 30
0.0
 40
13.7274920872870307
 50
222.306428702788196
 51
222.6451427459996921
  0
ARC
  5
AF26
  8
0
 10
4210.5217030523099311
 20
212.14842107101191
 30
0.0
 40
0.2166687779883391
 50
35.3420594405295319
 51
40.71691993965009
  0
ARC
  5
AF27
  8
0
 10
4210.6967597036982625
 20
212.2723897930640931
 30
0.0
 40
0.0021667494745095
 50
349.3826750661721121
 51
39.0400816892955405
  0
ARC
  5
AF28
  8
0
 10
4210.7249801441948875
 20
212.3022175385295895
 30
0.0
 40
0.0399299212107109
 50
221.9099705120368071
 51
229.2004677614513071
  0
LINE
  5
AF29
  8
0
 10
4210.6952644837056141
 20
212.2755458657362055
 30
0.0
 11
4210.6896082657476654
 21
212.2811127837358924
 31
0.0
  0
LINE
  5
AF2A
  8
0
 10
4209.9722217814942269
 20
213.094253677807103
 30
0.0
 11
4210.0648796992536518
 21
212.9785374717995126
 31
0.0
  0
LINE
  5
AF2B
  8
0
 10
4210.1368350717193607
 20
212.8933935108651951
 30
0.0
 11
4210.2111242504342954
 21
212.7912073488224962
 31
0.0
  0
LINE
  5
AF2C
  8
0
 10
4210.6988893577317867
 20
212.2719905725948877
 30
0.0
 11
4210.7525270497089878
 21
212.2141700685760952
 31
0.0
  0
ARC
  5
AF2D
  8
0
 10
4211.544683149481898
 20
212.2141145319558859
 30
0.0
 40
0.4760028772711133
 50
226.0097473308611882
 51
230.4708723426743973
  0
ARC
  5
AF2E
  8
0
 10
4211.3396652840319803
 20
211.9656654194268128
 30
0.0
 40
0.1538859937173968
 50
230.4708723426722941
 51
240.5641483854660123
  0
ARC
  5
AF2F
  8
0
 10
4211.2717903760094487
 20
211.8453829072014969
 30
0.0
 40
0.0157741336685405
 50
240.5641483854668934
 51
268.1152726491652061
  0
ARC
  5
AF30
  8
0
 10
4211.2717576653749347
 20
211.844388861445708
 30
0.0
 40
0.0147795498609997
 50
268.1152726491652061
 51
311.9279608960466135
  0
LINE
  5
AF31
  8
0
 10
4211.2816332971460724
 20
211.8333930899306097
 30
0.0
 11
4211.3219046278009046
 21
211.8737091316569945
 31
0.0
  0
ARC
  5
AF32
  8
0
 10
4211.0877940775671959
 20
211.7377231025222102
 30
0.0
 40
0.2655356843020727
 50
36.1441737122184605
 51
46.3940311826136522
  0
ARC
  5
AF33
  8
0
 10
4211.0836847950204174
 20
211.6661716007045015
 30
0.0
 40
0.3159438486253768
 50
41.0624364333965701
 51
46.2350738538419606
  0
ARC
  5
AF34
  8
0
 10
4211.283009692027008
 20
211.8387704242248901
 30
0.0
 40
0.0522831646512264
 50
24.9672867139804708
 51
41.9328532178420232
  0
ARC
  5
AF35
  8
0
 10
4211.3237288696263931
 20
211.8578860959482881
 30
0.0
 40
0.0073018735138627
 50
355.5990887236096114
 51
23.8553585388867901
  0
ARC
  5
AF36
  8
0
 10
4211.3290732800542173
 20
211.8577427509819131
 30
0.0
 40
0.0019803277503879
 50
293.5841453256986142
 51
347.8452528892760256
  0
ARC
  5
AF37
  8
0
 10
4211.3366438002058203
 20
211.8980494017241938
 30
0.0
 40
0.0426634566966164
 50
234.2410085069267893
 51
260.8583377840286062
  0
ARC
  5
AF38
  8
0
 10
4211.1250759316662879
 20
211.7776768940036902
 30
0.0
 40
0.1399908709702603
 50
38.989712826491072
 51
46.4939152830087465
  0
ARC
  5
AF39
  8
0
 10
4211.2164774076309186
 20
211.8516654991769883
 30
0.0
 40
0.0223960432619965
 50
28.8674673675138713
 51
38.9890817549191979
  0
ARC
  5
AF3A
  8
0
 10
4211.231197654211428
 20
211.8597806100524963
 30
0.0
 40
0.0055870967181137
 50
16.1762985723744599
 51
28.8674673674910487
  0
ARC
  5
AF3B
  8
0
 10
4211.2358744499051681
 20
211.8611372471214906
 30
0.0
 40
0.0007175092511611
 50
321.8737612346134824
 51
16.1762985725359911
  0
ARC
  5
AF3C
  8
0
 10
4211.2360957228929692
 20
211.8611785699804955
 30
0.0
 40
0.0005935600035988
 50
261.1037711438581823
 51
305.3194218901082877
  0
ARC
  5
AF3D
  8
0
 10
4211.2384271827932025
 20
211.8696349256476026
 30
0.0
 40
0.0093618336440673
 50
234.2117454045296085
 51
254.9985404507565931
  0
ARC
  5
AF3E
  8
0
 10
4211.3042010381041109
 20
211.9625462116549954
 30
0.0
 40
0.1231978308978852
 50
225.2264351205049877
 51
234.6670738497795128
  0
ARC
  5
AF3F
  8
0
 10
4210.9541081841225605
 20
211.5987445789789945
 30
0.0
 40
0.392543304724899
 50
39.624693721592962
 51
46.3644725007318073
  0
ARC
  5
AF40
  8
0
 10
4211.1940335972703906
 20
211.7974023771822942
 30
0.0
 40
0.0810483213602212
 50
30.163988154809811
 51
39.6246937215979713
  0
ARC
  5
AF41
  8
0
 10
4211.2572144696350733
 20
211.8341213800246976
 30
0.0
 40
0.0079722801257748
 50
354.2085300701667165
 51
30.1639881547456099
  0
ARC
  5
AF42
  8
0
 10
4211.2637746826549119
 20
211.8360364613533875
 30
0.0
 40
0.0030457541273204
 50
247.7947383915596902
 51
296.7602250253574994
  0
ARC
  5
AF43
  8
0
 10
4211.2657684038649677
 20
211.8473908521982878
 30
0.0
 40
0.0145189301584878
 50
244.8875783207489008
 51
257.4906275594416911
  0
ARC
  5
AF44
  8
0
 10
4211.547843405113781
 20
212.2110353228925987
 30
0.0
 40
0.4760028772711133
 50
221.0175134202299034
 51
225.4786384320618993
  0
ARC
  5
AF45
  8
0
 10
4211.3048033143677458
 20
211.999633333874101
 30
0.0
 40
0.1538859937173968
 50
210.9242373774426937
 51
221.0175134202310971
  0
ARC
  5
AF46
  8
0
 10
4211.1863243881180097
 20
211.9286570707945998
 30
0.0
 40
0.0157741336685405
 50
183.3731131137365082
 51
210.9242373774411874
  0
ARC
  5
AF47
  8
0
 10
4211.1853315273792759
 20
211.9285985515438142
 30
0.0
 40
0.0147795498609997
 50
139.5604248668518892
 51
183.3731131137299997
  0
LINE
  5
AF48
  8
0
 10
4211.1740829529926486
 20
211.9381852437981877
 30
0.0
 11
4211.2133393724689086
 21
211.9794901687236859
 31
0.0
  0
ARC
  5
AF49
  8
0
 10
4211.0834800837037619
 20
211.7419264615367922
 30
0.0
 40
0.2655356843020727
 50
45.0943545802760966
 51
55.3442120506541002
  0
ARC
  5
AF4A
  8
0
 10
4211.0120594583795537
 20
211.7359600644886939
 30
0.0
 40
0.3159438486253768
 50
45.2533119090407396
 51
50.4259493294979109
  0
ARC
  5
AF4B
  8
0
 10
4211.1794227221244
 20
211.939700846847586
 30
0.0
 40
0.0522831646512264
 50
49.555532545064807
 51
66.5210990489153744
  0
ARC
  5
AF4C
  8
0
 10
4211.1974742918600896
 20
211.9809028026253941
 30
0.0
 40
0.0073018735138627
 50
67.6330272240362547
 51
95.8892970393032442
  0
ARC
  5
AF4D
  8
0
 10
4211.1971921778804244
 20
211.9862416866189108
 30
0.0
 40
0.0019803277503879
 50
103.6431328736097015
 51
157.9042404372171973
  0
ARC
  5
AF4E
  8
0
 10
4211.2372885905479052
 20
211.9948565900220103
 30
0.0
 40
0.0426634566966164
 50
190.6300479788561972
 51
217.2473772559833947
  0
ARC
  5
AF4F
  8
0
 10
4211.1224520246469183
 20
211.7802335092017927
 30
0.0
 40
0.1399908711282217
 50
44.9944704649601306
 51
52.4986729342746017
  0
ARC
  5
AF50
  8
0
 10
4211.1940415766330261
 20
211.8735259504157966
 30
0.0
 40
0.0223960432619965
 50
52.4993040079572921
 51
62.6209183953663313
  0
ARC
  5
AF51
  8
0
 10
4211.2017716013006066
 20
211.8884520149524917
 30
0.0
 40
0.0055870967181137
 50
62.6209183954193378
 51
75.3120871905181701
  0
ARC
  5
AF52
  8
0
 10
4211.2030063041111134
 20
211.8931624704578951
 30
0.0
 40
0.0007175092511611
 50
75.3120871903570475
 51
129.6146245282724863
  0
ARC
  5
AF53
  8
0
 10
4211.2030418656149777
 20
211.8933847421228052
 30
0.0
 40
0.0005935600035988
 50
146.1689638727850138
 51
190.3846146190647062
  0
ARC
  5
AF54
  8
0
 10
4211.2114348101349606
 20
211.895935063421291
 30
0.0
 40
0.0093618336440673
 50
196.4898453121286082
 51
217.276640358368013
  0
ARC
  5
AF55
  8
0
 10
4211.3026063183206134
 20
211.964100033933704
 30
0.0
 40
0.1231978308978852
 50
216.821311913130188
 51
226.2619506424105111
  0
ARC
  5
AF56
  8
0
 10
4210.9480208489439974
 20
211.604675800953288
 30
0.0
 40
0.392543304724899
 50
45.1239132621831374
 51
51.8636920413141169
  0
ARC
  5
AF57
  8
0
 10
4211.1403797249367926
 20
211.8496802651744986
 30
0.0
 40
0.0810483213602212
 50
51.8636920413101024
 51
61.3243976081113971
  0
ARC
  5
AF58
  8
0
 10
4211.1754452595796465
 20
211.9137935717708103
 30
0.0
 40
0.0079722801257748
 50
61.32439760816807
 51
97.2798556927126299
  0
ARC
  5
AF59
  8
0
 10
4211.1771892977703828
 20
211.9204013143618965
 30
0.0
 40
0.0030457541273204
 50
154.7281607375302883
 51
203.6936473713327871
  0
ARC
  5
AF5A
  8
0
 10
4211.1884880722300295
 20
211.9226892853845925
 30
0.0
 40
0.0145189301584878
 50
193.9977582034426007
 51
206.6008074421413028
  0
ARC
  5
AF5B
  8
0
 10
4211.3155501373312291
 20
212.3466903108356121
 30
0.0
 40
0.4760028772711133
 50
226.0097473308611882
 51
230.4708723426743973
  0
ARC
  5
AF5C
  8
0
 10
4211.1105322718785828
 20
212.0982411983065106
 30
0.0
 40
0.1538859937173968
 50
230.4708723426722941
 51
240.5641483854660123
  0
ARC
  5
AF5D
  8
0
 10
4211.0426573638587797
 20
211.9779586860811946
 30
0.0
 40
0.0157741336685405
 50
240.5641483854668934
 51
268.1152726491652061
  0
ARC
  5
AF5E
  8
0
 10
4211.0426246532242658
 20
211.9769646403254058
 30
0.0
 40
0.0147795498609997
 50
268.1152726491652061
 51
311.9279608960466135
  0
LINE
  5
AF5F
  8
0
 10
4211.0525002849954035
 20
211.9659688688103074
 30
0.0
 11
4211.0927716156502356
 21
212.006284910536607
 31
0.0
  0
ARC
  5
AF60
  8
0
 10
4210.858661065414708
 20
211.8702988814019079
 30
0.0
 40
0.2655356843020727
 50
36.1441737122184605
 51
46.3940311826136522
  0
ARC
  5
AF61
  8
0
 10
4210.8545517828679294
 20
211.7987473795841993
 30
0.0
 40
0.3159438486253768
 50
41.0624364333965701
 51
46.2350738538419606
  0
ARC
  5
AF62
  8
0
 10
4211.0538766798754295
 20
211.9713462031045879
 30
0.0
 40
0.0522831646512264
 50
24.9672867139804708
 51
41.9328532178420232
  0
ARC
  5
AF63
  8
0
 10
4211.0945958574739052
 20
211.9904618748279859
 30
0.0
 40
0.0073018735138627
 50
355.5990887236096114
 51
23.8553585388867901
  0
ARC
  5
AF64
  8
0
 10
4211.0999402679017294
 20
211.9903185298616108
 30
0.0
 40
0.0019803277503879
 50
293.5841453256986142
 51
347.8452528892760256
  0
ARC
  5
AF65
  8
0
 10
4211.1075107880542419
 20
212.0306251806038063
 30
0.0
 40
0.0426634566966164
 50
234.2410085069267893
 51
260.8583377840286062
  0
ARC
  5
AF66
  8
0
 10
4210.8959429195138
 20
211.910252672883388
 30
0.0
 40
0.1399908709702603
 50
38.989712826491072
 51
46.4939152830087465
  0
ARC
  5
AF67
  8
0
 10
4210.9873443954793402
 20
211.984241278056686
 30
0.0
 40
0.0223960432619965
 50
28.8674673675138713
 51
38.9890817549191979
  0
ARC
  5
AF68
  8
0
 10
4211.0020646420607591
 20
211.992356388932194
 30
0.0
 40
0.0055870967181137
 50
16.1762985723744599
 51
28.8674673674910487
  0
ARC
  5
AF69
  8
0
 10
4211.0067414377535897
 20
211.9937130260011884
 30
0.0
 40
0.0007175092511611
 50
321.8737612346134824
 51
16.1762985725359911
  0
ARC
  5
AF6A
  8
0
 10
4211.0069627107413908
 20
211.9937543488601932
 30
0.0
 40
0.0005935600035988
 50
261.1037711438581823
 51
305.3194218901082877
  0
ARC
  5
AF6B
  8
0
 10
4211.0092941706416241
 20
212.0022107045271866
 30
0.0
 40
0.0093618336440673
 50
234.2117454045296085
 51
254.9985404507565931
  0
ARC
  5
AF6C
  8
0
 10
4211.075068025953442
 20
212.0951219905346079
 30
0.0
 40
0.1231978308978852
 50
225.2264351205049877
 51
234.6670738497795128
  0
ARC
  5
AF6D
  8
0
 10
4210.724975171970982
 20
211.7313203578586922
 30
0.0
 40
0.392543304724899
 50
39.624693721592962
 51
46.3644725007318073
  0
ARC
  5
AF6E
  8
0
 10
4210.9649005851188122
 20
211.929978156061992
 30
0.0
 40
0.0810483213602212
 50
30.163988154809811
 51
39.6246937215979713
  0
ARC
  5
AF6F
  8
0
 10
4211.0280814574844044
 20
211.9666971589043101
 30
0.0
 40
0.0079722801257748
 50
354.2085300701667165
 51
30.1639881547456099
  0
ARC
  5
AF70
  8
0
 10
4211.0346416705042429
 20
211.9686122402331137
 30
0.0
 40
0.0030457541273204
 50
247.7947383915596902
 51
296.7602250253574994
  0
ARC
  5
AF71
  8
0
 10
4211.0366353917115703
 20
211.9799666310779003
 30
0.0
 40
0.0145189301584878
 50
244.8875783207489008
 51
257.4906275594416911
  0
ARC
  5
AF72
  8
0
 10
4211.3187103929622026
 20
212.3436111017722112
 30
0.0
 40
0.4760028772711133
 50
221.0175134202299034
 51
225.4786384320618993
  0
ARC
  5
AF73
  8
0
 10
4211.0756703022179863
 20
212.1322091127537988
 30
0.0
 40
0.1538859937173968
 50
210.9242373774426937
 51
221.0175134202310971
  0
ARC
  5
AF74
  8
0
 10
4210.9571913759673407
 20
212.0612328496742975
 30
0.0
 40
0.0157741336685405
 50
183.3731131137365082
 51
210.9242373774411874
  0
ARC
  5
AF75
  8
0
 10
4210.956198515226788
 20
212.0611743304233983
 30
0.0
 40
0.0147795498609997
 50
139.5604248668518892
 51
183.3731131137299997
  0
LINE
  5
AF76
  8
0
 10
4210.9449499408419797
 20
212.0707610226779138
 30
0.0
 11
4210.9842063603182396
 21
212.112065947603412
 31
0.0
  0
ARC
  5
AF77
  8
0
 10
4210.854347071553093
 20
211.8745022404164047
 30
0.0
 40
0.2655356843020727
 50
45.0943545802760966
 51
55.3442120506541002
  0
ARC
  5
AF78
  8
0
 10
4210.7829264462288847
 20
211.8685358433683916
 30
0.0
 40
0.3159438486253768
 50
45.2533119090407396
 51
50.4259493294979109
  0
ARC
  5
AF79
  8
0
 10
4210.9502897099728216
 20
212.0722766257273122
 30
0.0
 40
0.0522831646512264
 50
49.555532545064807
 51
66.5210990489153744
  0
ARC
  5
AF7A
  8
0
 10
4210.9683412797076016
 20
212.1134785815050918
 30
0.0
 40
0.0073018735138627
 50
67.6330272240362547
 51
95.8892970393032442
  0
ARC
  5
AF7B
  8
0
 10
4210.9680591657279365
 20
212.1188174654986085
 30
0.0
 40
0.0019803277503879
 50
103.6431328736097015
 51
157.9042404372171973
  0
ARC
  5
AF7C
  8
0
 10
4211.0081555783963267
 20
212.1274323689017081
 30
0.0
 40
0.0426634566966164
 50
190.6300479788561972
 51
217.2473772559833947
  0
ARC
  5
AF7D
  8
0
 10
4210.8933190124953398
 20
211.9128092880814904
 30
0.0
 40
0.1399908711282217
 50
44.9944704649601306
 51
52.4986729342746017
  0
ARC
  5
AF7E
  8
0
 10
4210.9649085644823572
 20
212.0061017292954944
 30
0.0
 40
0.0223960432619965
 50
52.4993040079572921
 51
62.6209183953663313
  0
ARC
  5
AF7F
  8
0
 10
4210.9726385891490281
 20
212.0210277938321894
 30
0.0
 40
0.0055870967181137
 50
62.6209183954193378
 51
75.3120871905181701
  0
ARC
  5
AF80
  8
0
 10
4210.9738732919586255
 20
212.0257382493375928
 30
0.0
 40
0.0007175092511611
 50
75.3120871903570475
 51
129.6146245282724863
  0
ARC
  5
AF81
  8
0
 10
4210.9739088534633993
 20
212.0259605210025029
 30
0.0
 40
0.0005935600035988
 50
146.1689638727850138
 51
190.3846146190647062
  0
ARC
  5
AF82
  8
0
 10
4210.9823017979833821
 20
212.0285108423009888
 30
0.0
 40
0.0093618336440673
 50
196.4898453121286082
 51
217.276640358368013
  0
ARC
  5
AF83
  8
0
 10
4211.0734733061699444
 20
212.0966758128132881
 30
0.0
 40
0.1231978308978852
 50
216.821311913130188
 51
226.2619506424105111
  0
ARC
  5
AF84
  8
0
 10
4210.7188878367933285
 20
211.7372515798330141
 30
0.0
 40
0.392543304724899
 50
45.1239132621831374
 51
51.8636920413141169
  0
ARC
  5
AF85
  8
0
 10
4210.9112467127852142
 20
211.9822560440541963
 30
0.0
 40
0.0810483213602212
 50
51.8636920413101024
 51
61.3243976081113971
  0
ARC
  5
AF86
  8
0
 10
4210.9463122474280681
 20
212.0463693506505081
 30
0.0
 40
0.0079722801257748
 50
61.32439760816807
 51
97.2798556927126299
  0
ARC
  5
AF87
  8
0
 10
4210.9480562856178949
 20
212.0529770932415943
 30
0.0
 40
0.0030457541273204
 50
154.7281607375302883
 51
203.6936473713327871
  0
ARC
  5
AF88
  8
0
 10
4210.9593550600793606
 20
212.055265064264205
 30
0.0
 40
0.0145189301584878
 50
193.9977582034426007
 51
206.6008074421413028
  0
ARC
  5
AF89
  8
0
 10
4211.0379390642856379
 20
211.2860675779899964
 30
0.0
 40
0.5754752159633983
 50
44.3305423351385599
 51
48.3211265261038676
  0
ARC
  5
AF8A
  8
0
 10
4211.3204035146318347
 20
211.5360588756630023
 30
0.0
 40
0.1995944934806548
 50
40.4003716677473292
 51
49.6664953537426896
  0
ARC
  5
AF8B
  8
0
 10
4211.4638044472012552
 20
211.6566000876428859
 30
0.0
 40
0.0123174160695262
 50
13.8472569316042602
 51
45.7363246863314288
  0
ARC
  5
AF8C
  8
0
 10
4211.4744062851250419
 20
211.6592134225111863
 30
0.0
 40
0.0013982363158355
 50
289.6638470836434749
 51
13.8472569318934298
  0
ARC
  5
AF8D
  8
0
 10
4211.4763175249381675
 20
211.6695372351479136
 30
0.0
 40
0.011729328046824
 50
243.5206602779900038
 51
262.9444514946923732
  0
ARC
  5
AF8E
  8
0
 10
4211.593210976508999
 20
211.8972318506762917
 30
0.0
 40
0.2676755994166819
 50
238.4419982808869918
 51
242.8555058575470014
  0
ARC
  5
AF8F
  8
0
 10
4211.0191793563435567
 20
211.2543217655573926
 30
0.0
 40
0.6117011841006881
 50
48.9860055556683704
 51
54.2455743022773973
  0
ARC
  5
AF90
  8
0
 10
4211.3332559323189344
 20
211.6938710642700983
 30
0.0
 40
0.0715020705897464
 50
52.681304937357389
 51
68.018327262337138
  0
ARC
  5
AF91
  8
0
 10
4211.3569733990580062
 20
211.7531841210773109
 30
0.0
 40
0.0076260146396362
 50
66.4540578975169609
 51
92.8368609713967317
  0
ARC
  5
AF92
  8
0
 10
4211.3568346273714269
 20
211.7559845874125131
 30
0.0
 40
0.0048221121313219
 50
92.8368609713967317
 51
111.6881712377704048
  0
ARC
  5
AF93
  8
0
 10
4211.3562817421561704
 20
211.7585127249296022
 30
0.0
 40
0.0023072718272709
 50
122.1900132159833987
 51
147.3312517674987134
  0
ARC
  5
AF94
  8
0
 10
4211.3554403301668572
 20
211.7595209261467062
 30
0.0
 40
0.0011261306639196
 50
167.8394800351377967
 51
200.2799179198264881
  0
ARC
  5
AF95
  8
0
 10
4211.4736557610031014
 20
211.8363239135358072
 30
0.0
 40
0.1420723707693409
 50
212.9111586248857861
 51
221.94188244072771
  0
LINE
  5
AF96
  8
0
 10
4211.376668560885264
 20
211.7506883934557038
 30
0.0
 11
4211.3409776112512191
 21
211.7123964320512073
 31
0.0
  0
LINE
  5
AF97
  8
0
 10
4211.4613494534205529
 20
211.6773814664416022
 30
0.0
 11
4211.4226570867431292
 21
211.6386481430741071
 31
0.0
  0
ARC
  5
AF98
  8
0
 10
4211.4127555953891715
 20
211.6493861648231984
 30
0.0
 40
0.0146063219902665
 50
290.6513564389724138
 51
312.6790420537142268
  0
ARC
  5
AF99
  8
0
 10
4211.4139887276996888
 20
211.6484691161768126
 30
0.0
 40
0.0133391744862587
 50
247.0054501465133114
 51
287.0819257799195725
  0
ARC
  5
AF9A
  8
0
 10
4211.4458725253516604
 20
211.7076863537893132
 30
0.0
 40
0.080546660450082
 50
230.0940171801549923
 51
242.578281141229894
  0
ARC
  5
AF9B
  8
0
 10
4211.6967035061479692
 20
212.0289205408186035
 30
0.0
 40
0.4880718031401406
 50
228.2064215814087902
 51
231.6988947009481876
  0
ARC
  5
AF9C
  8
0
 10
4211.6893298846989637
 20
212.0246603060006976
 30
0.0
 40
0.4799888006447148
 50
225.0628669271769979
 51
228.5237274417985986
  0
ARC
  5
AF9D
  8
0
 10
4211.4182358883681445
 20
211.754820432143589
 30
0.0
 40
0.0975007498520388
 50
217.3265267011535968
 51
225.8306404166702066
  0
ARC
  5
AF9E
  8
0
 10
4211.3519381031755984
 20
211.7043379352618047
 30
0.0
 40
0.0141709434811737
 50
181.4962242393893916
 51
217.5561044280092062
  0
ARC
  5
AF9F
  8
0
 10
4211.3502667858829227
 20
211.7040396223837035
 30
0.0
 40
0.012495000326272
 50
138.0245378719428118
 51
180.3288077552327877
  0
ARC
  5
AFA0
  8
0
 10
4211.1785409997055467
 20
211.4468361261878044
 30
0.0
 40
0.2960478481578903
 50
46.2872999310707129
 51
48.4806618281171993
  0
ARC
  5
AFA1
  8
0
 10
4211.2698406128711213
 20
211.5423333259124945
 30
0.0
 40
0.1639292101115726
 50
43.981617678898921
 51
46.2872999310707129
  0
ARC
  5
AFA2
  8
0
 10
4211.3531499124937909
 20
211.622732543505208
 30
0.0
 40
0.0481515197156614
 50
39.0077868363838007
 51
43.9816176789024169
  0
ARC
  5
AFA3
  8
0
 10
4211.3850485547845892
 20
211.6485707335353084
 30
0.0
 40
0.0071011184508354
 50
26.9358695122937917
 51
39.0077868363269573
  0
ARC
  5
AFA4
  8
0
 10
4211.3910891389487006
 20
211.6516400532881903
 30
0.0
 40
0.0003254722975166
 50
330.8521802654066732
 51
26.9358695128008883
  0
ARC
  5
AFA5
  8
0
 10
4211.3912432451952554
 20
211.6516174051677126
 30
0.0
 40
0.0001881538474914
 50
283.5604204627405238
 51
313.7665932348656952
  0
ARC
  5
AFA6
  8
0
 10
4211.3912238395423628
 20
211.6520725659125901
 30
0.0
 40
0.0006412236066324
 50
244.9083754150996128
 51
275.6852766595919206
  0
ARC
  5
AFA7
  8
0
 10
4211.3977438541305673
 20
211.6661595588859939
 30
0.0
 40
0.0161639093224561
 50
233.506509904453992
 51
245.1533253059708102
  0
ARC
  5
AFA8
  8
0
 10
4211.5077081653016648
 20
211.8154677828063086
 30
0.0
 40
0.2015960611527888
 50
227.682188368632012
 51
233.6188582990735938
  0
ARC
  5
AFA9
  8
0
 10
4211.5269658784736748
 20
211.8420080319422993
 30
0.0
 40
0.2342137179315194
 50
224.4360707801540968
 51
228.5698522281489034
  0
ARC
  5
AFAA
  8
0
 10
4211.392807140390687
 20
211.7102571203444938
 30
0.0
 40
0.0461797888915376
 50
218.0698212953552115
 51
224.2523231190461956
  0
ARC
  5
AFAB
  8
0
 10
4211.3574128434620434
 20
211.682779685159602
 30
0.0
 40
0.0013856122598902
 50
178.2439384235576085
 51
226.0762515026135873
  0
ARC
  5
AFAC
  8
0
 10
4211.3561924070936584
 20
211.6826561776686049
 30
0.0
 40
0.0002336965613697
 50
72.1725939689795695
 51
134.7497664574271141
  0
ARC
  5
AFAD
  8
0
 10
4211.3501770018956449
 20
211.6685739563004915
 30
0.0
 40
0.0155459101473967
 50
52.1864361090689712
 51
66.9492191300763437
  0
ARC
  5
AFAE
  8
0
 10
4211.230695465147619
 20
211.5081148345830968
 30
0.0
 40
0.2156004583445092
 50
48.0633592857126501
 51
53.2454943922379087
  0
ARC
  5
AFAF
  8
0
 10
4211.1406529720416074
 20
211.3987010931961095
 30
0.0
 40
0.3702908410270351
 50
40.3934960236741034
 51
49.0290383880821707
  0
ARC
  5
AFB0
  8
0
 10
4211.1292743204976432
 20
211.4053379313563994
 30
0.0
 40
0.3729652054684831
 50
47.0397367177272088
 51
55.4153562677598472
  0
ARC
  5
AFB1
  8
0
 10
4211.2073854587588357
 20
211.0921683946592964
 30
0.0
 40
0.5754752159633983
 50
44.3305423351385599
 51
48.3211265261038676
  0
ARC
  5
AFB2
  8
0
 10
4211.4898499091059421
 20
211.3421596923323023
 30
0.0
 40
0.1995944934806548
 50
40.4003716677473292
 51
49.6664953537426896
  0
ARC
  5
AFB3
  8
0
 10
4211.6332508416753626
 20
211.4627009043121006
 30
0.0
 40
0.0123174160695262
 50
13.8472569316042602
 51
45.7363246863314288
  0
ARC
  5
AFB4
  8
0
 10
4211.6438526795991493
 20
211.4653142391804863
 30
0.0
 40
0.0013982363158355
 50
289.6638470836434749
 51
13.8472569318934298
  0
ARC
  5
AFB5
  8
0
 10
4211.6457639194122748
 20
211.4756380518170999
 30
0.0
 40
0.011729328046824
 50
243.5206602779900038
 51
262.9444514946923732
  0
ARC
  5
AFB6
  8
0
 10
4211.7626573709840159
 20
211.7033326673455917
 30
0.0
 40
0.2676755994166819
 50
238.4419982808869918
 51
242.8555058575470014
  0
ARC
  5
AFB7
  8
0
 10
4211.1886257508167546
 20
211.0604225822266926
 30
0.0
 40
0.6117011841006881
 50
48.9860055556683704
 51
54.2455743022773973
  0
ARC
  5
AFB8
  8
0
 10
4211.5027023267939512
 20
211.499971880939313
 30
0.0
 40
0.0715020705897464
 50
52.681304937357389
 51
68.018327262337138
  0
ARC
  5
AFB9
  8
0
 10
4211.5264197935321135
 20
211.5592849377464972
 30
0.0
 40
0.0076260146396362
 50
66.4540578975169609
 51
92.8368609713967317
  0
ARC
  5
AFBA
  8
0
 10
4211.5262810218446248
 20
211.5620854040818131
 30
0.0
 40
0.0048221121313219
 50
92.8368609713967317
 51
111.6881712377704048
  0
ARC
  5
AFBB
  8
0
 10
4211.5257281366302777
 20
211.5646135415987885
 30
0.0
 40
0.0023072718272709
 50
122.1900132159833987
 51
147.3312517674987134
  0
ARC
  5
AFBC
  8
0
 10
4211.5248867246409645
 20
211.5656217428160062
 30
0.0
 40
0.0011261306639196
 50
167.8394800351377967
 51
200.2799179198264881
  0
ARC
  5
AFBD
  8
0
 10
4211.6431021554772087
 20
211.6424247302051072
 30
0.0
 40
0.1420723707693409
 50
212.9111586248857861
 51
221.94188244072771
  0
LINE
  5
AFBE
  8
0
 10
4211.5461149553602809
 20
211.5567892101248901
 30
0.0
 11
4211.5104240057262359
 21
211.5184972487205073
 31
0.0
  0
LINE
  5
AFBF
  8
0
 10
4211.6307958478946603
 20
211.4834822831107886
 30
0.0
 11
4211.5921034812172365
 21
211.4447489597432934
 31
0.0
  0
ARC
  5
AFC0
  8
0
 10
4211.5822019898650979
 20
211.4554869814924132
 30
0.0
 40
0.0146063219902665
 50
290.6513564389724138
 51
312.6790420537142268
  0
ARC
  5
AFC1
  8
0
 10
4211.5834351221737961
 20
211.4545699328461126
 30
0.0
 40
0.0133391744862587
 50
247.0054501465133114
 51
287.0819257799195725
  0
ARC
  5
AFC2
  8
0
 10
4211.6153189198257678
 20
211.5137871704584995
 30
0.0
 40
0.080546660450082
 50
230.0940171801549923
 51
242.578281141229894
  0
ARC
  5
AFC3
  8
0
 10
4211.8661499006220765
 20
211.8350213574877898
 30
0.0
 40
0.4880718031401406
 50
228.2064215814087902
 51
231.6988947009481876
  0
ARC
  5
AFC4
  8
0
 10
4211.8587762791739806
 20
211.8307611226699123
 30
0.0
 40
0.4799888006447148
 50
225.0628669271769979
 51
228.5237274417985986
  0
ARC
  5
AFC5
  8
0
 10
4211.5876822828431614
 20
211.5609212488128037
 30
0.0
 40
0.0975007498520388
 50
217.3265267011535968
 51
225.8306404166702066
  0
ARC
  5
AFC6
  8
0
 10
4211.5213844976497057
 20
211.5104387519311047
 30
0.0
 40
0.0141709434811737
 50
181.4962242393893916
 51
217.5561044280092062
  0
ARC
  5
AFC7
  8
0
 10
4211.5197131803570301
 20
211.5101404390530035
 30
0.0
 40
0.012495000326272
 50
138.0245378719428118
 51
180.3288077552327877
  0
ARC
  5
AFC8
  8
0
 10
4211.3479873941796541
 20
211.2529369428571044
 30
0.0
 40
0.2960478481578903
 50
46.2872999310707129
 51
48.4806618281171993
  0
ARC
  5
AFC9
  8
0
 10
4211.4392870073452286
 20
211.3484341425817092
 30
0.0
 40
0.1639292101115726
 50
43.981617678898921
 51
46.2872999310707129
  0
ARC
  5
AFCA
  8
0
 10
4211.5225963069688078
 20
211.428833360174508
 30
0.0
 40
0.0481515197156614
 50
39.0077868363838007
 51
43.9816176789024169
  0
ARC
  5
AFCB
  8
0
 10
4211.5544949492586966
 20
211.4546715502044947
 30
0.0
 40
0.0071011184508354
 50
26.9358695122937917
 51
39.0077868363269573
  0
ARC
  5
AFCC
  8
0
 10
4211.5605355334246269
 20
211.4577408699574903
 30
0.0
 40
0.0003254722975166
 50
330.8521802654066732
 51
26.9358695128008883
  0
ARC
  5
AFCD
  8
0
 10
4211.5606896396711818
 20
211.4577182218368989
 30
0.0
 40
0.0001881538474914
 50
283.5604204627405238
 51
313.7665932348656952
  0
ARC
  5
AFCE
  8
0
 10
4211.5606702340173797
 20
211.4581733825818048
 30
0.0
 40
0.0006412236066324
 50
244.9083754150996128
 51
275.6852766595919206
  0
ARC
  5
AFCF
  8
0
 10
4211.5671902486046747
 20
211.4722603755552086
 30
0.0
 40
0.0161639093224561
 50
233.506509904453992
 51
245.1533253059708102
  0
ARC
  5
AFD0
  8
0
 10
4211.6771545597748627
 20
211.6215685994756086
 30
0.0
 40
0.2015960611527888
 50
227.682188368632012
 51
233.6188582990735938
  0
ARC
  5
AFD1
  8
0
 10
4211.6964122729477822
 20
211.6481088486115993
 30
0.0
 40
0.2342137179315194
 50
224.4360707801540968
 51
228.5698522281489034
  0
ARC
  5
AFD2
  8
0
 10
4211.5622535348647943
 20
211.5163579370137086
 30
0.0
 40
0.0461797888915376
 50
218.0698212953552115
 51
224.2523231190461956
  0
ARC
  5
AFD3
  8
0
 10
4211.5268592379370602
 20
211.488880501828902
 30
0.0
 40
0.0013856122598902
 50
178.2439384235576085
 51
226.0762515026135873
  0
ARC
  5
AFD4
  8
0
 10
4211.5256388015677658
 20
211.4887569943379049
 30
0.0
 40
0.0002336965613697
 50
72.1725939689795695
 51
134.7497664574271141
  0
ARC
  5
AFD5
  8
0
 10
4211.5196233963697523
 20
211.4746747729697063
 30
0.0
 40
0.0155459101473967
 50
52.1864361090689712
 51
66.9492191300763437
  0
ARC
  5
AFD6
  8
0
 10
4211.4001418596217263
 20
211.3142156512523968
 30
0.0
 40
0.2156004583445092
 50
48.0633592857126501
 51
53.2454943922379087
  0
ARC
  5
AFD7
  8
0
 10
4211.3100993665166243
 20
211.2048019098654095
 30
0.0
 40
0.3702908410270351
 50
40.3934960236741034
 51
49.0290383880821707
  0
ARC
  5
AFD8
  8
0
 10
4211.2987207149726601
 20
211.2114387480256994
 30
0.0
 40
0.3729652054684831
 50
47.0397367177272088
 51
55.4153562677598472
  0
ARC
  5
AFD9
  8
0
 10
4211.4441879723517559
 20
210.9589776683843922
 30
0.0
 40
0.5754752159633983
 50
44.3305423351385599
 51
48.3211265261038676
  0
ARC
  5
AFDA
  8
0
 10
4211.7266524226961337
 20
211.2089689660575118
 30
0.0
 40
0.1995944934806548
 50
40.4003716677473292
 51
49.6664953537426896
  0
ARC
  5
AFDB
  8
0
 10
4211.8700533552673733
 20
211.3295101780373102
 30
0.0
 40
0.0123174160695262
 50
13.8472569316042602
 51
45.7363246863314288
  0
ARC
  5
AFDC
  8
0
 10
4211.8806551931902504
 20
211.3321235129056106
 30
0.0
 40
0.0013982363158355
 50
289.6638470836434749
 51
13.8472569318934298
  0
ARC
  5
AFDD
  8
0
 10
4211.8825664330042855
 20
211.3424473255423095
 30
0.0
 40
0.011729328046824
 50
243.5206602779900038
 51
262.9444514946923732
  0
ARC
  5
AFDE
  8
0
 10
4211.9994598845760265
 20
211.5701419410706876
 30
0.0
 40
0.2676755994166819
 50
238.4419982808869918
 51
242.8555058575470014
  0
ARC
  5
AFDF
  8
0
 10
4211.2815503771216754
 20
210.7716665013610964
 30
0.0
 40
0.8235272715007491
 50
48.5355650753825074
 51
53.0684114121969515
  0
ARC
  5
AFE0
  8
0
 10
4211.7330278317331249
 20
211.3730920567429052
 30
0.0
 40
0.0715020705897464
 50
52.681304937357389
 51
68.018327262337138
  0
ARC
  5
AFE1
  8
0
 10
4211.7567452984721967
 20
211.4324051135500895
 30
0.0
 40
0.0076260146396362
 50
66.4540578975169609
 51
92.8368609713967317
  0
ARC
  5
AFE2
  8
0
 10
4211.756606526782889
 20
211.4352055798852916
 30
0.0
 40
0.0048221121313219
 50
92.8368609713967317
 51
111.6881712377704048
  0
ARC
  5
AFE3
  8
0
 10
4211.7560536415703609
 20
211.4377337174024092
 30
0.0
 40
0.0023072718272709
 50
122.1900132159833987
 51
147.3312517674987134
  0
ARC
  5
AFE4
  8
0
 10
4211.7552122295810477
 20
211.4387419186195984
 30
0.0
 40
0.0011261306639196
 50
167.8394800351377967
 51
200.2799179198264881
  0
ARC
  5
AFE5
  8
0
 10
4211.8734276604172919
 20
211.5155449060086994
 30
0.0
 40
0.1420723707693409
 50
212.9111586248857861
 51
221.9420121903540064
  0
LINE
  5
AFE6
  8
0
 10
4211.7764404602976356
 20
211.4299093859285108
 30
0.0
 11
4211.7407495106654096
 21
211.3916174245240995
 31
0.0
  0
LINE
  5
AFE7
  8
0
 10
4211.8675983614866709
 20
211.3502915568359981
 30
0.0
 11
4211.8289059948083377
 21
211.311558233468503
 31
0.0
  0
ARC
  5
AFE8
  8
0
 10
4211.819004503456199
 20
211.3222962552175943
 30
0.0
 40
0.0146063219902665
 50
290.6513564389724138
 51
312.6790420537142268
  0
ARC
  5
AFE9
  8
0
 10
4211.8202376357648973
 20
211.3213792065712937
 30
0.0
 40
0.0133391744862587
 50
247.0054501465133114
 51
287.0819257799195725
  0
ARC
  5
AFEA
  8
0
 10
4211.852121433418688
 20
211.3805964441837091
 30
0.0
 40
0.080546660450082
 50
230.0940171801549923
 51
242.578281141229894
  0
ARC
  5
AFEB
  8
0
 10
4212.1029524142131777
 20
211.7018306312129994
 30
0.0
 40
0.4880718031401406
 50
228.2064215814087902
 51
231.6988947009481876
  0
ARC
  5
AFEC
  8
0
 10
4212.3318751581437027
 20
211.9504932037118863
 30
0.0
 40
0.8260425190477562
 50
225.2247959874281094
 51
227.8628976752756898
  0
ARC
  5
AFED
  8
0
 10
4211.8180077877823351
 20
211.4340414246163959
 30
0.0
 40
0.0975007498520388
 50
217.3265267011535968
 51
225.8306404166702066
  0
ARC
  5
AFEE
  8
0
 10
4211.7517100025897889
 20
211.3835589277346969
 30
0.0
 40
0.0141709434811737
 50
181.4962242393893916
 51
217.5561044280092062
  0
ARC
  5
AFEF
  8
0
 10
4211.7500386852971133
 20
211.3832606148565105
 30
0.0
 40
0.012495000326272
 50
138.0245378719428118
 51
180.3288077552327877
  0
ARC
  5
AFF0
  8
0
 10
4211.5847899077707552
 20
211.1197462165822003
 30
0.0
 40
0.2960478481578903
 50
46.2872999310707129
 51
48.4806618281171993
  0
ARC
  5
AFF1
  8
0
 10
4211.6760895209372393
 20
211.2152434163068904
 30
0.0
 40
0.1639292101115726
 50
43.981617678898921
 51
46.2872999310707129
  0
ARC
  5
AFF2
  8
0
 10
4211.7593988205599089
 20
211.2956426338996039
 30
0.0
 40
0.0481515197156614
 50
39.0077868363838007
 51
43.9816176789024169
  0
ARC
  5
AFF3
  8
0
 10
4211.7912974628507072
 20
211.3214808239297042
 30
0.0
 40
0.0071011184508354
 50
26.9358695122937917
 51
39.0077868363269573
  0
ARC
  5
AFF4
  8
0
 10
4211.7973380470148186
 20
211.3245501436825862
 30
0.0
 40
0.0003254722975166
 50
330.8521802654066732
 51
26.9358695128008883
  0
ARC
  5
AFF5
  8
0
 10
4211.7974921532613735
 20
211.3245274955621085
 30
0.0
 40
0.0001881538474914
 50
283.5604204627405238
 51
313.7665932348656952
  0
ARC
  5
AFF6
  8
0
 10
4211.7974727476066619
 20
211.324982656306986
 30
0.0
 40
0.0006412236066324
 50
244.9083754150996128
 51
275.6852766595919206
  0
ARC
  5
AFF7
  8
0
 10
4211.8039927621957759
 20
211.3390696492803897
 30
0.0
 40
0.0161639093224561
 50
233.506509904453992
 51
245.1533253059708102
  0
ARC
  5
AFF8
  8
0
 10
4211.9139570733668734
 20
211.4883778732007897
 30
0.0
 40
0.2015960611527888
 50
227.682188368632012
 51
233.6188582990735938
  0
ARC
  5
AFF9
  8
0
 10
4212.150512432835967
 20
211.7467929567692124
 30
0.0
 40
0.5519337154265748
 50
224.8920401916788023
 51
227.5847940531722031
  0
ARC
  5
AFFA
  8
0
 10
4211.792579039805787
 20
211.3894781128173008
 30
0.0
 40
0.0461797888915376
 50
218.0698212953552115
 51
224.2523231190461956
  0
ARC
  5
AFFB
  8
0
 10
4211.7571847428771434
 20
211.3620006776324942
 30
0.0
 40
0.0013856122598902
 50
178.2439384235576085
 51
226.0762515026135873
  0
ARC
  5
AFFC
  8
0
 10
4211.7559643065069395
 20
211.3618771701414119
 30
0.0
 40
0.0002336965613697
 50
72.1725939689795695
 51
134.7497664574271141
  0
ARC
  5
AFFD
  8
0
 10
4211.7499489013098355
 20
211.3477949487732985
 30
0.0
 40
0.0155459101473967
 50
52.1864361090689712
 51
66.9492191300763437
  0
ARC
  5
AFFE
  8
0
 10
4211.4684407455333712
 20
211.0023304918393876
 30
0.0
 40
0.461178887418722
 50
47.3273286864858704
 51
50.8703939684468835
  0
ARC
  5
AFFF
  8
0
 10
4211.4524093263080431
 20
210.9826615814527031
 30
0.0
 40
0.4999422060251446
 50
41.1396789307715522
 51
48.5711457157565007
  0
ARC
  5
B000
  8
0
 10
4211.5290462199109243
 20
211.0845589238292916
 30
0.0
 40
0.3729652054684831
 50
47.0397367177272088
 51
55.4153562677598472
  0
ARC
  5
B001
  8
0
 10
4211.6220177308659913
 20
210.7695840356402925
 30
0.0
 40
0.5754752159633983
 50
44.3305423351385599
 51
48.3211265261038676
  0
ARC
  5
B002
  8
0
 10
4211.9044821812130976
 20
211.0195753333132984
 30
0.0
 40
0.1995944934806548
 50
40.4003716677473292
 51
49.6664953537426896
  0
ARC
  5
B003
  8
0
 10
4212.0478831137816087
 20
211.1401165452930968
 30
0.0
 40
0.0123174160695262
 50
13.8472569316042602
 51
45.7363246863314288
  0
ARC
  5
B004
  8
0
 10
4212.0584849517072143
 20
211.1427298801613972
 30
0.0
 40
0.0013982363158355
 50
289.6638470836434749
 51
13.8472569318934298
  0
ARC
  5
B005
  8
0
 10
4212.0603961915194304
 20
211.1530536927980961
 30
0.0
 40
0.011729328046824
 50
243.5206602779900038
 51
262.9444514946923732
  0
ARC
  5
B006
  8
0
 10
4212.1772896430911715
 20
211.3807483083265879
 30
0.0
 40
0.2676755994166819
 50
238.4419982808869918
 51
242.8555058575470014
  0
ARC
  5
B007
  8
0
 10
4211.1255059491231805
 20
210.224584193119
 30
0.0
 40
1.3127116629978619
 50
47.9529168522559104
 51
51.5430847982175493
  0
ARC
  5
B008
  8
0
 10
4211.8985674306150031
 20
211.1956733954943104
 30
0.0
 40
0.0715020705897464
 50
52.681304937357389
 51
68.018327262337138
  0
ARC
  5
B009
  8
0
 10
4211.9222848973522559
 20
211.2549864523014094
 30
0.0
 40
0.0076260146396362
 50
66.4540578975169609
 51
92.8368609713967317
  0
ARC
  5
B00A
  8
0
 10
4211.9221461256638577
 20
211.2577869186366968
 30
0.0
 40
0.0048221121313219
 50
92.8368609713967317
 51
111.6881712377704048
  0
ARC
  5
B00B
  8
0
 10
4211.9215932404513296
 20
211.2603150561537007
 30
0.0
 40
0.0023072718272709
 50
122.1900132159833987
 51
147.3312517674987134
  0
ARC
  5
B00C
  8
0
 10
4211.9207518284611069
 20
211.2613232573708899
 30
0.0
 40
0.0011261306639196
 50
167.8394800351377967
 51
200.2799179198264881
  0
ARC
  5
B00D
  8
0
 10
4212.0389672592973511
 20
211.3381262447599909
 30
0.0
 40
0.1420723707693409
 50
212.9111586248857861
 51
221.94188244072771
  0
LINE
  5
B00E
  8
0
 10
4211.9419800591786043
 20
211.2524907246798875
 30
0.0
 11
4211.9062891095463783
 21
211.214198763275391
 31
0.0
  0
LINE
  5
B00F
  8
0
 10
4212.0454281200018158
 20
211.1608979240918131
 30
0.0
 11
4212.0067357533225731
 21
211.1221646007244033
 31
0.0
  0
ARC
  5
B010
  8
0
 10
4211.9968342619713439
 20
211.1329026224734093
 30
0.0
 40
0.0146063219902665
 50
290.6513564389724138
 51
312.6790420537142268
  0
ARC
  5
B011
  8
0
 10
4211.9980673942809517
 20
211.1319855738271087
 30
0.0
 40
0.0133391744862587
 50
247.0054501465133114
 51
287.0819257799195725
  0
ARC
  5
B012
  8
0
 10
4212.0299511919338329
 20
211.1912028114394957
 30
0.0
 40
0.080546660450082
 50
230.0940171801549923
 51
242.578281141229894
  0
ARC
  5
B013
  8
0
 10
4212.2807821727292321
 20
211.512436998468786
 30
0.0
 40
0.4880718031401406
 50
228.2064215814087902
 51
231.6988947009481876
  0
ARC
  5
B014
  8
0
 10
4213.1372625533131213
 20
212.4249220354564898
 30
0.0
 40
1.7394421837757781
 50
225.3862469159900002
 51
227.2042001107166982
  0
ARC
  5
B015
  8
0
 10
4211.9835473866642133
 20
211.2566227633678011
 30
0.0
 40
0.0975007498520388
 50
217.3265267011535968
 51
225.8306404166702066
  0
ARC
  5
B016
  8
0
 10
4211.9172496014698481
 20
211.2061402664859884
 30
0.0
 40
0.0141709434811737
 50
181.4962242393893916
 51
217.5561044280092062
  0
ARC
  5
B017
  8
0
 10
4211.915578284178082
 20
211.2058419536078873
 30
0.0
 40
0.012495000326272
 50
138.0245378719428118
 51
180.3288077552327877
  0
ARC
  5
B018
  8
0
 10
4211.7626196662868097
 20
210.9303525838379869
 30
0.0
 40
0.2960478481578903
 50
46.2872999310707129
 51
48.4806618281171993
  0
ARC
  5
B019
  8
0
 10
4211.8539192794505652
 20
211.0258497835627054
 30
0.0
 40
0.1639292101115726
 50
43.981617678898921
 51
46.2872999310707129
  0
ARC
  5
B01A
  8
0
 10
4211.9372285790759634
 20
211.1062490011555042
 30
0.0
 40
0.0481515197156614
 50
39.0077868363838007
 51
43.9816176789024169
  0
ARC
  5
B01B
  8
0
 10
4211.9691272213667617
 20
211.1320871911856045
 30
0.0
 40
0.0071011184508354
 50
26.9358695122937917
 51
39.0077868363269573
  0
ARC
  5
B01C
  8
0
 10
4211.975167805530873
 20
211.1351565109384865
 30
0.0
 40
0.0003254722975166
 50
330.8521802654066732
 51
26.9358695128008883
  0
ARC
  5
B01D
  8
0
 10
4211.9753219117774279
 20
211.1351338628180088
 30
0.0
 40
0.0001881538474914
 50
283.5604204627405238
 51
313.7665932348656952
  0
ARC
  5
B01E
  8
0
 10
4211.9753025061227163
 20
211.135589023562801
 30
0.0
 40
0.0006412236066324
 50
244.9083754150996128
 51
275.6852766595919206
  0
ARC
  5
B01F
  8
0
 10
4211.9818225207109208
 20
211.1496760165362048
 30
0.0
 40
0.0161639093224561
 50
233.506509904453992
 51
245.1533253059708102
  0
ARC
  5
B020
  8
0
 10
4212.0917868318820183
 20
211.2989842404566048
 30
0.0
 40
0.2015960611527888
 50
227.682188368632012
 51
233.6188582990735938
  0
ARC
  5
B021
  8
0
 10
4212.9980637910648511
 20
212.261555660369595
 30
0.0
 40
1.5236464283916309
 50
225.2313057065510122
 51
226.8519647156068118
  0
ARC
  5
B022
  8
0
 10
4211.9581186386858462
 20
211.2120594515685923
 30
0.0
 40
0.0461797888915376
 50
218.0698212953552115
 51
224.2523231190461956
  0
ARC
  5
B023
  8
0
 10
4211.9227243417572026
 20
211.1845820163838141
 30
0.0
 40
0.0013856122598902
 50
178.2439384235576085
 51
226.0762515026135873
  0
ARC
  5
B024
  8
0
 10
4211.9215039053869987
 20
211.1844585088927886
 30
0.0
 40
0.0002336965613697
 50
72.1725939689795695
 51
134.7497664574271141
  0
ARC
  5
B025
  8
0
 10
4211.9154885001908042
 20
211.1703762875247037
 30
0.0
 40
0.0155459101473967
 50
52.1864361090689712
 51
66.9492191300763437
  0
ARC
  5
B026
  8
0
 10
4211.1486094706142467
 20
210.2912268306301087
 30
0.0
 40
1.182142847318191
 50
46.7321580460332626
 51
48.9450913903353424
  0
ARC
  5
B027
  8
0
 10
4211.7247316386237799
 20
210.8822175508464056
 30
0.0
 40
0.3702908410270351
 50
40.3934960236741034
 51
49.0290383880821707
  0
ARC
  5
B028
  8
0
 10
4211.4071358582259563
 20
210.5688718395826129
 30
0.0
 40
0.8158434335522613
 50
46.616070405582569
 51
52.2784006774415673
  0
ARC
  5
B029
  8
0
 10
4211.8065106739722978
 20
210.6037489684302102
 30
0.0
 40
0.5754752159633983
 50
44.3305423351385599
 51
48.3211265261038676
  0
ARC
  5
B02A
  8
0
 10
4212.0889751243166756
 20
210.8537402661031877
 30
0.0
 40
0.1995944934806548
 50
40.4003716677473292
 51
49.6664953537426896
  0
ARC
  5
B02B
  8
0
 10
4212.2323760568879152
 20
210.974281478082986
 30
0.0
 40
0.0123174160695262
 50
13.8472569316042602
 51
45.7363246863314288
  0
ARC
  5
B02C
  8
0
 10
4212.2429778948107923
 20
210.9768948129512864
 30
0.0
 40
0.0013982363158355
 50
289.6638470836434749
 51
13.8472569318934298
  0
ARC
  5
B02D
  8
0
 10
4212.2448891346248274
 20
210.9872186255880138
 30
0.0
 40
0.011729328046824
 50
243.5206602779900038
 51
262.9444514946923732
  0
ARC
  5
B02E
  8
0
 10
4212.361782586195659
 20
211.2149132411163919
 30
0.0
 40
0.2676755994166819
 50
238.4419982808869918
 51
242.8555058575470014
  0
ARC
  5
B02F
  8
0
 10
4211.7877509660302167
 20
210.5720031559974927
 30
0.0
 40
0.6117011841006881
 50
48.9860055556683704
 51
54.2455743022773973
  0
ARC
  5
B030
  8
0
 10
4212.1018275420055943
 20
211.0115524547101984
 30
0.0
 40
0.0715020705897464
 50
52.681304937357389
 51
68.018327262337138
  0
ARC
  5
B031
  8
0
 10
4212.1255450087437566
 20
211.0708655115174111
 30
0.0
 40
0.0076260146396362
 50
66.4540578975169609
 51
92.8368609713967317
  0
ARC
  5
B032
  8
0
 10
4212.1254062370553584
 20
211.0736659778526985
 30
0.0
 40
0.0048221121313219
 50
92.8368609713967317
 51
111.6881712377704048
  0
ARC
  5
B033
  8
0
 10
4212.1248533518428303
 20
211.0761941153697023
 30
0.0
 40
0.0023072718272709
 50
122.1900132159833987
 51
147.3312517674987134
  0
ARC
  5
B034
  8
0
 10
4212.1240119398526076
 20
211.0772023165868063
 30
0.0
 40
0.0011261306639196
 50
167.8394800351377967
 51
200.2799179198264881
  0
ARC
  5
B035
  8
0
 10
4212.2422273706888518
 20
211.1540053039759073
 30
0.0
 40
0.1420723707693409
 50
212.9111586248857861
 51
221.94188244072771
  0
LINE
  5
B036
  8
0
 10
4212.1452401705710145
 20
211.0683697838958039
 30
0.0
 11
4212.1095492209369695
 21
211.0300778224913074
 31
0.0
  0
LINE
  5
B037
  8
0
 10
4212.2299210631072128
 20
210.9950628568817024
 30
0.0
 11
4212.1912286964279701
 21
210.9563295335142072
 31
0.0
  0
ARC
  5
B038
  8
0
 10
4212.1813272050758314
 20
210.9670675552632133
 30
0.0
 40
0.0146063219902665
 50
290.6513564389724138
 51
312.6790420537142268
  0
ARC
  5
B039
  8
0
 10
4212.1825603373863487
 20
210.966150506616998
 30
0.0
 40
0.0133391744862587
 50
247.0054501465133114
 51
287.0819257799195725
  0
ARC
  5
B03A
  8
0
 10
4212.2144441350392299
 20
211.0253677442292997
 30
0.0
 40
0.080546660450082
 50
230.0940171801549923
 51
242.578281141229894
  0
ARC
  5
B03B
  8
0
 10
4212.4652751158337196
 20
211.34660193125859
 30
0.0
 40
0.4880718031401406
 50
228.2064215814087902
 51
231.6988947009481876
  0
ARC
  5
B03C
  8
0
 10
4212.4579014943847142
 20
211.3423416964407977
 30
0.0
 40
0.4799888006447148
 50
225.0628669271769979
 51
228.5237274417985986
  0
ARC
  5
B03D
  8
0
 10
4212.1868074980548045
 20
211.0725018225836891
 30
0.0
 40
0.0975007498520388
 50
217.3265267011535968
 51
225.8306404166702066
  0
ARC
  5
B03E
  8
0
 10
4212.1205097128622583
 20
211.0220193257019901
 30
0.0
 40
0.0141709434811737
 50
181.4962242393893916
 51
217.5561044280092062
  0
ARC
  5
B03F
  8
0
 10
4212.1188383955695826
 20
211.0217210128238037
 30
0.0
 40
0.012495000326272
 50
138.0245378719428118
 51
180.3288077552327877
  0
ARC
  5
B040
  8
0
 10
4211.9471126093922067
 20
210.7645175166279046
 30
0.0
 40
0.2960478481578903
 50
46.2872999310707129
 51
48.4806618281171993
  0
ARC
  5
B041
  8
0
 10
4212.0384122225568717
 20
210.8600147163525946
 30
0.0
 40
0.1639292101115726
 50
43.981617678898921
 51
46.2872999310707129
  0
ARC
  5
B042
  8
0
 10
4212.1217215221813603
 20
210.9404139339453081
 30
0.0
 40
0.0481515197156614
 50
39.0077868363838007
 51
43.9816176789024169
  0
ARC
  5
B043
  8
0
 10
4212.1536201644712492
 20
210.9662521239754938
 30
0.0
 40
0.0071011184508354
 50
26.9358695122937917
 51
39.0077868363269573
  0
ARC
  5
B044
  8
0
 10
4212.15966074863627
 20
210.9693214437282904
 30
0.0
 40
0.0003254722975166
 50
330.8521802654066732
 51
26.9358695128008883
  0
ARC
  5
B045
  8
0
 10
4212.1598148548819154
 20
210.9692987956078127
 30
0.0
 40
0.0001881538474914
 50
283.5604204627405238
 51
313.7665932348656952
  0
ARC
  5
B046
  8
0
 10
4212.1597954492281133
 20
210.9697539563526902
 30
0.0
 40
0.0006412236066324
 50
244.9083754150996128
 51
275.6852766595919206
  0
ARC
  5
B047
  8
0
 10
4212.1663154638172273
 20
210.9838409493260087
 30
0.0
 40
0.0161639093224561
 50
233.506509904453992
 51
245.1533253059708102
  0
ARC
  5
B048
  8
0
 10
4212.2762797749883248
 20
211.133149173246494
 30
0.0
 40
0.2015960611527888
 50
227.682188368632012
 51
233.6188582990735938
  0
ARC
  5
B049
  8
0
 10
4212.2955374881576063
 20
211.1596894223825132
 30
0.0
 40
0.2342137179315194
 50
224.4360707801540968
 51
228.5698522281489034
  0
ARC
  5
B04A
  8
0
 10
4212.1613787500773469
 20
211.027938510784594
 30
0.0
 40
0.0461797888915376
 50
218.0698212953552115
 51
224.2523231190461956
  0
ARC
  5
B04B
  8
0
 10
4212.1259844531477938
 20
211.0004610755997874
 30
0.0
 40
0.0013856122598902
 50
178.2439384235576085
 51
226.0762515026135873
  0
ARC
  5
B04C
  8
0
 10
4212.1247640167794088
 20
211.000337568108705
 30
0.0
 40
0.0002336965613697
 50
72.1725939689795695
 51
134.7497664574271141
  0
ARC
  5
B04D
  8
0
 10
4212.1187486115832144
 20
210.9862553467405917
 30
0.0
 40
0.0155459101473967
 50
52.1864361090689712
 51
66.9492191300763437
  0
ARC
  5
B04E
  8
0
 10
4211.9992670748315504
 20
210.8257962250231969
 30
0.0
 40
0.2156004583445092
 50
48.0633592857126501
 51
53.2454943922379087
  0
ARC
  5
B04F
  8
0
 10
4211.9092245817291769
 20
210.7163824836362096
 30
0.0
 40
0.3702908410270351
 50
40.3934960236741034
 51
49.0290383880821707
  0
ARC
  5
B050
  8
0
 10
4211.8978459301843031
 20
210.7230193217964995
 30
0.0
 40
0.3729652054684831
 50
47.0397367177272088
 51
55.4153562677598472
  0
ARC
  5
B051
  8
0
 10
4210.8117822628037175
 20
211.4276901873485031
 30
0.0
 40
0.5754752159633983
 50
44.3305423351385599
 51
48.3211265261038676
  0
ARC
  5
B052
  8
0
 10
4211.0942467131508238
 20
211.6776814850215089
 30
0.0
 40
0.1995944934806548
 50
40.4003716677473292
 51
49.6664953537426896
  0
ARC
  5
B053
  8
0
 10
4211.2376476457193348
 20
211.7982226970013073
 30
0.0
 40
0.0123174160695262
 50
13.8472569316042602
 51
45.7363246863314288
  0
ARC
  5
B054
  8
0
 10
4211.248249483644031
 20
211.8008360318696077
 30
0.0
 40
0.0013982363158355
 50
289.6638470836434749
 51
13.8472569318934298
  0
ARC
  5
B055
  8
0
 10
4211.2501607234571566
 20
211.8111598445063066
 30
0.0
 40
0.011729328046824
 50
243.5206602779900038
 51
262.9444514946923732
  0
ARC
  5
B056
  8
0
 10
4211.3670541750279881
 20
212.0388544600347984
 30
0.0
 40
0.2676755994166819
 50
238.4419982808869918
 51
242.8555058575470014
  0
ARC
  5
B057
  8
0
 10
4210.7930225548616363
 20
211.395944374915814
 30
0.0
 40
0.6117011841006881
 50
48.9860055556683704
 51
54.2455743022773973
  0
ARC
  5
B058
  8
0
 10
4211.1070991308379234
 20
211.8354936736284913
 30
0.0
 40
0.0715020705897464
 50
52.681304937357389
 51
68.018327262337138
  0
ARC
  5
B059
  8
0
 10
4211.1308165975760858
 20
211.8948067304357039
 30
0.0
 40
0.0076260146396362
 50
66.4540578975169609
 51
92.8368609713967317
  0
ARC
  5
B05A
  8
0
 10
4211.130677825888597
 20
211.8976071967709061
 30
0.0
 40
0.0048221121313219
 50
92.8368609713967317
 51
111.6881712377704048
  0
ARC
  5
B05B
  8
0
 10
4211.1301249406751595
 20
211.9001353342879952
 30
0.0
 40
0.0023072718272709
 50
122.1900132159833987
 51
147.3312517674987134
  0
ARC
  5
B05C
  8
0
 10
4211.1292835286858462
 20
211.9011435355050992
 30
0.0
 40
0.0011261306639196
 50
167.8394800351377967
 51
200.2799179198264881
  0
ARC
  5
B05D
  8
0
 10
4211.247498959521181
 20
211.9779465228943138
 30
0.0
 40
0.1420723707693409
 50
212.9111586248857861
 51
221.94188244072771
  0
LINE
  5
B05E
  8
0
 10
4211.1505117594033436
 20
211.8923110028140968
 30
0.0
 11
4211.1148208097702081
 21
211.8540190414096003
 31
0.0
  0
LINE
  5
B05F
  8
0
 10
4211.2351926519404515
 20
211.8190040757999952
 30
0.0
 11
4211.1965002852612088
 21
211.7802707524325001
 31
0.0
  0
ARC
  5
B060
  8
0
 10
4211.1865987939090701
 20
211.7910087741815914
 30
0.0
 40
0.0146063219902665
 50
290.6513564389724138
 51
312.6790420537142268
  0
ARC
  5
B061
  8
0
 10
4211.1878319262186778
 20
211.7900917255352908
 30
0.0
 40
0.0133391744862587
 50
247.0054501465133114
 51
287.0819257799195725
  0
ARC
  5
B062
  8
0
 10
4211.2197157238706495
 20
211.8493089631477062
 30
0.0
 40
0.080546660450082
 50
230.0940171801549923
 51
242.578281141229894
  0
ARC
  5
B063
  8
0
 10
4211.4705467046660488
 20
212.1705431501769965
 30
0.0
 40
0.4880718031401406
 50
228.2064215814087902
 51
231.6988947009481876
  0
ARC
  5
B064
  8
0
 10
4211.4631730832179528
 20
212.1662829153590906
 30
0.0
 40
0.4799888006447148
 50
225.0628669271769979
 51
228.5237274417985986
  0
ARC
  5
B065
  8
0
 10
4211.1920790868871336
 20
211.8964430415020104
 30
0.0
 40
0.0975007498520388
 50
217.3265267011535968
 51
225.8306404166702066
  0
ARC
  5
B066
  8
0
 10
4211.1257813016945875
 20
211.8459605446203113
 30
0.0
 40
0.0141709434811737
 50
181.4962242393893916
 51
217.5561044280092062
  0
ARC
  5
B067
  8
0
 10
4211.1241099844019118
 20
211.8456622317420965
 30
0.0
 40
0.012495000326272
 50
138.0245378719428118
 51
180.3288077552327877
  0
ARC
  5
B068
  8
0
 10
4210.9523841982254453
 20
211.5884587355461974
 30
0.0
 40
0.2960478481578903
 50
46.2872999310707129
 51
48.4806618281171993
  0
ARC
  5
B069
  8
0
 10
4211.0436838113882914
 20
211.6839559352708875
 30
0.0
 40
0.1639292101115726
 50
43.981617678898921
 51
46.2872999310707129
  0
ARC
  5
B06A
  8
0
 10
4211.1269931110136895
 20
211.764355152863601
 30
0.0
 40
0.0481515197156614
 50
39.0077868363838007
 51
43.9816176789024169
  0
ARC
  5
B06B
  8
0
 10
4211.1588917533053973
 20
211.7901933428937014
 30
0.0
 40
0.0071011184508354
 50
26.9358695122937917
 51
39.0077868363269573
  0
ARC
  5
B06C
  8
0
 10
4211.1649323374676896
 20
211.7932626626466117
 30
0.0
 40
0.0003254722975166
 50
330.8521802654066732
 51
26.9358695128008883
  0
ARC
  5
B06D
  8
0
 10
4211.1650864437142445
 20
211.7932400145261056
 30
0.0
 40
0.0001881538474914
 50
283.5604204627405238
 51
313.7665932348656952
  0
ARC
  5
B06E
  8
0
 10
4211.1650670380613519
 20
211.7936951752710115
 30
0.0
 40
0.0006412236066324
 50
244.9083754150996128
 51
275.6852766595919206
  0
ARC
  5
B06F
  8
0
 10
4211.1715870526486469
 20
211.8077821682443869
 30
0.0
 40
0.0161639093224561
 50
233.506509904453992
 51
245.1533253059708102
  0
ARC
  5
B070
  8
0
 10
4211.2815513638188349
 20
211.9570903921647869
 30
0.0
 40
0.2015960611527888
 50
227.682188368632012
 51
233.6188582990735938
  0
ARC
  5
B071
  8
0
 10
4211.3008090769908449
 20
211.983630641300806
 30
0.0
 40
0.2342137179315194
 50
224.4360707801540968
 51
228.5698522281489034
  0
ARC
  5
B072
  8
0
 10
4211.1666503389105856
 20
211.8518797297028868
 30
0.0
 40
0.0461797888915376
 50
218.0698212953552115
 51
224.2523231190461956
  0
ARC
  5
B073
  8
0
 10
4211.131256041981942
 20
211.8244022945181086
 30
0.0
 40
0.0013856122598902
 50
178.2439384235576085
 51
226.0762515026135873
  0
ARC
  5
B074
  8
0
 10
4211.130035605611738
 20
211.8242787870269979
 30
0.0
 40
0.0002336965613697
 50
72.1725939689795695
 51
134.7497664574271141
  0
ARC
  5
B075
  8
0
 10
4211.124020200414634
 20
211.810196565658913
 30
0.0
 40
0.0155459101473967
 50
52.1864361090689712
 51
66.9492191300763437
  0
ARC
  5
B076
  8
0
 10
4211.0045386636656986
 20
211.6497374439414898
 30
0.0
 40
0.2156004583445092
 50
48.0633592857126501
 51
53.2454943922379087
  0
ARC
  5
B077
  8
0
 10
4210.9144961705624155
 20
211.5403237025545877
 30
0.0
 40
0.3702908410270351
 50
40.3934960236741034
 51
49.0290383880821707
  0
ARC
  5
B078
  8
0
 10
4210.9031175190157228
 20
211.5469605407147924
 30
0.0
 40
0.3729652054684831
 50
47.0397367177272088
 51
55.4153562677598472
  0
ARC
  5
B079
  8
0
 10
4210.9876332971498414
 20
211.2326007159412882
 30
0.0
 40
0.5754752159633983
 50
44.3305423351385599
 51
48.3211265261038676
  0
ARC
  5
B07A
  8
0
 10
4211.2700977474960382
 20
211.4825920136144077
 30
0.0
 40
0.1995944934806548
 50
40.4003716677473292
 51
49.6664953537426896
  0
ARC
  5
B07B
  8
0
 10
4211.4134986800645493
 20
211.6031332255942061
 30
0.0
 40
0.0123174160695262
 50
13.8472569316042602
 51
45.7363246863314288
  0
ARC
  5
B07C
  8
0
 10
4211.4241005179892454
 20
211.6057465604625065
 30
0.0
 40
0.0013982363158355
 50
289.6638470836434749
 51
13.8472569318934298
  0
ARC
  5
B07D
  8
0
 10
4211.4260117578032805
 20
211.6160703730992054
 30
0.0
 40
0.011729328046824
 50
243.5206602779900038
 51
262.9444514946923732
  0
ARC
  5
B07E
  8
0
 10
4211.542905209374112
 20
211.843764988627612
 30
0.0
 40
0.2676755994166819
 50
238.4419982808869918
 51
242.8555058575470014
  0
ARC
  5
B07F
  8
0
 10
4210.9688735892077602
 20
211.2008549035087128
 30
0.0
 40
0.6117011841006881
 50
48.9860055556683704
 51
54.2455743022773973
  0
ARC
  5
B080
  8
0
 10
4211.2829501651831379
 20
211.6404042022213901
 30
0.0
 40
0.0715020705897464
 50
52.681304937357389
 51
68.018327262337138
  0
ARC
  5
B081
  8
0
 10
4211.3066676319222097
 20
211.6997172590286027
 30
0.0
 40
0.0076260146396362
 50
66.4540578975169609
 51
92.8368609713967317
  0
ARC
  5
B082
  8
0
 10
4211.3065288602347209
 20
211.7025177253638901
 30
0.0
 40
0.0048221121313219
 50
92.8368609713967317
 51
111.6881712377704048
  0
ARC
  5
B083
  8
0
 10
4211.3059759750212834
 20
211.705045862880894
 30
0.0
 40
0.0023072718272709
 50
122.1900132159833987
 51
147.3312517674987134
  0
ARC
  5
B084
  8
0
 10
4211.3051345630310607
 20
211.706054064097998
 30
0.0
 40
0.0011261306639196
 50
167.8394800351377967
 51
200.2799179198264881
  0
ARC
  5
B085
  8
0
 10
4211.4233499938673049
 20
211.7828570514872126
 30
0.0
 40
0.1420723707693409
 50
212.9111586248857861
 51
221.94188244072771
  0
LINE
  5
B086
  8
0
 10
4211.3263627937476485
 20
211.6972215314069956
 30
0.0
 11
4211.2906718441154226
 21
211.6589295700024991
 31
0.0
  0
LINE
  5
B087
  8
0
 10
4211.4110436862847564
 20
211.623914604392894
 30
0.0
 11
4211.3723513196073327
 21
211.5851812810253989
 31
0.0
  0
ARC
  5
B088
  8
0
 10
4211.3624498282542845
 20
211.5959193027744902
 30
0.0
 40
0.0146063219902665
 50
290.6513564389724138
 51
312.6790420537142268
  0
ARC
  5
B089
  8
0
 10
4211.3636829605638923
 20
211.5950022541281896
 30
0.0
 40
0.0133391744862587
 50
247.0054501465133114
 51
287.0819257799195725
  0
ARC
  5
B08A
  8
0
 10
4211.395566758215864
 20
211.654219491740605
 30
0.0
 40
0.080546660450082
 50
230.0940171801549923
 51
242.578281141229894
  0
ARC
  5
B08B
  8
0
 10
4211.6463977390121727
 20
211.9754536787698953
 30
0.0
 40
0.4880718031401406
 50
228.2064215814087902
 51
231.6988947009481876
  0
ARC
  5
B08C
  8
0
 10
4211.6390241175622577
 20
211.9711934439519894
 30
0.0
 40
0.4799888006447148
 50
225.0628669271769979
 51
228.5237274417985986
  0
ARC
  5
B08D
  8
0
 10
4211.367930121232348
 20
211.7013535700949092
 30
0.0
 40
0.0975007498520388
 50
217.3265267011535968
 51
225.8306404166702066
  0
ARC
  5
B08E
  8
0
 10
4211.3016323360407114
 20
211.6508710732132101
 30
0.0
 40
0.0141709434811737
 50
181.4962242393893916
 51
217.5561044280092062
  0
ARC
  5
B08F
  8
0
 10
4211.2999610187471262
 20
211.6505727603349953
 30
0.0
 40
0.012495000326272
 50
138.0245378719428118
 51
180.3288077552327877
  0
ARC
  5
B090
  8
0
 10
4211.1282352325697502
 20
211.3933692641390962
 30
0.0
 40
0.2960478481578903
 50
46.2872999310707129
 51
48.4806618281171993
  0
ARC
  5
B091
  8
0
 10
4211.2195348457344153
 20
211.4888664638637863
 30
0.0
 40
0.1639292101115726
 50
43.981617678898921
 51
46.2872999310707129
  0
ARC
  5
B092
  8
0
 10
4211.3028441453579944
 20
211.5692656814564998
 30
0.0
 40
0.0481515197156614
 50
39.0077868363838007
 51
43.9816176789024169
  0
ARC
  5
B093
  8
0
 10
4211.3347427876487927
 20
211.5951038714866002
 30
0.0
 40
0.0071011184508354
 50
26.9358695122937917
 51
39.0077868363269573
  0
ARC
  5
B094
  8
0
 10
4211.3407833718138136
 20
211.5981731912395105
 30
0.0
 40
0.0003254722975166
 50
330.8521802654066732
 51
26.9358695128008883
  0
ARC
  5
B095
  8
0
 10
4211.3409374780585495
 20
211.5981505431190044
 30
0.0
 40
0.0001881538474914
 50
283.5604204627405238
 51
313.7665932348656952
  0
ARC
  5
B096
  8
0
 10
4211.3409180724065664
 20
211.5986057038639103
 30
0.0
 40
0.0006412236066324
 50
244.9083754150996128
 51
275.6852766595919206
  0
ARC
  5
B097
  8
0
 10
4211.3474380869947709
 20
211.6126926968373141
 30
0.0
 40
0.0161639093224561
 50
233.506509904453992
 51
245.1533253059708102
  0
ARC
  5
B098
  8
0
 10
4211.4574023981658684
 20
211.7620009207576004
 30
0.0
 40
0.2015960611527888
 50
227.682188368632012
 51
233.6188582990735938
  0
ARC
  5
B099
  8
0
 10
4211.4766601113378783
 20
211.7885411698937048
 30
0.0
 40
0.2342137179315194
 50
224.4360707801540968
 51
228.5698522281489034
  0
ARC
  5
B09A
  8
0
 10
4211.3425013732548905
 20
211.6567902582958141
 30
0.0
 40
0.0461797888915376
 50
218.0698212953552115
 51
224.2523231190461956
  0
ARC
  5
B09B
  8
0
 10
4211.3071070763271564
 20
211.6293128231108938
 30
0.0
 40
0.0013856122598902
 50
178.2439384235576085
 51
226.0762515026135873
  0
ARC
  5
B09C
  8
0
 10
4211.3058866399578619
 20
211.6291893156198967
 30
0.0
 40
0.0002336965613697
 50
72.1725939689795695
 51
134.7497664574271141
  0
ARC
  5
B09D
  8
0
 10
4211.2998712347607579
 20
211.6151070942518118
 30
0.0
 40
0.0155459101473967
 50
52.1864361090689712
 51
66.9492191300763437
  0
ARC
  5
B09E
  8
0
 10
4211.1803896980118225
 20
211.4546479725343886
 30
0.0
 40
0.2156004583445092
 50
48.0633592857126501
 51
53.2454943922379087
  0
ARC
  5
B09F
  8
0
 10
4211.0903472049067204
 20
211.3452342311474865
 30
0.0
 40
0.3702908410270351
 50
40.3934960236741034
 51
49.0290383880821707
  0
ARC
  5
B0A0
  8
0
 10
4211.0789685533618467
 20
211.3518710693076912
 30
0.0
 40
0.3729652054684831
 50
47.0397367177272088
 51
55.4153562677598472
  0
LINE
  5
B0A1
  8
0
 10
4212.2993898254590022
 20
210.9335430636035085
 30
0.0
 11
4212.2434484029190571
 21
210.9755781174984008
 31
0.0
  0
LINE
  5
B0A2
  8
0
 10
4212.0282414789617178
 20
211.1436930906280054
 30
0.0
 11
4212.1270621522580768
 21
211.0708095649042093
 31
0.0
  0
LINE
  5
B0A3
  8
0
 10
4211.924134584362946
 20
211.2333447439775966
 30
0.0
 11
4211.8266721620320823
 21
211.309864374665807
 31
0.0
  0
LINE
  5
B0A4
  8
0
 10
4211.9926742076740993
 20
211.1198011941310995
 30
0.0
 11
4211.9781942122108376
 21
211.105304434295391
 31
0.0
  0
ARC
  5
B0A5
  8
0
 10
4211.9698380480440392
 20
211.1136509352110124
 30
0.0
 40
0.0118105697207404
 50
230.8294893578961933
 51
315.0331482125093885
  0
LINE
  5
B0A6
  8
0
 10
4211.962378133573111
 20
211.1044945585684047
 30
0.0
 11
4211.895175773099254
 21
211.1592458953601863
 31
0.0
  0
ARC
  5
B0A7
  8
0
 10
4211.9026319534923459
 20
211.1683976887563858
 30
0.0
 40
0.0118046579116614
 50
137.0242055683382034
 51
230.8294893579032987
  0
LINE
  5
B0A8
  8
0
 10
4211.8939951728243614
 20
211.1764447980579007
 30
0.0
 11
4211.9095447270274235
 21
211.1931404619886052
 31
0.0
  0
LINE
  5
B0A9
  8
0
 10
4211.8150267730834457
 20
211.3090999359870068
 30
0.0
 11
4211.7789571430448632
 21
211.2678676502160044
 31
0.0
  0
ARC
  5
B0AA
  8
0
 10
4211.7703291294774317
 20
211.2765947919126006
 30
0.0
 40
0.0122721481555543
 50
231.7945758316018896
 51
314.672744988088084
  0
ARC
  5
B0AB
  8
0
 10
4212.3191921894604093
 20
212.0101522091482025
 30
0.0
 40
0.9284328936067113
 50
227.6852061908334122
 51
233.1768786355621046
  0
ARC
  5
B0AC
  8
0
 10
4211.7028334662536508
 20
211.331700837186105
 30
0.0
 40
0.0118486716704183
 50
134.5099889612689026
 51
222.8117585441034976
  0
LINE
  5
B0AD
  8
0
 10
4211.694527149275018
 20
211.3401504595798883
 30
0.0
 11
4211.7375806672553153
 21
211.3824737908176132
 31
0.0
  0
LINE
  5
B0AE
  8
0
 10
4211.5873533552967274
 20
211.4418192063897095
 30
0.0
 11
4211.5691461521510064
 21
211.4230823178054948
 31
0.0
  0
ARC
  5
B0AF
  8
0
 10
4211.560219136037631
 20
211.4336714220237923
 30
0.0
 40
0.0138499366354074
 50
245.6526012276833058
 51
310.1321578717477792
  0
LINE
  5
B0B0
  8
0
 10
4211.5545092477386788
 20
211.4210532636635094
 30
0.0
 11
4211.4888594780941276
 21
211.4790684235090055
 31
0.0
  0
ARC
  5
B0B1
  8
0
 10
4211.4966812284010302
 20
211.4879189711068079
 30
0.0
 40
0.0118113220729689
 50
136.5352798877028135
 51
228.5310343915772933
  0
LINE
  5
B0B2
  8
0
 10
4211.4881085934248404
 20
211.4960440716396874
 30
0.0
 11
4211.5278255527282454
 21
211.5379486601559051
 31
0.0
  0
LINE
  5
B0B3
  8
0
 10
4211.3055046863391908
 20
211.7072298197219027
 30
0.0
 11
4211.2053767527895616
 21
211.7891566158901071
 31
0.0
  0
LINE
  5
B0B4
  8
0
 10
4211.2462159187225552
 20
211.7557411452565077
 30
0.0
 11
4211.2130823032421176
 21
211.7223124253501112
 31
0.0
  0
ARC
  5
B0B5
  8
0
 10
4211.2046128126830808
 20
211.7316946533593125
 30
0.0
 40
0.0126395598315314
 50
222.4921661564322903
 51
312.0730826315028139
  0
LINE
  5
B0B6
  8
0
 10
4211.1952927842303325
 20
211.7231567647222903
 30
0.0
 11
4210.9709726344872252
 21
211.9308940691306873
 31
0.0
  0
ARC
  5
B0B7
  8
0
 10
4210.9806861421848225
 20
211.9420653117624909
 30
0.0
 40
0.0148178885612017
 50
187.004274518871199
 51
229.4794557352817037
  0
LINE
  5
B0B8
  8
0
 10
4211.1153016745793138
 20
211.879435021779102
 30
0.0
 11
4211.0818508356287566
 21
211.8447563130102935
 31
0.0
  0
ARC
  5
B0B9
  8
0
 10
4211.0723658258202704
 20
211.8539054868651021
 30
0.0
 40
0.0131784973846382
 50
246.9087912682963974
 51
316.0325056489197095
  0
LINE
  5
B0BA
  8
0
 10
4211.12986217568141
 20
211.8208946010497016
 30
0.0
 11
4211.1186446205201719
 21
211.809265286486891
 31
0.0
  0
ARC
  5
B0BB
  8
0
 10
4211.1104901501266795
 20
211.8171310313647098
 30
0.0
 40
0.0113298424477255
 50
227.9347104854253132
 51
316.032505648933693
  0
LINE
  5
B0BC
  8
0
 10
4211.1917501593416091
 20
211.7773409990788878
 30
0.0
 11
4211.1731571451882701
 21
211.758258606096291
 31
0.0
  0
ARC
  5
B0BD
  8
0
 10
4211.1642502232580227
 20
211.768517103171888
 30
0.0
 40
0.0135856549543153
 50
253.4083074602382908
 51
310.9660909727255103
  0
LINE
  5
B0BE
  8
0
 10
4211.1280322060720209
 20
211.8681932307356135
 30
0.0
 11
4211.0567655151626241
 21
211.9296758500593114
 31
0.0
  0
ARC
  5
B0BF
  8
0
 10
4210.8155777950969423
 20
211.7122913377195914
 30
0.0
 40
0.3291166933781725
 50
40.1468949730290205
 51
49.355728610101643
  0
ARC
  5
B0C0
  8
0
 10
4210.8220883993417374
 20
211.7177828891850879
 30
0.0
 40
0.3205993519425521
 50
39.0378873745104116
 51
40.1468949730290205
  0
ARC
  5
B0C1
  8
0
 10
4211.0672320801768365
 20
211.9165648746200077
 30
0.0
 40
0.0049893045948908
 50
14.0476534575404006
 51
39.0378873745369717
  0
ARC
  5
B0C2
  8
0
 10
4211.0714857425873561
 20
211.9176291902927005
 30
0.0
 40
0.0006045113547757
 50
264.3828872917259218
 51
14.0476534578342491
  0
LINE
  5
B0C3
  8
0
 10
4211.0598721121177732
 20
211.9328339442760978
 30
0.0
 11
4211.027547906763175
 21
211.8999835510682033
 31
0.0
  0
ARC
  5
B0C4
  8
0
 10
4211.0191042487531377
 20
211.9097179905022017
 30
0.0
 40
0.0128862202249832
 50
224.0924457011203117
 51
310.9383865553331816
  0
LINE
  5
B0C5
  8
0
 10
4211.0098491328453747
 20
211.9007515251329039
 30
0.0
 11
4210.9659788386834407
 21
211.9402583681778935
 31
0.0
  0
LINE
  5
B0C6
  8
0
 10
4210.9659788386834407
 20
211.9402583681778935
 30
0.0
 11
4210.8805988343519857
 21
212.0228327312925103
 31
0.0
  0
ARC
  5
B0C7
  8
0
 10
4210.8903111325480495
 20
212.0328750256647936
 30
0.0
 40
0.0139705551965719
 50
145.5121283373063079
 51
225.9570245354616986
  0
LINE
  5
B0C8
  8
0
 10
4210.878795957377406
 20
212.0407855979131
 30
0.0
 11
4210.9033933945647732
 21
212.0765913258778994
 31
0.0
  0
ARC
  5
B0C9
  8
0
 10
4219.9449326905323687
 20
222.4064604085293126
 30
0.0
 40
13.7274920872870307
 50
228.8432427461195005
 51
229.1819567893066107
  0
ARC
  5
B0CA
  8
0
 10
4210.7735517077098848
 20
211.9030312177251858
 30
0.0
 40
0.2166687779883391
 50
50.77146555246091
 51
56.1463260516036726
  0
ARC
  5
B0CB
  8
0
 10
4210.892931629053237
 20
212.0812488083898018
 30
0.0
 40
0.0021667494745095
 50
52.4483038028042898
 51
102.1057104259538022
  0
ARC
  5
B0CC
  8
0
 10
4210.9220163046065863
 20
212.1102344825978889
 30
0.0
 40
0.0399299212107109
 50
222.2879177306828922
 51
229.5784149800940099
  0
LINE
  5
B0CD
  8
0
 10
4210.8961254742016536
 20
212.0798360696655038
 30
0.0
 11
4210.9018374303186647
 21
212.0743263568845123
 31
0.0
  0
LINE
  5
B0CE
  8
0
 10
4211.733337595377634
 20
211.3783026813491119
 30
0.0
 11
4211.6152537056750589
 21
211.4679236892037864
 31
0.0
  0
LINE
  5
B0CF
  8
0
 10
4211.5282694805428036
 20
211.5376432294227129
 30
0.0
 11
4211.4241881851594371
 21
211.6092531291461114
 31
0.0
  0
LINE
  5
B0D0
  8
0
 10
4210.892477226992014
 20
212.0833673744265013
 30
0.0
 11
4210.8332830291701612
 21
212.1354851221709055
 31
0.0
  0
LINE
  5
B0D1
  8
0
 10
4210.0535213627335906
 20
214.4878582140505898
 30
0.0
 11
4213.1012394354165735
 21
211.4388774991514026
 31
0.0
  0
ARC
  5
B0D3
  8
0
 10
4211.2009354996453112
 20
213.7946700153723043
 30
0.0
 40
0.1968503937000016
 50
231.497932093120113
 51
311.0115733955956898
  0
LINE
  5
B0D4
  8
0
 10
4211.3301109843496306
 20
213.64613122700041
 30
0.0
 11
4211.6191166068829261
 21
213.8974624905877988
 31
0.0
  0
LINE
  5
B0D5
  8
0
 10
4211.6191166068829261
 20
213.8974624905877988
 30
0.0
 11
4211.6728570267450777
 21
213.9078214293722908
 31
0.0
  0
ARC
  5
B0D6
  8
0
 10
4211.9212370017448848
 20
213.3072243285724028
 30
0.0
 40
0.4133858267998625
 50
92.620423380327054
 51
97.9525516664028117
  0
ARC
  5
B0D7
  8
0
 10
4211.9005374211828894
 20
213.759506804365202
 30
0.0
 40
0.0393700793401441
 50
272.6204233803271109
 51
314.9999994532823848
  0
LINE
  5
B0D8
  8
0
 10
4211.9283762709956136
 20
213.7316679540222992
 30
0.0
 11
4211.9871178897856225
 21
213.7904095716928055
 31
0.0
  0
ARC
  5
B0D9
  8
0
 10
4211.9314401953661218
 20
213.8460872671763013
 30
0.0
 40
0.0787401513231373
 50
314.9999994532823848
 51
22.5000036408883588
  0
LINE
  5
B0DA
  8
0
 10
4212.0041866076462611
 20
213.8762198231723062
 30
0.0
 11
4211.9616932841790913
 21
213.9788077625530036
 31
0.0
  0
ARC
  5
B0DB
  8
0
 10
4212.034439691246007
 20
214.0089403163894133
 30
0.0
 40
0.0787401456798003
 50
134.9999886380952034
 51
202.5000036408883091
  0
LINE
  5
B0DC
  8
0
 10
4211.9787620113256708
 20
214.0646180183923093
 30
0.0
 11
4212.3201677850256601
 21
214.4060236566905928
 31
0.0
  0
LINE
  5
B0DD
  8
0
 10
4211.6191784693037334
 20
213.8974744151136917
 30
0.0
 11
4212.5114870883517142
 21
213.0051657961647038
 31
0.0
  0
LINE
  5
B0DE
  8
0
 10
4211.6728570267450777
 20
213.9078214293722908
 30
0.0
 11
4212.5218341026111375
 21
213.0588443536061902
 31
0.0
  0
LINE
  5
B0DF
  8
0
 10
4211.961693277615268
 20
213.9788077784021141
 30
0.0
 11
4212.592820451623993
 21
213.347680604392508
 31
0.0
  0
LINE
  5
B0E0
  8
0
 10
4212.3201677850256601
 20
214.4060236566905928
 30
0.0
 11
4213.0200363298627053
 21
213.7061551117539864
 31
0.0
  0
LINE
  5
B0E1
  8
0
 10
4213.1012394354165735
 20
211.4388774991514026
 30
0.0
 11
4212.4524855560030119
 21
210.7788108411785117
 31
0.0
  0
LINE
  5
B0E2
  8
0
 10
4213.1012394354165735
 20
211.4388774991514026
 30
0.0
 11
4213.1036432781957046
 21
211.5465812213222989
 31
0.0
  0
ARC
  5
B0E3
  8
0
 10
4212.4086826885950359
 20
212.5869228264222954
 30
0.0
 40
0.1968503937000015
 50
138.9884266044101935
 51
222.7959504530950881
  0
LINE
  5
B0E4
  8
0
 10
4212.260143900222829
 20
212.7160983111276096
 30
0.0
 11
4212.5114751638111557
 21
213.0051039336603935
 31
0.0
  0
LINE
  5
B0E5
  8
0
 10
4212.5114751638111557
 20
213.0051039336603935
 30
0.0
 11
4212.5218341025947666
 21
213.0588443535222893
 31
0.0
  0
ARC
  5
B0E6
  8
0
 10
4211.9212370017958165
 20
213.30722432852221
 30
0.0
 40
0.4133858267998625
 50
352.0474483335872833
 51
357.3795766196889758
  0
ARC
  5
B0E7
  8
0
 10
4212.373519477588161
 20
213.2865247479606978
 30
0.0
 40
0.0393700793401441
 50
135.0000005466910977
 51
177.3795766196888906
  0
LINE
  5
B0E8
  8
0
 10
4212.3456806272452013
 20
213.3143635977723136
 30
0.0
 11
4212.4044222449147128
 21
213.3731052165638005
 31
0.0
  0
ARC
  5
B0E9
  8
0
 10
4212.4600999404001413
 20
213.3174275221427934
 30
0.0
 40
0.0787401513231373
 50
67.4999963591198338
 51
135.000000546689904
  0
LINE
  5
B0EA
  8
0
 10
4212.4902324963950377
 20
213.3901739344223074
 30
0.0
 11
4212.5928204357760478
 21
213.3476806109574113
 31
0.0
  0
ARC
  5
B0EB
  8
0
 10
4212.6229529896127133
 20
213.4204270180231049
 30
0.0
 40
0.0787401456798003
 50
247.4999963591197911
 51
315.0000113619162789
  0
LINE
  5
B0EC
  8
0
 10
4212.6786306916146714
 20
213.3647493381023139
 30
0.0
 11
4213.020036329913637
 21
213.7061551118040086
 31
0.0
  0
LINE
  5
B0EE
  8
0
 10
4217.3371005077442533
 20
214.3567067792722867
 30
0.0
 11
4217.5161257047448089
 21
214.3567067792722867
 31
0.0
  0
LINE
  5
B0EF
  8
0
 10
4215.0948658622446601
 20
215.2105492989722961
 30
0.0
 11
4217.0712438149448644
 21
215.2105492989722961
 31
0.0
  0
LINE
  5
B0F0
  8
0
 10
4217.5161257047448089
 20
214.3567067792722867
 30
0.0
 11
4217.5161257047448089
 21
216.876391818672289
 31
0.0
  0
LINE
  5
B0F1
  8
0
 10
4217.0712438149448644
 20
214.9815501330247969
 30
0.0
 11
4217.0712438149448644
 21
216.2515484649198072
 31
0.0
  0
ARC
  5
B0F2
  8
0
 10
4217.3371005077442533
 20
214.4157618973723061
 30
0.0
 40
0.0590551180999892
 50
205.1547517716329025
 51
270.0
  0
ARC
  5
B0F3
  8
0
 10
4220.3127348502657696
 20
215.8131198981452883
 30
0.0
 40
3.3464566942257972
 50
194.3883306509297029
 51
205.1547517716329025
  0
LINE
  5
B0F4
  8
0
 10
4217.2836455626456882
 20
214.3906605862671881
 30
0.0
 11
4217.2836455626456882
 21
216.8424380116773875
 31
0.0
  0
LINE
  5
B0F5
  8
0
 10
4217.3371005077442533
 20
216.876391818672289
 30
0.0
 11
4217.5161257047448089
 21
216.876391818672289
 31
0.0
  0
LINE
  5
B0F6
  8
0
 10
4215.0948658622446601
 20
216.022549298972308
 30
0.0
 11
4217.0712438149448644
 21
216.022549298972308
 31
0.0
  0
ARC
  5
B0F7
  8
0
 10
4217.3371005077442533
 20
216.817336700572298
 30
0.0
 40
0.0590551180999892
 50
90.0
 51
154.8452482283655911
  0
ARC
  5
B0F8
  8
0
 10
4220.3127348502657696
 20
215.4199786997994011
 30
0.0
 40
3.3464566942257972
 50
154.8452482283655911
 51
165.6116693490702971
  0
ARC
  5
B0F9
  8
0
 10
4215.0948658622446601
 20
213.5299351257723117
 30
0.0
 40
1.6806141732000131
 50
90.0
 51
135.0000000000046043
  0
LINE
  5
B0FA
  8
0
 10
4213.9064921838162263
 20
214.7183088042002055
 30
0.0
 11
4212.9571874106222822
 21
213.7690040310046982
 31
0.0
  0
ARC
  5
B0FB
  8
0
 10
4215.0948658622446601
 20
213.5299351257723117
 30
0.0
 40
2.492614173200014
 50
90.0
 51
135.0000000000046043
  0
LINE
  5
B0FC
  8
0
 10
4213.3323214774927692
 20
215.292479510523691
 30
0.0
 11
4212.3830167043397523
 21
214.3431747373691962
 31
0.0
  0
LINE
  5
B18D
  8
0
 10
4210.0535213627335906
 20
214.4878582140505898
 30
0.0
 11
4210.1600132768426192
 21
214.4939510503581914
 31
0.0
  0
ARC
  5
B18E
  8
0
 10
4184.0634399009932167
 20
185.487443460931587
 30
0.0
 40
39.0180551090977303
 50
41.9043230689843469
 51
48.0229202546677527
  0
ENDSEC
  0
EOF
